  0
SECTION
  2
HEADER
  9
$ACADVER
  1
AC1014
  9
$ACADMAINTVER
 70
     9
  9
$DWGCODEPAGE
  3
ANSI_1252
  9
$INSBASE
 10
0.0
 20
0.0
 30
0.0
  9
$EXTMIN
 10
0.0
 20
0.0
 30
0.0
  9
$EXTMAX
 10
2100.0
 20
1485.0
 30
0.0
  9
$LIMMIN
 10
0.0
 20
0.0
  9
$LIMMAX
 10
2100.0
 20
1485.0
  9
$ORTHOMODE
 70
     0
  9
$REGENMODE
 70
     1
  9
$FILLMODE
 70
     1
  9
$QTEXTMODE
 70
     0
  9
$MIRRTEXT
 70
     1
  9
$DRAGMODE
 70
     2
  9
$LTSCALE
 40
5.0
  9
$OSMODE
 70
    37
  9
$ATTMODE
 70
     1
  9
$TEXTSIZE
 40
17.5
  9
$TRACEWID
 40
1.0
  9
$TEXTSTYLE
  7
STANDARD
  9
$CLAYER
  8
0
  9
$CELTYPE
  6
BYLAYER
  9
$CECOLOR
 62
   256
  9
$CELTSCALE
 40
1.0
  9
$DELOBJ
 70
     1
  9
$DISPSILH
 70
     0
  9
$DIMSCALE
 40
1.0
  9
$DIMASZ
 40
30.0
  9
$DIMEXO
 40
5.0
  9
$DIMDLI
 40
3.75
  9
$DIMRND
 40
0.0
  9
$DIMDLE
 40
0.0
  9
$DIMEXE
 40
5.0
  9
$DIMTP
 40
0.0
  9
$DIMTM
 40
0.0
  9
$DIMTXT
 40
17.5
  9
$DIMCEN
 40
2.5
  9
$DIMTSZ
 40
0.0
  9
$DIMTOL
 70
     0
  9
$DIMLIM
 70
     0
  9
$DIMTIH
 70
     1
  9
$DIMTOH
 70
     1
  9
$DIMSE1
 70
     0
  9
$DIMSE2
 70
     0
  9
$DIMTAD
 70
     1
  9
$DIMZIN
 70
     0
  9
$DIMBLK
  1

  9
$DIMASO
 70
     1
  9
$DIMSHO
 70
     1
  9
$DIMPOST
  1

  9
$DIMAPOST
  1

  9
$DIMALT
 70
     0
  9
$DIMALTD
 70
     3
  9
$DIMALTF
 40
0.0393700787
  9
$DIMLFAC
 40
1.0
  9
$DIMTOFL
 70
     1
  9
$DIMTVP
 40
0.0
  9
$DIMTIX
 70
     0
  9
$DIMSOXD
 70
     0
  9
$DIMSAH
 70
     0
  9
$DIMBLK1
  1

  9
$DIMBLK2
  1

  9
$DIMSTYLE
  2
ISO-25
  9
$DIMCLRD
 70
     0
  9
$DIMCLRE
 70
     0
  9
$DIMCLRT
 70
     0
  9
$DIMTFAC
 40
1.0
  9
$DIMGAP
 40
7.62
  9
$DIMJUST
 70
     0
  9
$DIMSD1
 70
     0
  9
$DIMSD2
 70
     0
  9
$DIMTOLJ
 70
     0
  9
$DIMTZIN
 70
     0
  9
$DIMALTZ
 70
     0
  9
$DIMALTTZ
 70
     0
  9
$DIMFIT
 70
     3
  9
$DIMUPT
 70
     0
  9
$DIMUNIT
 70
     2
  9
$DIMDEC
 70
     2
  9
$DIMTDEC
 70
     2
  9
$DIMALTU
 70
     2
  9
$DIMALTTD
 70
     3
  9
$DIMTXSTY
  7
STANDARD
  9
$DIMAUNIT
 70
     0
  9
$LUNITS
 70
     2
  9
$LUPREC
 70
     2
  9
$SKETCHINC
 40
1.0
  9
$FILLETRAD
 40
10.0
  9
$AUNITS
 70
     0
  9
$AUPREC
 70
     2
  9
$MENU
  1
.
  9
$ELEVATION
 40
0.0
  9
$PELEVATION
 40
0.0
  9
$THICKNESS
 40
0.0
  9
$LIMCHECK
 70
     0
  9
$CHAMFERA
 40
10.0
  9
$CHAMFERB
 40
10.0
  9
$CHAMFERC
 40
20.0
  9
$CHAMFERD
 40
0.0
  9
$SKPOLY
 70
     0
  9
$TDCREATE
 40
2455559.35519912
  9
$TDUPDATE
 40
2455559.355199132
  9
$TDINDWG
 40
0.0000000116
  9
$TDUSRTIMER
 40
0.0000000116
  9
$USRTIMER
 70
     1
  9
$ANGBASE
 50
0.0
  9
$ANGDIR
 70
     0
  9
$PDMODE
 70
     0
  9
$PDSIZE
 40
-1.0
  9
$PLINEWID
 40
0.0
  9
$COORDS
 70
     1
  9
$SPLFRAME
 70
     0
  9
$SPLINETYPE
 70
     6
  9
$SPLINESEGS
 70
     8
  9
$ATTDIA
 70
     0
  9
$ATTREQ
 70
     1
  9
$HANDLING
 70
     1
  9
$HANDSEED
  5
703
  9
$SURFTAB1
 70
     6
  9
$SURFTAB2
 70
     6
  9
$SURFTYPE
 70
     6
  9
$SURFU
 70
     6
  9
$SURFV
 70
     6
  9
$UCSNAME
  2

  9
$UCSORG
 10
0.0
 20
0.0
 30
0.0
  9
$UCSXDIR
 10
1.0
 20
0.0
 30
0.0
  9
$UCSYDIR
 10
0.0
 20
1.0
 30
0.0
  9
$PUCSNAME
  2

  9
$PUCSORG
 10
0.0
 20
0.0
 30
0.0
  9
$PUCSXDIR
 10
1.0
 20
0.0
 30
0.0
  9
$PUCSYDIR
 10
0.0
 20
1.0
 30
0.0
  9
$USERI1
 70
     0
  9
$USERI2
 70
     0
  9
$USERI3
 70
     0
  9
$USERI4
 70
     0
  9
$USERI5
 70
     0
  9
$USERR1
 40
0.0
  9
$USERR2
 40
0.0
  9
$USERR3
 40
0.0
  9
$USERR4
 40
0.0
  9
$USERR5
 40
0.0
  9
$WORLDVIEW
 70
     1
  9
$SHADEDGE
 70
     3
  9
$SHADEDIF
 70
    70
  9
$TILEMODE
 70
     1
  9
$MAXACTVP
 70
    64
  9
$PINSBASE
 10
0.0
 20
0.0
 30
0.0
  9
$PLIMCHECK
 70
     0
  9
$PEXTMIN
 10
1.0000000000E+20
 20
1.0000000000E+20
 30
1.0000000000E+20
  9
$PEXTMAX
 10
-1.0000000000E+20
 20
-1.0000000000E+20
 30
-1.0000000000E+20
  9
$PLIMMIN
 10
0.0
 20
0.0
  9
$PLIMMAX
 10
420.0
 20
297.0
  9
$UNITMODE
 70
     0
  9
$VISRETAIN
 70
     1
  9
$PLINEGEN
 70
     0
  9
$PSLTSCALE
 70
     1
  9
$TREEDEPTH
 70
  3020
  9
$PICKSTYLE
 70
     1
  9
$CMLSTYLE
  2
STANDARD
  9
$CMLJUST
 70
     0
  9
$CMLSCALE
 40
20.0
  9
$PROXYGRAPHICS
 70
     1
  9
$MEASUREMENT
 70
     1
  0
ENDSEC
  0
SECTION
  2
CLASSES
  0
CLASS
  1
ACDBDICTIONARYWDFLT
  2
AcDbDictionaryWithDefault
  3
ObjectDBX Classes
 90
        0
280
     0
281
     0
  0
CLASS
  1
VISUALSTYLE
  2
AcDbVisualStyle
  3
ObjectDBX Classes
 90
     4095
280
     0
281
     0
  0
CLASS
  1
MATERIAL
  2
AcDbMaterial
  3
ObjectDBX Classes
 90
     1153
280
     0
281
     0
  0
CLASS
  1
XRECORD
  2
AcDbXrecord
  3
AutoCAD 2000
 90
        0
280
     0
281
     0
  0
CLASS
  1
LWPOLYLINE
  2
AcDbPolyline
  3
AutoCAD 2000
 90
        0
280
     0
281
     1
  0
CLASS
  1
HATCH
  2
AcDbHatch
  3
AutoCAD 2000
 90
        0
280
     0
281
     1
  0
ENDSEC
  0
SECTION
  2
TABLES
  0
TABLE
  2
VPORT
  5
8
330
0
100
AcDbSymbolTable
 70
     1
  0
VPORT
  5
29
330
8
100
AcDbSymbolTableRecord
100
AcDbViewportTableRecord
  2
*ACTIVE
 70
     0
 10
0.0
 20
0.0
 11
1.0
 21
1.0
 12
1050.0
 22
742.5
 13
0.0
 23
0.0
 14
10.0
 24
10.0
 15
10.0
 25
10.0
 16
0.0
 26
0.0
 36
1.0
 17
0.0
 27
0.0
 37
0.0
 40
1485.0
 41
1.4141414141
 42
50.0
 43
0.0
 44
0.0
 50
0.0
 51
0.0
 71
     0
 72
  2000
 73
     1
 74
     3
 75
     0
 76
     0
 77
     0
 78
     0
  0
ENDTAB
  0
TABLE
  2
LTYPE
  5
5
330
0
100
AcDbSymbolTable
 70
     6
  0
LTYPE
  5
14
330
5
100
AcDbSymbolTableRecord
100
AcDbLinetypeTableRecord
  2
BYBLOCK
 70
     0
  3

 72
    65
 73
     0
 40
0.0
  0
LTYPE
  5
15
330
5
100
AcDbSymbolTableRecord
100
AcDbLinetypeTableRecord
  2
BYLAYER
 70
     0
  3

 72
    65
 73
     0
 40
0.0
  0
LTYPE
  5
16
330
5
100
AcDbSymbolTableRecord
100
AcDbLinetypeTableRecord
  2
CONTINUOUS
 70
     0
  3
Solid line
 72
    65
 73
     0
 40
0.0
  0
LTYPE
  5
3F
330
5
100
AcDbSymbolTableRecord
100
AcDbLinetypeTableRecord
  2
HIDDEN
 70
     0
  3
Hidden __ __ __ __ __ __ __ __ __ __ __ __ __ __
 72
    65
 73
     2
 40
1.905
 49
1.27
 74
     0
 49
-0.635
 74
     0
  0
LTYPE
  5
40
330
5
100
AcDbSymbolTableRecord
100
AcDbLinetypeTableRecord
  2
PHANTOM
 70
     0
  3
Phantom ______  __  __  ______  __  __  ______
 72
    65
 73
     6
 40
12.7
 49
6.35
 74
     0
 49
-1.27
 74
     0
 49
1.27
 74
     0
 49
-1.27
 74
     0
 49
1.27
 74
     0
 49
-1.27
 74
     0
  0
LTYPE
  5
41
330
5
100
AcDbSymbolTableRecord
100
AcDbLinetypeTableRecord
  2
CENTER
 70
     0
  3
Center ____ _ ____ _ ____ _ ____ _ ____ _ ____
 72
    65
 73
     4
 40
10.16
 49
6.35
 74
     0
 49
-1.27
 74
     0
 49
1.27
 74
     0
 49
-1.27
 74
     0
  0
LTYPE
  5
42
330
5
100
AcDbSymbolTableRecord
100
AcDbLinetypeTableRecord
  2
CENTERX2
 70
     0
  3
Center (2x) ________  __  ________  __  _____
 72
    65
 73
     4
 40
20.32
 49
12.7
 74
     0
 49
-2.54
 74
     0
 49
2.54
 74
     0
 49
-2.54
 74
     0
  0
LTYPE
  5
43
330
5
100
AcDbSymbolTableRecord
100
AcDbLinetypeTableRecord
  2
DOT2
 70
     0
  3
Dot (.5x) ........................................
 72
    65
 73
     2
 40
0.635
 49
0.0
 74
     0
 49
-0.635
 74
     0
  0
ENDTAB
  0
TABLE
  2
LAYER
  5
2
330
0
100
AcDbSymbolTable
 70
     1
  0
LAYER
  5
10
330
2
100
AcDbSymbolTableRecord
100
AcDbLayerTableRecord
  2
0
 70
     0
 62
     7
  6
CONTINUOUS
  0
ENDTAB
  0
TABLE
  2
STYLE
  5
3
330
0
100
AcDbSymbolTable
 70
     1
  0
STYLE
  5
11
330
3
100
AcDbSymbolTableRecord
100
AcDbTextStyleTableRecord
  2
STANDARD
 70
     0
 40
0.0
 41
1.0
 50
0.0
 71
     0
 42
2.5
  3
txt
  4

  0
ENDTAB
  0
TABLE
  2
VIEW
  5
6
330
0
100
AcDbSymbolTable
 70
     0
  0
ENDTAB
  0
TABLE
  2
UCS
  5
7
330
0
100
AcDbSymbolTable
 70
     0
  0
ENDTAB
  0
TABLE
  2
APPID
  5
9
330
0
100
AcDbSymbolTable
 70
     1
  0
APPID
  5
12
330
9
100
AcDbSymbolTableRecord
100
AcDbRegAppTableRecord
  2
ACAD
 70
     0
  0
ENDTAB
  0
TABLE
  2
DIMSTYLE
  5
A
330
0
100
AcDbSymbolTable
 70
     1
  0
DIMSTYLE
105
27
330
A
100
AcDbSymbolTableRecord
100
AcDbDimStyleTableRecord
  2
ISO-25
 70
     0
  3

  4

  5

  6

  7

 40
1.0
 41
2.5
 42
0.625
 43
3.75
 44
1.25
 45
0.0
 46
0.0
 47
0.0
 48
0.0
140
2.5
141
2.5
142
0.0
143
0.0393700787
144
1.0
145
0.0
146
1.0
147
0.625
 71
     0
 72
     0
 73
     0
 74
     0
 75
     0
 76
     0
 77
     1
 78
     8
170
     0
171
     3
172
     1
173
     0
174
     0
175
     0
176
     0
177
     0
178
     0
270
     2
271
     2
272
     2
273
     2
274
     3
340
11
275
     0
280
     0
281
     0
282
     0
283
     0
284
     8
285
     0
286
     0
287
     3
288
     0
  0
ENDTAB
  0
TABLE
  2
BLOCK_RECORD
  5
1
330
0
100
AcDbSymbolTable
 70
     1
  0
BLOCK_RECORD
  5
1F
330
1
100
AcDbSymbolTableRecord
100
AcDbBlockTableRecord
  2
*MODEL_SPACE
  0
BLOCK_RECORD
  5
1B
330
1
100
AcDbSymbolTableRecord
100
AcDbBlockTableRecord
  2
*PAPER_SPACE
  0
BLOCK_RECORD
  5
23
330
1
100
AcDbSymbolTableRecord
100
AcDbBlockTableRecord
  2
*PAPER_SPACE0
  0
ENDTAB
  0
ENDSEC
  0
SECTION
  2
BLOCKS
  0
BLOCK
  5
20
330
1F
100
AcDbEntity
  8
0
100
AcDbBlockBegin
  2
*MODEL_SPACE
 70
     0
 10
0.0
 20
0.0
 30
0.0
  3
*MODEL_SPACE
  1

  0
ENDBLK
  5
21
330
1F
100
AcDbEntity
  8
0
100
AcDbBlockEnd
  0
BLOCK
  5
1C
330
1B
100
AcDbEntity
 67
     1
  8
0
100
AcDbBlockBegin
  2
*PAPER_SPACE
 70
     0
 10
0.0
 20
0.0
 30
0.0
  3
*PAPER_SPACE
  1

  0
ENDBLK
  5
1D
330
1B
100
AcDbEntity
 67
     1
  8
0
100
AcDbBlockEnd
  0
BLOCK
  5
24
330
23
100
AcDbEntity
  8
0
100
AcDbBlockBegin
  2
*PAPER_SPACE0
 70
     0
 10
0.0
 20
0.0
 30
0.0
  3
*PAPER_SPACE0
  1

  0
ENDBLK
  5
25
330
23
100
AcDbEntity
  8
0
100
AcDbBlockEnd
  0
ENDSEC
  0
SECTION
  2
ENTITIES
  0
LINE
  5
44
330
1F
100
AcDbEntity
  8
0
  6
CONTINUOUS
 62
     7
100
AcDbLine
 10
1200.8084387846
 20
1043.2645826699
 30
0.0
 11
1201.1323304243
 21
1043.2645826699
 31
0.0
  0
LINE
  5
45
330
1F
100
AcDbEntity
  8
0
  6
CONTINUOUS
 62
     7
100
AcDbLine
 10
979.2020351953
 20
1078.9738706412
 30
0.0
 11
978.7835956878
 21
1090.956430799
 31
0.0
  0
LINE
  5
46
330
1F
100
AcDbEntity
  8
0
  6
CONTINUOUS
 62
     7
100
AcDbLine
 10
984.280246622
 20
1090.956430799
 30
0.0
 11
978.7835956878
 21
1090.956430799
 31
0.0
  0
LINE
  5
47
330
1F
100
AcDbEntity
  8
0
  6
CONTINUOUS
 62
     7
100
AcDbLine
 10
984.6986861295
 20
1078.9738715725
 30
0.0
 11
984.280246622
 21
1090.956430799
 31
0.0
  0
ARC
  5
48
330
1F
100
AcDbEntity
  8
0
  6
CONTINUOUS
 62
     7
100
AcDbCircle
 10
981.9503798321
 20
965.8348500098
 30
0.0
 40
113.1723967567489
100
AcDbArc
 50
88.6084784167
 51
91.3915409991
  0
LWPOLYLINE
  5
49
330
1F
100
AcDbEntity
  8
0
  6
CONTINUOUS
 62
     7
100
AcDbPolyline
 90
        3
 70
   128
 43
0.0
 10
986.6799892253
 20
1078.9083418535
 10
985.5700166292
 20
1078.9316547202
 10
984.6986861295
 20
1078.9738715725
  0
LINE
  5
4A
330
1F
100
AcDbEntity
  8
0
  6
CONTINUOUS
 62
     7
100
AcDbLine
 10
1201.2869448728
 20
1090.956430799
 30
0.0
 11
984.280246622
 21
1090.956430799
 31
0.0
  0
LINE
  5
4B
330
1F
100
AcDbEntity
  8
0
  6
CONTINUOUS
 62
     7
100
AcDbLine
 10
1200.8685053653
 20
1078.9738715725
 30
0.0
 11
1201.2869448728
 21
1090.956430799
 31
0.0
  0
LWPOLYLINE
  5
4C
330
1F
100
AcDbEntity
  8
0
  6
CONTINUOUS
 62
     7
100
AcDbPolyline
 90
        3
 70
   128
 43
0.0
 10
1198.8872022695
 20
1078.9083418535
 10
1199.9971748657
 20
1078.9316547202
 10
1200.8685053653
 20
1078.9738715725
  0
LINE
  5
4D
330
1F
100
AcDbEntity
  8
0
  6
CONTINUOUS
 62
     7
100
AcDbLine
 10
986.6799892253
 20
1078.9083418535
 30
0.0
 11
1198.8872022695
 21
1078.9083418535
 31
0.0
  0
LINE
  5
4E
330
1F
100
AcDbEntity
  8
0
  6
CONTINUOUS
 62
     7
100
AcDbLine
 10
1201.2869448728
 20
1090.956430799
 30
0.0
 11
1206.783595807
 21
1090.956430799
 31
0.0
  0
LINE
  5
4F
330
1F
100
AcDbEntity
  8
0
  6
CONTINUOUS
 62
     7
100
AcDbLine
 10
1206.3651562995
 20
1078.9738706412
 30
0.0
 11
1206.783595807
 21
1090.956430799
 31
0.0
  0
ARC
  5
50
330
1F
100
AcDbEntity
  8
0
  6
CONTINUOUS
 62
     7
100
AcDbCircle
 10
1203.6168116693
 20
965.873272612
 30
0.0
 40
113.1339854896703
100
AcDbArc
 50
88.607986455
 51
91.3919941292
  0
LINE
  5
51
330
1F
100
AcDbEntity
  8
0
  6
CONTINUOUS
 62
     7
100
AcDbLine
 10
986.6799892253
 20
1078.9083418535
 30
0.0
 11
986.6799892253
 21
1076.5502507897
 31
0.0
  0
LINE
  5
52
330
1F
100
AcDbEntity
  8
0
  6
CONTINUOUS
 62
     7
100
AcDbLine
 10
986.6799892253
 20
1076.5502507897
 30
0.0
 11
984.5667959518
 21
1076.5941207396
 31
0.0
  0
ARC
  5
53
330
1F
100
AcDbEntity
  8
0
  6
CONTINUOUS
 62
     7
100
AcDbCircle
 10
574.8244575511
 20
1102.2396087618
 30
0.0
 40
410.5340153747186
100
AcDbArc
 50
356.4186295028
 51
356.751199462
  0
ARC
  5
54
330
1F
100
AcDbEntity
  8
0
  6
CONTINUOUS
 62
     7
100
AcDbCircle
 10
1610.6361052973
 20
1102.2333999755
 30
0.0
 40
410.427206021006
100
AcDbArc
 50
183.2487782465
 51
183.581432807
  0
LINE
  5
55
330
1F
100
AcDbEntity
  8
0
  6
CONTINUOUS
 62
     7
100
AcDbLine
 10
1198.8872022695
 20
1076.5502507897
 30
0.0
 11
1201.0005073018
 21
1076.5946115466
 31
0.0
  0
LINE
  5
56
330
1F
100
AcDbEntity
  8
0
  6
CONTINUOUS
 62
     7
100
AcDbLine
 10
1198.8872022695
 20
1078.9083418535
 30
0.0
 11
1198.8872022695
 21
1076.5502507897
 31
0.0
  0
ARC
  5
57
330
1F
100
AcDbEntity
  8
0
  6
CONTINUOUS
 62
     7
100
AcDbCircle
 10
982.9358670097
 20
1057.6445576359
 30
0.0
 40
19.01976593780547
100
AcDbArc
 50
85.1113053949
 51
94.8888262877
  0
LINE
  5
58
330
1F
100
AcDbEntity
  8
0
  6
CONTINUOUS
 62
     7
100
AcDbLine
 10
979.202146954
 20
1078.9738743665
 30
0.0
 11
979.2837978668
 21
1078.5760711046
 31
0.0
  0
ARC
  5
59
330
1F
100
AcDbEntity
  8
0
  6
CONTINUOUS
 62
     7
100
AcDbCircle
 10
1203.8697942078
 20
1079.0625898643
 30
0.0
 40
2.49693870653489
100
AcDbArc
 50
278.8211345069
 51
357.9638051137
  0
ARC
  5
5A
330
1F
100
AcDbEntity
  8
0
  6
CONTINUOUS
 62
     7
100
AcDbCircle
 10
1202.6313244852
 20
1057.6445576359
 30
0.0
 40
19.0197659378057
100
AcDbArc
 50
85.1111737123
 51
94.8886946051
  0
LINE
  5
5B
330
1F
100
AcDbEntity
  8
0
  6
CONTINUOUS
 62
     7
100
AcDbLine
 10
1198.8872022695
 20
1076.5502507897
 30
0.0
 11
986.6799892253
 21
1076.5502507897
 31
0.0
  0
LINE
  5
5C
330
1F
100
AcDbEntity
  8
0
  6
CONTINUOUS
 62
     7
100
AcDbLine
 10
981.3145057625
 20
1076.5946199285
 30
0.0
 11
981.1828838057
 21
1076.5502507897
 31
0.0
  0
LINE
  5
5D
330
1F
100
AcDbEntity
  8
0
  6
CONTINUOUS
 62
     7
100
AcDbLine
 10
986.6799892253
 20
1076.5502507897
 30
0.0
 11
992.3432723946
 21
1075.3464371996
 31
0.0
  0
LINE
  5
5E
330
1F
100
AcDbEntity
  8
0
  6
CONTINUOUS
 62
     7
100
AcDbLine
 10
990.3290898866
 20
1075.4061610537
 30
0.0
 11
992.3432723946
 21
1075.3464371996
 31
0.0
  0
ARC
  5
5F
330
1F
100
AcDbEntity
  8
0
  6
CONTINUOUS
 62
     7
100
AcDbCircle
 10
992.4687065529
 20
1155.6694160515
 30
0.0
 40
80.2917683347326
100
AcDbArc
 50
264.7398071033
 51
268.4730001477
  0
LINE
  5
60
330
1F
100
AcDbEntity
  8
0
  6
CONTINUOUS
 62
     7
100
AcDbLine
 10
985.1076559491
 20
1075.7157857629
 30
0.0
 11
981.1828838057
 21
1076.5502507897
 31
0.0
  0
ARC
  5
61
330
1F
100
AcDbEntity
  8
0
  6
CONTINUOUS
 62
     7
100
AcDbCircle
 10
1193.0984849419
 20
1155.6694160515
 30
0.0
 40
80.29176833473784
100
AcDbArc
 50
271.5269998523
 51
275.2601928967
  0
LINE
  5
62
330
1F
100
AcDbEntity
  8
0
  6
CONTINUOUS
 62
     7
100
AcDbLine
 10
1195.2381016082
 20
1075.4061610537
 30
0.0
 11
1193.2239191002
 21
1075.3464371996
 31
0.0
  0
LINE
  5
63
330
1F
100
AcDbEntity
  8
0
  6
CONTINUOUS
 62
     7
100
AcDbLine
 10
1198.8872022695
 20
1076.5502507897
 30
0.0
 11
1193.2239191002
 21
1075.3464371996
 31
0.0
  0
LINE
  5
64
330
1F
100
AcDbEntity
  8
0
  6
CONTINUOUS
 62
     7
100
AcDbLine
 10
1204.2495043344
 20
1076.5941077011
 30
0.0
 11
1204.3843076891
 21
1076.5502507897
 31
0.0
  0
LINE
  5
65
330
1F
100
AcDbEntity
  8
0
  6
CONTINUOUS
 62
     7
100
AcDbLine
 10
1200.4595355458
 20
1075.7157857629
 30
0.0
 11
1204.3843076891
 21
1076.5502507897
 31
0.0
  0
LINE
  5
66
330
1F
100
AcDbEntity
  8
0
  6
CONTINUOUS
 62
     7
100
AcDbLine
 10
992.3432723946
 20
1075.3464371996
 30
0.0
 11
1193.2239191002
 21
1075.3464371996
 31
0.0
  0
ARC
  5
67
330
1F
100
AcDbEntity
  8
0
  6
CONTINUOUS
 62
     7
100
AcDbCircle
 10
981.7028062585
 20
1078.9955963616
 30
0.0
 40
2.500006864589512
100
AcDbArc
 50
182.0001267415
 51
257.9966776039
  0
LWPOLYLINE
  5
68
330
1F
100
AcDbEntity
  8
0
  6
CONTINUOUS
 62
     7
100
AcDbPolyline
 90
        3
 70
   128
 43
0.0
 10
979.203622169
 20
1078.9284807729
 10
979.2038009829
 20
1078.9233482542
 10
979.2043225235
 20
1078.9083418535
  0
ARC
  5
69
330
1F
100
AcDbEntity
  8
0
  6
CONTINUOUS
 62
     7
100
AcDbCircle
 10
1203.8643852363
 20
1078.9955963616
 30
0.0
 40
2.500006864589626
100
AcDbArc
 50
282.0033223961
 51
357.9998732585
  0
LWPOLYLINE
  5
6A
330
1F
100
AcDbEntity
  8
0
  6
CONTINUOUS
 62
     7
100
AcDbPolyline
 90
        3
 70
   128
 43
0.0
 10
1206.3635693259
 20
1078.9284807729
 10
1206.3633905119
 20
1078.9233482542
 10
1206.3628689713
 20
1078.9083418535
  0
LINE
  5
6B
330
1F
100
AcDbEntity
  8
0
  6
CONTINUOUS
 62
     7
100
AcDbLine
 10
991.0211296148
 20
996.1064270796
 30
0.0
 11
990.3290898866
 21
1075.4061610537
 31
0.0
  0
LINE
  5
6C
330
1F
100
AcDbEntity
  8
0
  6
CONTINUOUS
 62
     7
100
AcDbLine
 10
985.5213419861
 20
996.1064270796
 30
0.0
 11
991.0211296148
 21
996.1064270796
 31
0.0
  0
LINE
  5
6D
330
1F
100
AcDbEntity
  8
0
  6
CONTINUOUS
 62
     7
100
AcDbLine
 10
985.5213419861
 20
996.1064270796
 30
0.0
 11
984.8260761566
 21
1075.7756530406
 31
0.0
  0
LINE
  5
6E
330
1F
100
AcDbEntity
  8
0
  6
CONTINUOUS
 62
     7
100
AcDbLine
 10
1200.0458495087
 20
996.1064270796
 30
0.0
 11
1194.5460618801
 21
996.1064270796
 31
0.0
  0
LINE
  5
6F
330
1F
100
AcDbEntity
  8
0
  6
CONTINUOUS
 62
     7
100
AcDbLine
 10
1194.5460618801
 20
996.1064270796
 30
0.0
 11
1195.2381016082
 21
1075.4061610537
 31
0.0
  0
LINE
  5
70
330
1F
100
AcDbEntity
  8
0
  6
CONTINUOUS
 62
     7
100
AcDbLine
 10
1200.0458495087
 20
996.1064270796
 30
0.0
 11
1200.7411153383
 21
1075.7756530406
 31
0.0
  0
LINE
  5
71
330
1F
100
AcDbEntity
  8
0
  6
CONTINUOUS
 62
     7
100
AcDbLine
 10
1009.7484917707
 20
996.1064270796
 30
0.0
 11
1009.7644881672
 21
998.1064311328
 31
0.0
  0
LINE
  5
72
330
1F
100
AcDbEntity
  8
0
  6
CONTINUOUS
 62
     7
100
AcDbLine
 10
991.0211296148
 20
996.1064270796
 30
0.0
 11
1009.7484917707
 21
996.1064270796
 31
0.0
  0
LINE
  5
73
330
1F
100
AcDbEntity
  8
0
  6
CONTINUOUS
 62
     7
100
AcDbLine
 10
1194.5460618801
 20
996.1064270796
 30
0.0
 11
1175.8186997241
 21
996.1064270796
 31
0.0
  0
LINE
  5
74
330
1F
100
AcDbEntity
  8
0
  6
CONTINUOUS
 62
     7
100
AcDbLine
 10
1175.8186997241
 20
996.1064270796
 30
0.0
 11
1175.8027033276
 21
998.1064311328
 31
0.0
  0
LINE
  5
75
330
1F
100
AcDbEntity
  8
0
  6
CONTINUOUS
 62
     7
100
AcDbLine
 10
1175.8027033276
 20
998.1064311328
 30
0.0
 11
1009.7644881672
 21
998.1064311328
 31
0.0
  0
LINE
  5
76
330
1F
100
AcDbEntity
  8
0
  6
CONTINUOUS
 62
     7
100
AcDbLine
 10
1009.9992634124
 20
996.1064270796
 30
0.0
 11
1010.018314547
 21
998.1064311328
 31
0.0
  0
LINE
  5
77
330
1F
100
AcDbEntity
  8
0
  6
CONTINUOUS
 62
     7
100
AcDbLine
 10
1009.9992634124
 20
996.1064270796
 30
0.0
 11
1009.7484917707
 21
996.1064270796
 31
0.0
  0
LINE
  5
78
330
1F
100
AcDbEntity
  8
0
  6
CONTINUOUS
 62
     7
100
AcDbLine
 10
1175.5679280824
 20
996.1064270796
 30
0.0
 11
1175.5488769478
 21
998.1064311328
 31
0.0
  0
LINE
  5
79
330
1F
100
AcDbEntity
  8
0
  6
CONTINUOUS
 62
     7
100
AcDbLine
 10
1175.5679280824
 20
996.1064270796
 30
0.0
 11
1175.8186997241
 21
996.1064270796
 31
0.0
  0
ARC
  5
7A
330
1F
100
AcDbEntity
  8
0
  6
CONTINUOUS
 62
     7
100
AcDbCircle
 10
972.7235951788
 20
1083.8564288353
 30
0.0
 40
1.899998635054716
100
AcDbArc
 50
179.9999421781
 51
0.0000578219
  0
LINE
  5
7B
330
1F
100
AcDbEntity
  8
0
  6
CONTINUOUS
 62
     7
100
AcDbLine
 10
974.8270244665
 20
1089.681935297
 30
0.0
 11
974.6235938138
 21
1083.8564307528
 31
0.0
  0
LINE
  5
7C
330
1F
100
AcDbEntity
  8
0
  6
CONTINUOUS
 62
     7
100
AcDbLine
 10
979.8526720471
 20
1077.3142119037
 30
0.0
 11
971.6950388021
 21
1079.0655993955
 31
0.0
  0
LINE
  5
7D
330
1F
100
AcDbEntity
  8
0
  6
CONTINUOUS
 62
     7
100
AcDbLine
 10
970.8235965437
 20
1083.8564307528
 30
0.0
 11
970.6682668395
 21
1088.3045330743
 31
0.0
  0
ARC
  5
7E
330
1F
100
AcDbEntity
  8
0
  6
CONTINUOUS
 62
     7
100
AcDbCircle
 10
972.7235957474
 20
1083.856430799
 30
0.0
 40
4.900000000000093
100
AcDbArc
 50
114.8002054539
 51
257.882939862
  0
LINE
  5
7F
330
1F
100
AcDbEntity
  8
0
  6
CONTINUOUS
 62
     7
100
AcDbLine
 10
974.8270244665
 20
1089.681935297
 30
0.0
 11
978.7835956878
 21
1090.956430799
 31
0.0
  0
ARC
  5
80
330
1F
100
AcDbEntity
  8
0
  6
CONTINUOUS
 62
     7
100
AcDbCircle
 10
972.7235931997
 20
1083.8564330199
 30
0.0
 40
1.900000614158091
100
AcDbArc
 50
359.9999316328
 51
178.0509688244
  0
LWPOLYLINE
  5
81
330
1F
100
AcDbEntity
  8
0
  6
CONTINUOUS
 62
     7
100
AcDbPolyline
 90
        3
 70
   128
 43
0.0
 10
970.6682668395
 20
1088.3045330743
 10
970.9746943182
 20
1088.433694244
 10
971.221219129
 20
1088.5204285482
  0
LINE
  5
82
330
1F
100
AcDbEntity
  8
0
  6
CONTINUOUS
 62
     7
100
AcDbLine
 10
971.221219129
 20
1088.5204285482
 30
0.0
 11
974.8270244665
 21
1089.681935297
 31
0.0
  0
LINE
  5
83
330
1F
100
AcDbEntity
  8
0
  6
CONTINUOUS
 62
     7
100
AcDbLine
 10
1201.542239017
 20
1043.7433420779
 30
0.0
 11
1202.390219397
 21
1076.1262745695
 31
0.0
  0
ARC
  5
84
330
1F
100
AcDbEntity
  8
0
  6
CONTINUOUS
 62
     7
100
AcDbCircle
 10
1201.2388989973
 20
1052.1730179977
 30
0.0
 40
8.435131965747443
100
AcDbArc
 50
267.5465547892
 51
272.0608866836
  0
ELLIPSE
  5
85
330
1F
100
AcDbEntity
  8
0
  6
CONTINUOUS
 62
     7
100
AcDbEllipse
 10
1196.8607295641
 20
895.5248225578
 30
0.0
 11
3.991456850882741
 21
157.9809037442493
 31
0.0
210
0.0
220
0.0
230
0.9999999999999999
 40
0.0049780126
 41
5.93000200037698
 42
6.100002224591174
  0
LINE
  5
86
330
1F
100
AcDbEntity
  8
0
  6
CONTINUOUS
 62
     7
100
AcDbLine
 10
1200.9286613531
 20
1050.858903593
 30
0.0
 11
1201.585832364
 21
1075.9552530112
 31
0.0
  0
LINE
  5
87
330
1F
100
AcDbEntity
  8
0
  6
CONTINUOUS
 62
     7
100
AcDbLine
 10
1200.8886442847
 20
1075.8070209162
 30
0.0
 11
1200.9286613531
 21
1050.858903593
 31
0.0
  0
ARC
  5
88
330
1F
100
AcDbEntity
  8
0
  6
CONTINUOUS
 62
     7
100
AcDbCircle
 10
1198.8134305158
 20
1043.5803882886
 30
0.0
 40
2.070973237303125
100
AcDbArc
 50
351.0004211908
 51
4.5755135044
  0
LINE
  5
89
330
1F
100
AcDbEntity
  8
0
  6
CONTINUOUS
 62
     7
100
AcDbLine
 10
1200.4573227233
 20
1043.2564317348
 30
0.0
 11
1200.8585588402
 21
1043.2564317348
 31
0.0
  0
ARC
  5
8A
330
1F
100
AcDbEntity
  8
0
  6
CONTINUOUS
 62
     7
100
AcDbCircle
 10
1201.0424224046
 20
1043.7564193969
 30
0.0
 40
0.4999876621434362
100
AcDbArc
 50
269.9993597668
 51
358.5012417396
  0
LINE
  5
8B
330
1F
100
AcDbEntity
  8
0
  6
CONTINUOUS
 62
     7
100
AcDbLine
 10
1201.0424168176
 20
1043.2564317348
 30
0.0
 11
1200.8585588402
 21
1043.2564317348
 31
0.0
  0
ARC
  5
8C
330
1F
100
AcDbEntity
  8
0
  6
CONTINUOUS
 62
     8
100
AcDbCircle
 10
981.6057148101
 20
1078.9250694747
 30
0.0
 40
2.347998755118458
100
AcDbArc
 50
188.5479193185
 51
262.8752161346
  0
LINE
  5
8D
330
1F
100
AcDbEntity
  8
0
  6
CONTINUOUS
 62
     8
100
AcDbLine
 10
1200.4616142578
 20
1043.7477043929
 30
0.0
 11
1200.8778334922
 21
1043.7477043929
 31
0.0
  0
LINE
  5
8E
330
1F
100
AcDbEntity
  8
0
  6
CONTINUOUS
 62
     7
100
AcDbLine
 10
967.8235979146
 20
830.4427845721
 30
0.0
 11
967.8235979146
 21
808.6427843515
 31
0.0
  0
LINE
  5
8F
330
1F
100
AcDbEntity
  8
0
  6
CONTINUOUS
 62
     7
100
AcDbLine
 10
967.8235979146
 20
785.4427837153
 30
0.0
 11
967.8235979146
 21
763.6427834947
 31
0.0
  0
LINE
  5
90
330
1F
100
AcDbEntity
  8
0
  6
CONTINUOUS
 62
     7
100
AcDbLine
 10
967.8235979146
 20
740.4427847211
 30
0.0
 11
967.8235979146
 21
718.6427845006
 31
0.0
  0
LINE
  5
91
330
1F
100
AcDbEntity
  8
0
  6
CONTINUOUS
 62
     7
100
AcDbLine
 10
967.8235979146
 20
695.442782933
 30
0.0
 11
967.8235979146
 21
673.6427864377
 31
0.0
  0
LINE
  5
92
330
1F
100
AcDbEntity
  8
0
  6
CONTINUOUS
 62
     7
100
AcDbLine
 10
979.9835936493
 20
650.1427760665
 30
0.0
 11
979.9835936493
 21
641.8394318168
 31
0.0
  0
ARC
  5
93
330
1F
100
AcDbEntity
  8
0
  6
CONTINUOUS
 62
     7
100
AcDbCircle
 10
984.2793871852
 20
641.8385798291
 30
0.0
 40
4.295793620398657
100
AcDbArc
 50
179.9886364887
 51
270.0114628647
  0
LINE
  5
94
330
1F
100
AcDbEntity
  8
0
  6
CONTINUOUS
 62
     7
100
AcDbLine
 10
984.280246622
 20
637.5427862947
 30
0.0
 11
1201.2869448728
 21
637.5427862947
 31
0.0
  0
ARC
  5
95
330
1F
100
AcDbEntity
  8
0
  6
CONTINUOUS
 62
     7
100
AcDbCircle
 10
1201.2878043096
 20
641.8385798291
 30
0.0
 40
4.295793620398541
100
AcDbArc
 50
269.9885371353
 51
0.0113635113
  0
LINE
  5
96
330
1F
100
AcDbEntity
  8
0
  6
CONTINUOUS
 62
     7
100
AcDbLine
 10
1205.5835978455
 20
862.2461354677
 30
0.0
 11
1205.5835978455
 21
641.8394318168
 31
0.0
  0
ARC
  5
97
330
1F
100
AcDbEntity
  8
0
  6
CONTINUOUS
 62
     7
100
AcDbCircle
 10
1201.2878073089
 20
862.2469904547
 30
0.0
 40
4.295790621727214
100
AcDbArc
 50
359.9885964775
 51
90.0115028759
  0
LINE
  5
98
330
1F
100
AcDbEntity
  8
0
  6
CONTINUOUS
 62
     7
100
AcDbLine
 10
984.280246622
 20
866.5427809898
 30
0.0
 11
1201.2869448728
 21
866.5427809898
 31
0.0
  0
ARC
  5
99
330
1F
100
AcDbEntity
  8
0
  6
CONTINUOUS
 62
     7
100
AcDbCircle
 10
984.279384186
 20
862.2469904547
 30
0.0
 40
4.295790621727187
100
AcDbArc
 50
89.9884971241
 51
180.0114035225
  0
LINE
  5
9A
330
1F
100
AcDbEntity
  8
0
  6
CONTINUOUS
 62
     7
100
AcDbLine
 10
979.9835936493
 20
862.2461354677
 30
0.0
 11
979.9835936493
 21
853.9427837674
 31
0.0
  0
LINE
  5
9B
330
1F
100
AcDbEntity
  8
0
  6
CONTINUOUS
 62
     7
100
AcDbLine
 10
978.7835956878
 20
853.9427837674
 30
0.0
 11
979.9835936493
 21
853.9427837674
 31
0.0
  0
LINE
  5
9C
330
1F
100
AcDbEntity
  8
0
  6
CONTINUOUS
 62
     7
100
AcDbLine
 10
978.7835956878
 20
650.1427760665
 30
0.0
 11
979.9835936493
 21
650.1427760665
 31
0.0
  0
LINE
  5
9D
330
1F
100
AcDbEntity
  8
0
  6
CONTINUOUS
 62
     7
100
AcDbLine
 10
1201.2869448728
 20
636.3427808826
 30
0.0
 11
984.280246622
 21
636.3427808826
 31
0.0
  0
ELLIPSE
  5
9E
330
1F
100
AcDbEntity
  8
0
  6
CONTINUOUS
 62
     7
100
AcDbEllipse
 10
1201.2802432538
 20
641.8461359988
 30
0.0
 11
3.893826995295512
 21
-3.893826995295512
 31
0.0
210
0.0
220
0.0
230
0.9999999999999998
 40
0.998782766
 41
5.498396131367745
 42
7.067974482991434
  0
ELLIPSE
  5
9F
330
1F
100
AcDbEntity
  8
0
  6
CONTINUOUS
 62
     7
100
AcDbEllipse
 10
984.2869482411
 20
641.8461359988
 30
0.0
 11
3.893826995295512
 21
3.893826995295512
 31
0.0
210
0.0
220
0.0
230
0.9999999999999998
 40
0.998782766
 41
2.356803477777952
 42
3.926381829401648
  0
LINE
  5
A0
330
1F
100
AcDbEntity
  8
0
  6
CONTINUOUS
 62
     7
100
AcDbLine
 10
978.7835956878
 20
641.8394318168
 30
0.0
 11
978.7835956878
 21
650.1427760665
 31
0.0
  0
LINE
  5
A1
330
1F
100
AcDbEntity
  8
0
  6
CONTINUOUS
 62
     7
100
AcDbLine
 10
1206.783595807
 20
641.8394318168
 30
0.0
 11
1206.783595807
 21
862.2461354677
 31
0.0
  0
LINE
  5
A2
330
1F
100
AcDbEntity
  8
0
  6
CONTINUOUS
 62
     7
100
AcDbLine
 10
978.7835956878
 20
853.9427837674
 30
0.0
 11
978.7835956878
 21
862.2461354677
 31
0.0
  0
ELLIPSE
  5
A3
330
1F
100
AcDbEntity
  8
0
  6
CONTINUOUS
 62
     7
100
AcDbEllipse
 10
1201.2802432538
 20
862.2394310115
 30
0.0
 11
-3.893826995295739
 21
-3.893826995295512
 31
0.0
210
0.0
220
0.0
230
1.0
 40
0.998782766
 41
2.356803477777974
 42
3.926381829401706
  0
LINE
  5
A4
330
1F
100
AcDbEntity
  8
0
  6
CONTINUOUS
 62
     7
100
AcDbLine
 10
1201.2869448728
 20
867.7427864019
 30
0.0
 11
984.280246622
 21
867.7427864019
 31
0.0
  0
ELLIPSE
  5
A5
330
1F
100
AcDbEntity
  8
0
  6
CONTINUOUS
 62
     7
100
AcDbEllipse
 10
984.2869482411
 20
862.2394310115
 30
0.0
 11
-3.893826995295512
 21
3.893826995295512
 31
0.0
210
0.0
220
0.0
230
0.9999999999999998
 40
0.998782766
 41
5.498396131367759
 42
7.067974482991442
  0
LINE
  5
A6
330
1F
100
AcDbEntity
  8
0
  6
CONTINUOUS
 62
     7
100
AcDbLine
 10
981.2384204335
 20
862.2461354677
 30
0.0
 11
979.9835936493
 21
862.2461354677
 31
0.0
  0
LINE
  5
A7
330
1F
100
AcDbEntity
  8
0
  6
CONTINUOUS
 62
     7
100
AcDbLine
 10
984.280246622
 20
865.2879616563
 30
0.0
 11
984.280246622
 21
866.5427809898
 31
0.0
  0
ARC
  5
A8
330
1F
100
AcDbEntity
  8
0
  6
CONTINUOUS
 62
     7
100
AcDbCircle
 10
985.8512202158
 20
860.675161874
 30
0.0
 40
4.872974437019652
100
AcDbArc
 50
108.8072176996
 51
161.1927823003
  0
ARC
  5
A9
330
1F
100
AcDbEntity
  8
0
  6
CONTINUOUS
 62
     7
100
AcDbCircle
 10
985.783610912
 20
860.8665486482
 30
0.0
 40
4.670010404293747
100
AcDbArc
 50
53.9166680806
 51
108.779007411
  0
LINE
  5
AA
330
1F
100
AcDbEntity
  8
0
  6
CONTINUOUS
 62
     7
100
AcDbLine
 10
1201.2869448728
 20
865.2879616563
 30
0.0
 11
1201.2869448728
 21
866.5427809898
 31
0.0
  0
ARC
  5
AB
330
1F
100
AcDbEntity
  8
0
  6
CONTINUOUS
 62
     7
100
AcDbCircle
 10
1199.7835805828
 20
860.8665486482
 30
0.0
 40
4.670010404293154
100
AcDbArc
 50
71.220992589
 51
126.0833319194
  0
LINE
  5
AC
330
1F
100
AcDbEntity
  8
0
  6
CONTINUOUS
 62
     7
100
AcDbLine
 10
988.5340662069
 20
864.6406701152
 30
0.0
 11
1197.033125288
 21
864.6406701152
 31
0.0
  0
LINE
  5
AD
330
1F
100
AcDbEntity
  8
0
  6
CONTINUOUS
 62
     7
100
AcDbLine
 10
1204.3287710614
 20
862.2461354677
 30
0.0
 11
1205.5835978455
 21
862.2461354677
 31
0.0
  0
ARC
  5
AE
330
1F
100
AcDbEntity
  8
0
  6
CONTINUOUS
 62
     7
100
AcDbCircle
 10
1199.7159712791
 20
860.675161874
 30
0.0
 40
4.872974437019431
100
AcDbArc
 50
18.8072176997
 51
71.1927823004
  0
ARC
  5
AF
330
1F
100
AcDbEntity
  8
0
  6
CONTINUOUS
 62
     7
100
AcDbCircle
 10
985.659795766
 20
860.7427654447
 30
0.0
 40
4.669976579899494
100
AcDbArc
 50
161.2207771917
 51
216.0835473166
  0
LINE
  5
B0
330
1F
100
AcDbEntity
  8
0
  6
CONTINUOUS
 62
     7
100
AcDbLine
 10
981.8857119746
 20
857.9923158829
 30
0.0
 11
981.8857119746
 21
853.9427837674
 31
0.0
  0
LINE
  5
B1
330
1F
100
AcDbEntity
  8
0
  6
CONTINUOUS
 62
     7
100
AcDbLine
 10
981.8857119746
 20
853.9427837674
 30
0.0
 11
979.9835936493
 21
853.9427837674
 31
0.0
  0
ARC
  5
B2
330
1F
100
AcDbEntity
  8
0
  6
CONTINUOUS
 62
     7
100
AcDbCircle
 10
1199.9073957289
 20
860.7427654447
 30
0.0
 40
4.669976579899835
100
AcDbArc
 50
323.9164526834
 51
18.7792228083
  0
LINE
  5
B3
330
1F
100
AcDbEntity
  8
0
  6
CONTINUOUS
 62
     7
100
AcDbLine
 10
1204.3287710614
 20
641.8394318168
 30
0.0
 11
1205.5835978455
 21
641.8394318168
 31
0.0
  0
ARC
  5
B4
330
1F
100
AcDbEntity
  8
0
  6
CONTINUOUS
 62
     7
100
AcDbCircle
 10
1199.9073848352
 20
643.3428001821
 30
0.0
 40
4.669986360069607
100
AcDbArc
 50
341.2208394732
 51
36.0834850351
  0
LINE
  5
B5
330
1F
100
AcDbEntity
  8
0
  6
CONTINUOUS
 62
     7
100
AcDbLine
 10
1203.6814795203
 20
857.9923158829
 30
0.0
 11
1203.6814795203
 21
646.0932514016
 31
0.0
  0
LINE
  5
B6
330
1F
100
AcDbEntity
  8
0
  6
CONTINUOUS
 62
     7
100
AcDbLine
 10
974.8270244665
 20
830.4427845721
 30
0.0
 11
974.8270244665
 21
827.2427825574
 31
0.0
  0
LINE
  5
B7
330
1F
100
AcDbEntity
  8
0
  6
CONTINUOUS
 62
     7
100
AcDbLine
 10
974.8270244665
 20
830.4427845721
 30
0.0
 11
978.7835956878
 21
830.4427845721
 31
0.0
  0
LINE
  5
B8
330
1F
100
AcDbEntity
  8
0
  6
CONTINUOUS
 62
     7
100
AcDbLine
 10
978.7835956878
 20
830.4427845721
 30
0.0
 11
978.7835956878
 21
808.6427843515
 31
0.0
  0
LINE
  5
B9
330
1F
100
AcDbEntity
  8
0
  6
CONTINUOUS
 62
     7
100
AcDbLine
 10
974.8270244665
 20
808.6427843515
 30
0.0
 11
978.7835956878
 21
808.6427843515
 31
0.0
  0
LINE
  5
BA
330
1F
100
AcDbEntity
  8
0
  6
CONTINUOUS
 62
     7
100
AcDbLine
 10
974.8270244665
 20
808.6427843515
 30
0.0
 11
974.8270244665
 21
811.8427826409
 31
0.0
  0
LINE
  5
BB
330
1F
100
AcDbEntity
  8
0
  6
CONTINUOUS
 62
     7
100
AcDbLine
 10
971.221219129
 20
811.8427826409
 30
0.0
 11
974.8270244665
 21
811.8427826409
 31
0.0
  0
LINE
  5
BC
330
1F
100
AcDbEntity
  8
0
  6
CONTINUOUS
 62
     7
100
AcDbLine
 10
971.221219129
 20
827.2427825574
 30
0.0
 11
971.221219129
 21
811.8427826409
 31
0.0
  0
LINE
  5
BD
330
1F
100
AcDbEntity
  8
0
  6
CONTINUOUS
 62
     7
100
AcDbLine
 10
971.221219129
 20
827.2427825574
 30
0.0
 11
974.8270244665
 21
827.2427825574
 31
0.0
  0
LINE
  5
BE
330
1F
100
AcDbEntity
  8
0
  6
CONTINUOUS
 62
     7
100
AcDbLine
 10
981.8857119746
 20
830.4427845721
 30
0.0
 11
981.8857119746
 21
808.6427843515
 31
0.0
  0
LINE
  5
BF
330
1F
100
AcDbEntity
  8
0
  6
CONTINUOUS
 62
     7
100
AcDbLine
 10
979.9835936493
 20
808.6427843515
 30
0.0
 11
981.8857119746
 21
808.6427843515
 31
0.0
  0
LINE
  5
C0
330
1F
100
AcDbEntity
  8
0
  6
CONTINUOUS
 62
     7
100
AcDbLine
 10
979.9835936493
 20
830.4427845721
 30
0.0
 11
979.9835936493
 21
808.6427843515
 31
0.0
  0
LINE
  5
C1
330
1F
100
AcDbEntity
  8
0
  6
CONTINUOUS
 62
     7
100
AcDbLine
 10
979.9835936493
 20
830.4427845721
 30
0.0
 11
981.8857119746
 21
830.4427845721
 31
0.0
  0
LINE
  5
C2
330
1F
100
AcDbEntity
  8
0
  6
CONTINUOUS
 62
     7
100
AcDbLine
 10
978.7835956878
 20
808.6427843515
 30
0.0
 11
979.9835936493
 21
808.6427843515
 31
0.0
  0
LINE
  5
C3
330
1F
100
AcDbEntity
  8
0
  6
CONTINUOUS
 62
     7
100
AcDbLine
 10
978.7835956878
 20
830.4427845721
 30
0.0
 11
979.9835936493
 21
830.4427845721
 31
0.0
  0
LINE
  5
C4
330
1F
100
AcDbEntity
  8
0
  6
CONTINUOUS
 62
     7
100
AcDbLine
 10
978.7835956878
 20
763.6427834947
 30
0.0
 11
978.7835956878
 21
785.4427837153
 31
0.0
  0
LINE
  5
C5
330
1F
100
AcDbEntity
  8
0
  6
CONTINUOUS
 62
     7
100
AcDbLine
 10
978.7835956878
 20
785.4427837153
 30
0.0
 11
979.9835936493
 21
785.4427837153
 31
0.0
  0
LINE
  5
C6
330
1F
100
AcDbEntity
  8
0
  6
CONTINUOUS
 62
     7
100
AcDbLine
 10
979.9835936493
 20
763.6427834947
 30
0.0
 11
979.9835936493
 21
785.4427837153
 31
0.0
  0
LINE
  5
C7
330
1F
100
AcDbEntity
  8
0
  6
CONTINUOUS
 62
     7
100
AcDbLine
 10
978.7835956878
 20
763.6427834947
 30
0.0
 11
979.9835936493
 21
763.6427834947
 31
0.0
  0
LINE
  5
C8
330
1F
100
AcDbEntity
  8
0
  6
CONTINUOUS
 62
     7
100
AcDbLine
 10
971.221219129
 20
766.8427836467
 30
0.0
 11
971.221219129
 21
782.2427835633
 31
0.0
  0
LINE
  5
C9
330
1F
100
AcDbEntity
  8
0
  6
CONTINUOUS
 62
     7
100
AcDbLine
 10
971.221219129
 20
782.2427835633
 30
0.0
 11
974.8270244665
 21
782.2427835633
 31
0.0
  0
LINE
  5
CA
330
1F
100
AcDbEntity
  8
0
  6
CONTINUOUS
 62
     7
100
AcDbLine
 10
974.8270244665
 20
785.4427837153
 30
0.0
 11
974.8270244665
 21
782.2427835633
 31
0.0
  0
LINE
  5
CB
330
1F
100
AcDbEntity
  8
0
  6
CONTINUOUS
 62
     7
100
AcDbLine
 10
974.8270244665
 20
785.4427837153
 30
0.0
 11
978.7835956878
 21
785.4427837153
 31
0.0
  0
LINE
  5
CC
330
1F
100
AcDbEntity
  8
0
  6
CONTINUOUS
 62
     7
100
AcDbLine
 10
974.8270244665
 20
763.6427834947
 30
0.0
 11
978.7835956878
 21
763.6427834947
 31
0.0
  0
LINE
  5
CD
330
1F
100
AcDbEntity
  8
0
  6
CONTINUOUS
 62
     7
100
AcDbLine
 10
974.8270244665
 20
763.6427834947
 30
0.0
 11
974.8270244665
 21
766.8427836467
 31
0.0
  0
LINE
  5
CE
330
1F
100
AcDbEntity
  8
0
  6
CONTINUOUS
 62
     7
100
AcDbLine
 10
971.221219129
 20
766.8427836467
 30
0.0
 11
974.8270244665
 21
766.8427836467
 31
0.0
  0
LINE
  5
CF
330
1F
100
AcDbEntity
  8
0
  6
CONTINUOUS
 62
     7
100
AcDbLine
 10
979.9835936493
 20
785.4427837153
 30
0.0
 11
981.8857119746
 21
785.4427837153
 31
0.0
  0
LINE
  5
D0
330
1F
100
AcDbEntity
  8
0
  6
CONTINUOUS
 62
     7
100
AcDbLine
 10
981.8857119746
 20
763.6427834947
 30
0.0
 11
981.8857119746
 21
785.4427837153
 31
0.0
  0
LINE
  5
D1
330
1F
100
AcDbEntity
  8
0
  6
CONTINUOUS
 62
     7
100
AcDbLine
 10
979.9835936493
 20
763.6427834947
 30
0.0
 11
981.8857119746
 21
763.6427834947
 31
0.0
  0
LINE
  5
D2
330
1F
100
AcDbEntity
  8
0
  6
CONTINUOUS
 62
     7
100
AcDbLine
 10
974.8270244665
 20
740.4427847211
 30
0.0
 11
974.8270244665
 21
737.2427827065
 31
0.0
  0
LINE
  5
D3
330
1F
100
AcDbEntity
  8
0
  6
CONTINUOUS
 62
     7
100
AcDbLine
 10
974.8270244665
 20
740.4427847211
 30
0.0
 11
978.7835956878
 21
740.4427847211
 31
0.0
  0
LINE
  5
D4
330
1F
100
AcDbEntity
  8
0
  6
CONTINUOUS
 62
     7
100
AcDbLine
 10
978.7835956878
 20
740.4427847211
 30
0.0
 11
978.7835956878
 21
718.6427845006
 31
0.0
  0
LINE
  5
D5
330
1F
100
AcDbEntity
  8
0
  6
CONTINUOUS
 62
     7
100
AcDbLine
 10
974.8270244665
 20
718.6427845006
 30
0.0
 11
978.7835956878
 21
718.6427845006
 31
0.0
  0
LINE
  5
D6
330
1F
100
AcDbEntity
  8
0
  6
CONTINUOUS
 62
     7
100
AcDbLine
 10
974.8270244665
 20
718.6427845006
 30
0.0
 11
974.8270244665
 21
721.8427827899
 31
0.0
  0
LINE
  5
D7
330
1F
100
AcDbEntity
  8
0
  6
CONTINUOUS
 62
     7
100
AcDbLine
 10
971.221219129
 20
721.8427827899
 30
0.0
 11
974.8270244665
 21
721.8427827899
 31
0.0
  0
LINE
  5
D8
330
1F
100
AcDbEntity
  8
0
  6
CONTINUOUS
 62
     7
100
AcDbLine
 10
971.221219129
 20
737.2427827065
 30
0.0
 11
971.221219129
 21
721.8427827899
 31
0.0
  0
LINE
  5
D9
330
1F
100
AcDbEntity
  8
0
  6
CONTINUOUS
 62
     7
100
AcDbLine
 10
971.221219129
 20
737.2427827065
 30
0.0
 11
974.8270244665
 21
737.2427827065
 31
0.0
  0
LINE
  5
DA
330
1F
100
AcDbEntity
  8
0
  6
CONTINUOUS
 62
     7
100
AcDbLine
 10
981.8857119746
 20
740.4427847211
 30
0.0
 11
981.8857119746
 21
718.6427845006
 31
0.0
  0
LINE
  5
DB
330
1F
100
AcDbEntity
  8
0
  6
CONTINUOUS
 62
     7
100
AcDbLine
 10
979.9835936493
 20
718.6427845006
 30
0.0
 11
981.8857119746
 21
718.6427845006
 31
0.0
  0
LINE
  5
DC
330
1F
100
AcDbEntity
  8
0
  6
CONTINUOUS
 62
     7
100
AcDbLine
 10
979.9835936493
 20
740.4427847211
 30
0.0
 11
979.9835936493
 21
718.6427845006
 31
0.0
  0
LINE
  5
DD
330
1F
100
AcDbEntity
  8
0
  6
CONTINUOUS
 62
     7
100
AcDbLine
 10
979.9835936493
 20
740.4427847211
 30
0.0
 11
981.8857119746
 21
740.4427847211
 31
0.0
  0
LINE
  5
DE
330
1F
100
AcDbEntity
  8
0
  6
CONTINUOUS
 62
     7
100
AcDbLine
 10
978.7835956878
 20
718.6427845006
 30
0.0
 11
979.9835936493
 21
718.6427845006
 31
0.0
  0
LINE
  5
DF
330
1F
100
AcDbEntity
  8
0
  6
CONTINUOUS
 62
     7
100
AcDbLine
 10
978.7835956878
 20
740.4427847211
 30
0.0
 11
979.9835936493
 21
740.4427847211
 31
0.0
  0
LINE
  5
E0
330
1F
100
AcDbEntity
  8
0
  6
CONTINUOUS
 62
     7
100
AcDbLine
 10
978.7835956878
 20
673.6427864377
 30
0.0
 11
978.7835956878
 21
695.442782933
 31
0.0
  0
LINE
  5
E1
330
1F
100
AcDbEntity
  8
0
  6
CONTINUOUS
 62
     7
100
AcDbLine
 10
979.9835936493
 20
673.6427864377
 30
0.0
 11
979.9835936493
 21
695.442782933
 31
0.0
  0
LINE
  5
E2
330
1F
100
AcDbEntity
  8
0
  6
CONTINUOUS
 62
     7
100
AcDbLine
 10
978.7835956878
 20
673.6427864377
 30
0.0
 11
979.9835936493
 21
673.6427864377
 31
0.0
  0
LINE
  5
E3
330
1F
100
AcDbEntity
  8
0
  6
CONTINUOUS
 62
     7
100
AcDbLine
 10
978.7835956878
 20
695.442782933
 30
0.0
 11
979.9835936493
 21
695.442782933
 31
0.0
  0
LINE
  5
E4
330
1F
100
AcDbEntity
  8
0
  6
CONTINUOUS
 62
     7
100
AcDbLine
 10
981.8857119746
 20
673.6427864377
 30
0.0
 11
981.8857119746
 21
695.442782933
 31
0.0
  0
LINE
  5
E5
330
1F
100
AcDbEntity
  8
0
  6
CONTINUOUS
 62
     7
100
AcDbLine
 10
979.9835936493
 20
673.6427864377
 30
0.0
 11
981.8857119746
 21
673.6427864377
 31
0.0
  0
LINE
  5
E6
330
1F
100
AcDbEntity
  8
0
  6
CONTINUOUS
 62
     7
100
AcDbLine
 10
979.9835936493
 20
695.442782933
 30
0.0
 11
981.8857119746
 21
695.442782933
 31
0.0
  0
LINE
  5
E7
330
1F
100
AcDbEntity
  8
0
  6
CONTINUOUS
 62
     7
100
AcDbLine
 10
971.221219129
 20
676.8427810018
 30
0.0
 11
971.221219129
 21
692.2427809183
 31
0.0
  0
LINE
  5
E8
330
1F
100
AcDbEntity
  8
0
  6
CONTINUOUS
 62
     7
100
AcDbLine
 10
971.221219129
 20
692.2427809183
 30
0.0
 11
974.8270244665
 21
692.2427809183
 31
0.0
  0
LINE
  5
E9
330
1F
100
AcDbEntity
  8
0
  6
CONTINUOUS
 62
     7
100
AcDbLine
 10
974.8270244665
 20
695.442782933
 30
0.0
 11
974.8270244665
 21
692.2427809183
 31
0.0
  0
LINE
  5
EA
330
1F
100
AcDbEntity
  8
0
  6
CONTINUOUS
 62
     7
100
AcDbLine
 10
974.8270244665
 20
673.6427864377
 30
0.0
 11
978.7835956878
 21
673.6427864377
 31
0.0
  0
LINE
  5
EB
330
1F
100
AcDbEntity
  8
0
  6
CONTINUOUS
 62
     7
100
AcDbLine
 10
974.8270244665
 20
673.6427864377
 30
0.0
 11
974.8270244665
 21
676.8427810018
 31
0.0
  0
LINE
  5
EC
330
1F
100
AcDbEntity
  8
0
  6
CONTINUOUS
 62
     7
100
AcDbLine
 10
971.221219129
 20
676.8427810018
 30
0.0
 11
974.8270244665
 21
676.8427810018
 31
0.0
  0
LINE
  5
ED
330
1F
100
AcDbEntity
  8
0
  6
CONTINUOUS
 62
     7
100
AcDbLine
 10
974.8270244665
 20
695.442782933
 30
0.0
 11
978.7835956878
 21
695.442782933
 31
0.0
  0
LINE
  5
EE
330
1F
100
AcDbEntity
  8
0
  6
CONTINUOUS
 62
     7
100
AcDbLine
 10
981.8857119746
 20
650.1427760665
 30
0.0
 11
981.8857119746
 21
646.0932514016
 31
0.0
  0
ARC
  5
EF
330
1F
100
AcDbEntity
  8
0
  6
CONTINUOUS
 62
     7
100
AcDbCircle
 10
985.6598066597
 20
643.3428001821
 30
0.0
 40
4.669986360069584
100
AcDbArc
 50
143.9165149649
 51
198.7791605268
  0
LINE
  5
F0
330
1F
100
AcDbEntity
  8
0
  6
CONTINUOUS
 62
     7
100
AcDbLine
 10
981.2384204335
 20
641.8394318168
 30
0.0
 11
979.9835936493
 21
641.8394318168
 31
0.0
  0
LINE
  5
F1
330
1F
100
AcDbEntity
  8
0
  6
CONTINUOUS
 62
     7
100
AcDbLine
 10
981.8857119746
 20
650.1427760665
 30
0.0
 11
979.9835936493
 21
650.1427760665
 31
0.0
  0
LINE
  5
F2
330
1F
100
AcDbEntity
  8
0
  6
CONTINUOUS
 62
     7
100
AcDbLine
 10
1201.2869448728
 20
638.7976130788
 30
0.0
 11
1201.2869448728
 21
637.5427862947
 31
0.0
  0
ARC
  5
F3
330
1F
100
AcDbEntity
  8
0
  6
CONTINUOUS
 62
     7
100
AcDbCircle
 10
1199.7160074689
 20
643.4103805191
 30
0.0
 40
4.872932154859641
100
AcDbArc
 50
288.8069374954
 51
341.1929221655
  0
LINE
  5
F4
330
1F
100
AcDbEntity
  8
0
  6
CONTINUOUS
 62
     7
100
AcDbLine
 10
984.280246622
 20
638.7976130788
 30
0.0
 11
984.280246622
 21
637.5427862947
 31
0.0
  0
ARC
  5
F5
330
1F
100
AcDbEntity
  8
0
  6
CONTINUOUS
 62
     7
100
AcDbCircle
 10
985.851184026
 20
643.4103805191
 30
0.0
 40
4.872932154859282
100
AcDbArc
 50
198.8070778346
 51
251.1930625046
  0
ARC
  5
F6
330
1F
100
AcDbEntity
  8
0
  6
CONTINUOUS
 62
     7
100
AcDbCircle
 10
985.7836260972
 20
643.2189262944
 30
0.0
 40
4.669920812664977
100
AcDbArc
 50
251.2204220525
 51
306.0839024559
  0
LINE
  5
F7
330
1F
100
AcDbEntity
  8
0
  6
CONTINUOUS
 62
     7
100
AcDbLine
 10
1197.033125288
 20
639.4449046199
 30
0.0
 11
988.5340662069
 21
639.4449046199
 31
0.0
  0
ARC
  5
F8
330
1F
100
AcDbEntity
  8
0
  6
CONTINUOUS
 62
     7
100
AcDbCircle
 10
1199.7835653977
 20
643.2189262944
 30
0.0
 40
4.669920812664476
100
AcDbArc
 50
233.9160975441
 51
288.7795779475
  0
LINE
  5
F9
330
1F
100
AcDbEntity
  8
0
  6
CONTINUOUS
 62
     7
100
AcDbLine
 10
974.6235938138
 20
827.2427825574
 30
0.0
 11
974.6235938138
 21
830.4427845721
 31
0.0
  0
LINE
  5
FA
330
1F
100
AcDbEntity
  8
0
  6
CONTINUOUS
 62
     7
100
AcDbLine
 10
974.8270244665
 20
830.4427845721
 30
0.0
 11
974.6235938138
 21
830.4427845721
 31
0.0
  0
LINE
  5
FB
330
1F
100
AcDbEntity
  8
0
  6
CONTINUOUS
 62
     7
100
AcDbLine
 10
974.6235938138
 20
808.6427843515
 30
0.0
 11
974.6235938138
 21
811.8427826409
 31
0.0
  0
LINE
  5
FC
330
1F
100
AcDbEntity
  8
0
  6
CONTINUOUS
 62
     7
100
AcDbLine
 10
974.8270244665
 20
808.6427843515
 30
0.0
 11
974.6235938138
 21
808.6427843515
 31
0.0
  0
LINE
  5
FD
330
1F
100
AcDbEntity
  8
0
  6
CONTINUOUS
 62
     7
100
AcDbLine
 10
974.6235938138
 20
782.2427835633
 30
0.0
 11
974.6235938138
 21
785.4427837153
 31
0.0
  0
LINE
  5
FE
330
1F
100
AcDbEntity
  8
0
  6
CONTINUOUS
 62
     7
100
AcDbLine
 10
974.8270244665
 20
785.4427837153
 30
0.0
 11
974.6235938138
 21
785.4427837153
 31
0.0
  0
LINE
  5
FF
330
1F
100
AcDbEntity
  8
0
  6
CONTINUOUS
 62
     7
100
AcDbLine
 10
974.6235938138
 20
763.6427834947
 30
0.0
 11
974.6235938138
 21
766.8427836467
 31
0.0
  0
LINE
  5
100
330
1F
100
AcDbEntity
  8
0
  6
CONTINUOUS
 62
     7
100
AcDbLine
 10
974.8270244665
 20
763.6427834947
 30
0.0
 11
974.6235938138
 21
763.6427834947
 31
0.0
  0
LINE
  5
101
330
1F
100
AcDbEntity
  8
0
  6
CONTINUOUS
 62
     7
100
AcDbLine
 10
974.6235938138
 20
737.2427827065
 30
0.0
 11
974.6235938138
 21
740.4427847211
 31
0.0
  0
LINE
  5
102
330
1F
100
AcDbEntity
  8
0
  6
CONTINUOUS
 62
     7
100
AcDbLine
 10
974.8270244665
 20
740.4427847211
 30
0.0
 11
974.6235938138
 21
740.4427847211
 31
0.0
  0
LINE
  5
103
330
1F
100
AcDbEntity
  8
0
  6
CONTINUOUS
 62
     7
100
AcDbLine
 10
974.6235938138
 20
718.6427845006
 30
0.0
 11
974.6235938138
 21
721.8427827899
 31
0.0
  0
LINE
  5
104
330
1F
100
AcDbEntity
  8
0
  6
CONTINUOUS
 62
     7
100
AcDbLine
 10
974.8270244665
 20
718.6427845006
 30
0.0
 11
974.6235938138
 21
718.6427845006
 31
0.0
  0
LINE
  5
105
330
1F
100
AcDbEntity
  8
0
  6
CONTINUOUS
 62
     7
100
AcDbLine
 10
974.6235938138
 20
692.2427809183
 30
0.0
 11
974.6235938138
 21
695.442782933
 31
0.0
  0
LINE
  5
106
330
1F
100
AcDbEntity
  8
0
  6
CONTINUOUS
 62
     7
100
AcDbLine
 10
974.8270244665
 20
695.442782933
 30
0.0
 11
974.6235938138
 21
695.442782933
 31
0.0
  0
LINE
  5
107
330
1F
100
AcDbEntity
  8
0
  6
CONTINUOUS
 62
     7
100
AcDbLine
 10
974.6235938138
 20
673.6427864377
 30
0.0
 11
974.6235938138
 21
676.8427810018
 31
0.0
  0
LINE
  5
108
330
1F
100
AcDbEntity
  8
0
  6
CONTINUOUS
 62
     7
100
AcDbLine
 10
974.8270244665
 20
673.6427864377
 30
0.0
 11
974.6235938138
 21
673.6427864377
 31
0.0
  0
LWPOLYLINE
  5
109
330
1F
100
AcDbEntity
  8
0
  6
CONTINUOUS
 62
     7
100
AcDbPolyline
 90
        3
 70
   128
 43
0.0
 10
988.5564179487
 20
864.5994609539
 10
988.5439754791
 20
864.622535402
 10
988.5340662069
 20
864.6406701152
  0
ARC
  5
10A
330
1F
100
AcDbEntity
  8
0
  6
CONTINUOUS
 62
     7
100
AcDbCircle
 10
985.7835957474
 20
860.7427835052
 30
0.0
 40
4.750000000000116
100
AcDbArc
 50
54.2851759467
 51
215.7148240533
  0
LWPOLYLINE
  5
10B
330
1F
100
AcDbEntity
  8
0
  6
CONTINUOUS
 62
     7
100
AcDbPolyline
 90
        3
 70
   128
 43
0.0
 10
981.8857119746
 20
857.9923158829
 10
981.9087864227
 20
857.9797169511
 10
981.9269136853
 20
857.9699641411
  0
ARC
  5
10C
330
1F
100
AcDbEntity
  8
0
  6
CONTINUOUS
 62
     7
100
AcDbCircle
 10
1199.7835957474
 20
860.7427835052
 30
0.0
 40
4.750000000000114
100
AcDbArc
 50
324.2851759467
 51
125.7148240533
  0
LWPOLYLINE
  5
10D
330
1F
100
AcDbEntity
  8
0
  6
CONTINUOUS
 62
     7
100
AcDbPolyline
 90
        3
 70
   128
 43
0.0
 10
1197.0107735462
 20
864.5994609539
 10
1197.0232160158
 20
864.622535402
 10
1197.033125288
 20
864.6406701152
  0
LWPOLYLINE
  5
10E
330
1F
100
AcDbEntity
  8
0
  6
CONTINUOUS
 62
     7
100
AcDbPolyline
 90
        3
 70
   128
 43
0.0
 10
1203.6814795203
 20
857.9923158829
 10
1203.6584050722
 20
857.9797169511
 10
1203.6402778096
 20
857.9699641411
  0
LWPOLYLINE
  5
10F
330
1F
100
AcDbEntity
  8
0
  6
CONTINUOUS
 62
     7
100
AcDbPolyline
 90
        3
 70
   128
 43
0.0
 10
1197.0107735462
 20
639.4861063306
 10
1197.0232160158
 20
639.4630244319
 10
1197.033125288
 20
639.4449046199
  0
ARC
  5
110
330
1F
100
AcDbEntity
  8
0
  6
CONTINUOUS
 62
     7
100
AcDbCircle
 10
1199.7835957474
 20
643.3427835052
 30
0.0
 40
4.750000000000102
100
AcDbArc
 50
234.2851759467
 51
35.7148240533
  0
LWPOLYLINE
  5
111
330
1F
100
AcDbEntity
  8
0
  6
CONTINUOUS
 62
     7
100
AcDbPolyline
 90
        3
 70
   128
 43
0.0
 10
1203.6814795203
 20
646.0932514016
 10
1203.6584050722
 20
646.1058428828
 10
1203.6402778096
 20
646.1156031434
  0
ARC
  5
112
330
1F
100
AcDbEntity
  8
0
  6
CONTINUOUS
 62
     7
100
AcDbCircle
 10
985.7835957474
 20
643.3427835052
 30
0.0
 40
4.750000000000182
100
AcDbArc
 50
144.2851759467
 51
305.7148240533
  0
LWPOLYLINE
  5
113
330
1F
100
AcDbEntity
  8
0
  6
CONTINUOUS
 62
     7
100
AcDbPolyline
 90
        3
 70
   128
 43
0.0
 10
988.5564179487
 20
639.4861063306
 10
988.5439754791
 20
639.4630244319
 10
988.5340662069
 20
639.4449046199
  0
LWPOLYLINE
  5
114
330
1F
100
AcDbEntity
  8
0
  6
CONTINUOUS
 62
     7
100
AcDbPolyline
 90
        3
 70
   128
 43
0.0
 10
981.8857119746
 20
646.0932514016
 10
981.9087864227
 20
646.1058428828
 10
981.9269136853
 20
646.1156031434
  0
LINE
  5
115
330
1F
100
AcDbEntity
  8
0
  6
CONTINUOUS
 62
     7
100
AcDbLine
 10
970.6682668395
 20
808.6427843515
 30
0.0
 11
970.6682668395
 21
811.8427826409
 31
0.0
  0
LINE
  5
116
330
1F
100
AcDbEntity
  8
0
  6
CONTINUOUS
 62
     7
100
AcDbLine
 10
970.6682668395
 20
827.2427825574
 30
0.0
 11
970.6682668395
 21
830.4427845721
 31
0.0
  0
LINE
  5
117
330
1F
100
AcDbEntity
  8
0
  6
CONTINUOUS
 62
     7
100
AcDbLine
 10
970.6682668395
 20
811.8427826409
 30
0.0
 11
971.221219129
 21
811.8427826409
 31
0.0
  0
LINE
  5
118
330
1F
100
AcDbEntity
  8
0
  6
CONTINUOUS
 62
     7
100
AcDbLine
 10
970.6682668395
 20
827.2427825574
 30
0.0
 11
971.221219129
 21
827.2427825574
 31
0.0
  0
LINE
  5
119
330
1F
100
AcDbEntity
  8
0
  6
CONTINUOUS
 62
     7
100
AcDbLine
 10
967.8235979146
 20
808.6427843515
 30
0.0
 11
970.6682668395
 21
808.6427843515
 31
0.0
  0
LINE
  5
11A
330
1F
100
AcDbEntity
  8
0
  6
CONTINUOUS
 62
     7
100
AcDbLine
 10
967.8235979146
 20
830.4427845721
 30
0.0
 11
970.6682668395
 21
830.4427845721
 31
0.0
  0
LINE
  5
11B
330
1F
100
AcDbEntity
  8
0
  6
CONTINUOUS
 62
     7
100
AcDbLine
 10
970.6682668395
 20
763.6427834947
 30
0.0
 11
970.6682668395
 21
766.8427836467
 31
0.0
  0
LINE
  5
11C
330
1F
100
AcDbEntity
  8
0
  6
CONTINUOUS
 62
     7
100
AcDbLine
 10
970.6682668395
 20
782.2427835633
 30
0.0
 11
970.6682668395
 21
785.4427837153
 31
0.0
  0
LINE
  5
11D
330
1F
100
AcDbEntity
  8
0
  6
CONTINUOUS
 62
     7
100
AcDbLine
 10
970.6682668395
 20
766.8427836467
 30
0.0
 11
971.221219129
 21
766.8427836467
 31
0.0
  0
LINE
  5
11E
330
1F
100
AcDbEntity
  8
0
  6
CONTINUOUS
 62
     7
100
AcDbLine
 10
970.6682668395
 20
782.2427835633
 30
0.0
 11
971.221219129
 21
782.2427835633
 31
0.0
  0
LINE
  5
11F
330
1F
100
AcDbEntity
  8
0
  6
CONTINUOUS
 62
     7
100
AcDbLine
 10
967.8235979146
 20
763.6427834947
 30
0.0
 11
970.6682668395
 21
763.6427834947
 31
0.0
  0
LINE
  5
120
330
1F
100
AcDbEntity
  8
0
  6
CONTINUOUS
 62
     7
100
AcDbLine
 10
967.8235979146
 20
785.4427837153
 30
0.0
 11
970.6682668395
 21
785.4427837153
 31
0.0
  0
LINE
  5
121
330
1F
100
AcDbEntity
  8
0
  6
CONTINUOUS
 62
     7
100
AcDbLine
 10
970.6682668395
 20
718.6427845006
 30
0.0
 11
970.6682668395
 21
721.8427827899
 31
0.0
  0
LINE
  5
122
330
1F
100
AcDbEntity
  8
0
  6
CONTINUOUS
 62
     7
100
AcDbLine
 10
970.6682668395
 20
737.2427827065
 30
0.0
 11
970.6682668395
 21
740.4427847211
 31
0.0
  0
LINE
  5
123
330
1F
100
AcDbEntity
  8
0
  6
CONTINUOUS
 62
     7
100
AcDbLine
 10
970.6682668395
 20
721.8427827899
 30
0.0
 11
971.221219129
 21
721.8427827899
 31
0.0
  0
LINE
  5
124
330
1F
100
AcDbEntity
  8
0
  6
CONTINUOUS
 62
     7
100
AcDbLine
 10
970.6682668395
 20
737.2427827065
 30
0.0
 11
971.221219129
 21
737.2427827065
 31
0.0
  0
LINE
  5
125
330
1F
100
AcDbEntity
  8
0
  6
CONTINUOUS
 62
     7
100
AcDbLine
 10
967.8235979146
 20
718.6427845006
 30
0.0
 11
970.6682668395
 21
718.6427845006
 31
0.0
  0
LINE
  5
126
330
1F
100
AcDbEntity
  8
0
  6
CONTINUOUS
 62
     7
100
AcDbLine
 10
967.8235979146
 20
740.4427847211
 30
0.0
 11
970.6682668395
 21
740.4427847211
 31
0.0
  0
LINE
  5
127
330
1F
100
AcDbEntity
  8
0
  6
CONTINUOUS
 62
     7
100
AcDbLine
 10
970.6682668395
 20
673.6427864377
 30
0.0
 11
970.6682668395
 21
676.8427810018
 31
0.0
  0
LINE
  5
128
330
1F
100
AcDbEntity
  8
0
  6
CONTINUOUS
 62
     7
100
AcDbLine
 10
970.6682668395
 20
692.2427809183
 30
0.0
 11
970.6682668395
 21
695.442782933
 31
0.0
  0
LINE
  5
129
330
1F
100
AcDbEntity
  8
0
  6
CONTINUOUS
 62
     7
100
AcDbLine
 10
970.6682668395
 20
676.8427810018
 30
0.0
 11
971.221219129
 21
676.8427810018
 31
0.0
  0
LINE
  5
12A
330
1F
100
AcDbEntity
  8
0
  6
CONTINUOUS
 62
     7
100
AcDbLine
 10
970.6682668395
 20
692.2427809183
 30
0.0
 11
971.221219129
 21
692.2427809183
 31
0.0
  0
LINE
  5
12B
330
1F
100
AcDbEntity
  8
0
  6
CONTINUOUS
 62
     7
100
AcDbLine
 10
967.8235979146
 20
673.6427864377
 30
0.0
 11
970.6682668395
 21
673.6427864377
 31
0.0
  0
LINE
  5
12C
330
1F
100
AcDbEntity
  8
0
  6
CONTINUOUS
 62
     7
100
AcDbLine
 10
967.8235979146
 20
695.442782933
 30
0.0
 11
970.6682668395
 21
695.442782933
 31
0.0
  0
LINE
  5
12D
330
1F
100
AcDbEntity
  8
0
  6
CONTINUOUS
 62
     7
100
AcDbLine
 10
970.8235965437
 20
827.4427822177
 30
0.0
 11
970.8235965437
 21
830.4427845721
 31
0.0
  0
LINE
  5
12E
330
1F
100
AcDbEntity
  8
0
  6
CONTINUOUS
 62
     7
100
AcDbLine
 10
970.8213315672
 20
827.4427822177
 30
0.0
 11
970.8235965437
 21
827.4427822177
 31
0.0
  0
LINE
  5
12F
330
1F
100
AcDbEntity
  8
0
  6
CONTINUOUS
 62
     7
100
AcDbLine
 10
970.8213315672
 20
827.4427822177
 30
0.0
 11
970.8213315672
 21
827.2427825574
 31
0.0
  0
LINE
  5
130
330
1F
100
AcDbEntity
  8
0
  6
CONTINUOUS
 62
     7
100
AcDbLine
 10
970.8235965437
 20
830.4427845721
 30
0.0
 11
970.6682668395
 21
830.4427845721
 31
0.0
  0
LINE
  5
131
330
1F
100
AcDbEntity
  8
0
  6
CONTINUOUS
 62
     7
100
AcDbLine
 10
970.8213315672
 20
811.6427829806
 30
0.0
 11
970.8213315672
 21
811.8427826409
 31
0.0
  0
LINE
  5
132
330
1F
100
AcDbEntity
  8
0
  6
CONTINUOUS
 62
     7
100
AcDbLine
 10
970.8213315672
 20
811.6427829806
 30
0.0
 11
970.8235965437
 21
811.6427829806
 31
0.0
  0
LINE
  5
133
330
1F
100
AcDbEntity
  8
0
  6
CONTINUOUS
 62
     7
100
AcDbLine
 10
970.8235965437
 20
808.6427843515
 30
0.0
 11
970.8235965437
 21
811.6427829806
 31
0.0
  0
LINE
  5
134
330
1F
100
AcDbEntity
  8
0
  6
CONTINUOUS
 62
     7
100
AcDbLine
 10
970.8235965437
 20
808.6427843515
 30
0.0
 11
970.6682668395
 21
808.6427843515
 31
0.0
  0
LINE
  5
135
330
1F
100
AcDbEntity
  8
0
  6
CONTINUOUS
 62
     7
100
AcDbLine
 10
970.8235965437
 20
782.4427836892
 30
0.0
 11
970.8235965437
 21
785.4427837153
 31
0.0
  0
LINE
  5
136
330
1F
100
AcDbEntity
  8
0
  6
CONTINUOUS
 62
     7
100
AcDbLine
 10
970.8213315672
 20
782.4427836892
 30
0.0
 11
970.8235965437
 21
782.4427836892
 31
0.0
  0
LINE
  5
137
330
1F
100
AcDbEntity
  8
0
  6
CONTINUOUS
 62
     7
100
AcDbLine
 10
970.8213315672
 20
782.4427836892
 30
0.0
 11
970.8213315672
 21
782.2427835633
 31
0.0
  0
LINE
  5
138
330
1F
100
AcDbEntity
  8
0
  6
CONTINUOUS
 62
     7
100
AcDbLine
 10
970.8235965437
 20
785.4427837153
 30
0.0
 11
970.6682668395
 21
785.4427837153
 31
0.0
  0
LINE
  5
139
330
1F
100
AcDbEntity
  8
0
  6
CONTINUOUS
 62
     7
100
AcDbLine
 10
970.8213315672
 20
766.6427830551
 30
0.0
 11
970.8213315672
 21
766.8427836467
 31
0.0
  0
LINE
  5
13A
330
1F
100
AcDbEntity
  8
0
  6
CONTINUOUS
 62
     7
100
AcDbLine
 10
970.8213315672
 20
766.6427830551
 30
0.0
 11
970.8235965437
 21
766.6427830551
 31
0.0
  0
LINE
  5
13B
330
1F
100
AcDbEntity
  8
0
  6
CONTINUOUS
 62
     7
100
AcDbLine
 10
970.8235965437
 20
763.6427834947
 30
0.0
 11
970.8235965437
 21
766.6427830551
 31
0.0
  0
LINE
  5
13C
330
1F
100
AcDbEntity
  8
0
  6
CONTINUOUS
 62
     7
100
AcDbLine
 10
970.8235965437
 20
763.6427834947
 30
0.0
 11
970.6682668395
 21
763.6427834947
 31
0.0
  0
LINE
  5
13D
330
1F
100
AcDbEntity
  8
0
  6
CONTINUOUS
 62
     7
100
AcDbLine
 10
970.8235965437
 20
737.4427823667
 30
0.0
 11
970.8235965437
 21
740.4427847211
 31
0.0
  0
LINE
  5
13E
330
1F
100
AcDbEntity
  8
0
  6
CONTINUOUS
 62
     7
100
AcDbLine
 10
970.8213315672
 20
737.4427823667
 30
0.0
 11
970.8235965437
 21
737.4427823667
 31
0.0
  0
LINE
  5
13F
330
1F
100
AcDbEntity
  8
0
  6
CONTINUOUS
 62
     7
100
AcDbLine
 10
970.8213315672
 20
737.4427823667
 30
0.0
 11
970.8213315672
 21
737.2427827065
 31
0.0
  0
LINE
  5
140
330
1F
100
AcDbEntity
  8
0
  6
CONTINUOUS
 62
     7
100
AcDbLine
 10
970.8235965437
 20
740.4427847211
 30
0.0
 11
970.6682668395
 21
740.4427847211
 31
0.0
  0
LINE
  5
141
330
1F
100
AcDbEntity
  8
0
  6
CONTINUOUS
 62
     7
100
AcDbLine
 10
970.8213315672
 20
721.6427831296
 30
0.0
 11
970.8213315672
 21
721.8427827899
 31
0.0
  0
LINE
  5
142
330
1F
100
AcDbEntity
  8
0
  6
CONTINUOUS
 62
     7
100
AcDbLine
 10
970.8213315672
 20
721.6427831296
 30
0.0
 11
970.8235965437
 21
721.6427831296
 31
0.0
  0
LINE
  5
143
330
1F
100
AcDbEntity
  8
0
  6
CONTINUOUS
 62
     7
100
AcDbLine
 10
970.8235965437
 20
718.6427845006
 30
0.0
 11
970.8235965437
 21
721.6427831296
 31
0.0
  0
LINE
  5
144
330
1F
100
AcDbEntity
  8
0
  6
CONTINUOUS
 62
     7
100
AcDbLine
 10
970.8235965437
 20
718.6427845006
 30
0.0
 11
970.6682668395
 21
718.6427845006
 31
0.0
  0
LINE
  5
145
330
1F
100
AcDbEntity
  8
0
  6
CONTINUOUS
 62
     7
100
AcDbLine
 10
970.8235965437
 20
692.4427843039
 30
0.0
 11
970.8235965437
 21
695.442782933
 31
0.0
  0
LINE
  5
146
330
1F
100
AcDbEntity
  8
0
  6
CONTINUOUS
 62
     7
100
AcDbLine
 10
970.8213315672
 20
692.4427843039
 30
0.0
 11
970.8235965437
 21
692.4427843039
 31
0.0
  0
LINE
  5
147
330
1F
100
AcDbEntity
  8
0
  6
CONTINUOUS
 62
     7
100
AcDbLine
 10
970.8213315672
 20
692.4427843039
 30
0.0
 11
970.8213315672
 21
692.2427809183
 31
0.0
  0
LINE
  5
148
330
1F
100
AcDbEntity
  8
0
  6
CONTINUOUS
 62
     7
100
AcDbLine
 10
970.8235965437
 20
695.442782933
 30
0.0
 11
970.6682668395
 21
695.442782933
 31
0.0
  0
LINE
  5
149
330
1F
100
AcDbEntity
  8
0
  6
CONTINUOUS
 62
     7
100
AcDbLine
 10
970.8213315672
 20
676.6427850668
 30
0.0
 11
970.8213315672
 21
676.8427810018
 31
0.0
  0
LINE
  5
14A
330
1F
100
AcDbEntity
  8
0
  6
CONTINUOUS
 62
     7
100
AcDbLine
 10
970.8213315672
 20
676.6427850668
 30
0.0
 11
970.8235965437
 21
676.6427850668
 31
0.0
  0
LINE
  5
14B
330
1F
100
AcDbEntity
  8
0
  6
CONTINUOUS
 62
     7
100
AcDbLine
 10
970.8235965437
 20
673.6427864377
 30
0.0
 11
970.8235965437
 21
676.6427850668
 31
0.0
  0
LINE
  5
14C
330
1F
100
AcDbEntity
  8
0
  6
CONTINUOUS
 62
     7
100
AcDbLine
 10
970.8235965437
 20
673.6427864377
 30
0.0
 11
970.6682668395
 21
673.6427864377
 31
0.0
  0
LINE
  5
14D
330
1F
100
AcDbEntity
  8
0
  6
CONTINUOUS
 62
     7
100
AcDbLine
 10
982.1545959777
 20
648.8181075398
 30
0.0
 11
982.1545959777
 21
655.642779762
 31
0.0
  0
LWPOLYLINE
  5
14E
330
1F
100
AcDbEntity
  8
0
  6
CONTINUOUS
 62
     7
100
AcDbPolyline
 90
        3
 70
   128
 43
0.0
 10
981.9269136853
 20
648.5466232841
 10
982.054415471
 20
648.7012377326
 10
982.1545959777
 20
648.8181075398
  0
LINE
  5
14F
330
1F
100
AcDbEntity
  8
0
  6
CONTINUOUS
 62
     7
100
AcDbLine
 10
981.9269136853
 20
648.5466232841
 30
0.0
 11
981.9269136853
 21
646.1156031434
 31
0.0
  0
LINE
  5
150
330
1F
100
AcDbEntity
  8
0
  6
CONTINUOUS
 62
     7
100
AcDbLine
 10
982.0260883636
 20
653.7934637014
 30
0.0
 11
982.0260883636
 21
650.1427760665
 31
0.0
  0
LINE
  5
151
330
1F
100
AcDbEntity
  8
0
  6
CONTINUOUS
 62
     7
100
AcDbLine
 10
982.0926891036
 20
653.8433974926
 30
0.0
 11
982.0260883636
 21
653.7934637014
 31
0.0
  0
ARC
  5
152
330
1F
100
AcDbEntity
  8
0
  6
CONTINUOUS
 62
     7
100
AcDbCircle
 10
970.6626110151
 20
655.1329746711
 30
0.0
 40
11.50259511622732
100
AcDbArc
 50
353.5629313679
 51
2.5402312439
  0
LINE
  5
153
330
1F
100
AcDbEntity
  8
0
  6
CONTINUOUS
 62
     7
100
AcDbLine
 10
981.8857119746
 20
650.1427760665
 30
0.0
 11
982.0260883636
 21
650.1427760665
 31
0.0
  0
LINE
  5
154
330
1F
100
AcDbEntity
  8
0
  6
CONTINUOUS
 62
     7
100
AcDbLine
 10
988.5564179487
 20
639.4861063306
 30
0.0
 11
990.9874231882
 21
639.4861063306
 31
0.0
  0
LWPOLYLINE
  5
155
330
1F
100
AcDbEntity
  8
0
  6
CONTINUOUS
 62
     7
100
AcDbPolyline
 90
        3
 70
   128
 43
0.0
 10
991.2589223451
 20
639.7137811725
 10
991.1094860501
 20
639.5862868373
 10
990.9874306387
 20
639.4861063306
  0
LINE
  5
156
330
1F
100
AcDbEntity
  8
0
  6
CONTINUOUS
 62
     7
100
AcDbLine
 10
991.2589223451
 20
639.7137811725
 30
0.0
 11
1194.3082691497
 21
639.7137811725
 31
0.0
  0
LWPOLYLINE
  5
157
330
1F
100
AcDbEntity
  8
0
  6
CONTINUOUS
 62
     7
100
AcDbPolyline
 90
        3
 70
   128
 43
0.0
 10
1194.3082616992
 20
639.7137811725
 10
1194.4577054448
 20
639.5862868373
 10
1194.5797683067
 20
639.4861063306
  0
LINE
  5
158
330
1F
100
AcDbEntity
  8
0
  6
CONTINUOUS
 62
     7
100
AcDbLine
 10
1197.0107735462
 20
639.4861063306
 30
0.0
 11
1194.5797683067
 21
639.4861063306
 31
0.0
  0
LWPOLYLINE
  5
159
330
1F
100
AcDbEntity
  8
0
  6
CONTINUOUS
 62
     7
100
AcDbPolyline
 90
        3
 70
   128
 43
0.0
 10
991.2589297957
 20
864.3717786614
 10
991.1094860501
 20
864.4992878978
 10
990.9874231882
 20
864.5994609539
  0
LINE
  5
15A
330
1F
100
AcDbEntity
  8
0
  6
CONTINUOUS
 62
     7
100
AcDbLine
 10
988.5564179487
 20
864.5994609539
 30
0.0
 11
990.9874231882
 21
864.5994609539
 31
0.0
  0
LINE
  5
15B
330
1F
100
AcDbEntity
  8
0
  6
CONTINUOUS
 62
     7
100
AcDbLine
 10
1197.0107735462
 20
864.5994609539
 30
0.0
 11
1194.5797683067
 21
864.5994609539
 31
0.0
  0
LWPOLYLINE
  5
15C
330
1F
100
AcDbEntity
  8
0
  6
CONTINUOUS
 62
     7
100
AcDbPolyline
 90
        3
 70
   128
 43
0.0
 10
1194.3082691497
 20
864.3717786614
 10
1194.4577054448
 20
864.4992878978
 10
1194.5797608561
 20
864.5994609539
  0
LINE
  5
15D
330
1F
100
AcDbEntity
  8
0
  6
CONTINUOUS
 62
     7
100
AcDbLine
 10
1194.3082691497
 20
864.3717786614
 30
0.0
 11
991.2589223451
 21
864.3717786614
 31
0.0
  0
ARC
  5
15E
330
1F
100
AcDbEntity
  8
0
  6
CONTINUOUS
 62
     7
100
AcDbCircle
 10
970.6626110151
 20
848.9525926133
 30
0.0
 40
11.50259511623108
100
AcDbArc
 50
357.4597687561
 51
6.4370686321
  0
LINE
  5
15F
330
1F
100
AcDbEntity
  8
0
  6
CONTINUOUS
 62
     7
100
AcDbLine
 10
982.0926891036
 20
850.2421697919
 30
0.0
 11
982.0260883636
 21
850.2921035831
 31
0.0
  0
LINE
  5
160
330
1F
100
AcDbEntity
  8
0
  6
CONTINUOUS
 62
     7
100
AcDbLine
 10
982.0260883636
 20
853.9427837674
 30
0.0
 11
982.0260883636
 21
850.2921035831
 31
0.0
  0
LINE
  5
161
330
1F
100
AcDbEntity
  8
0
  6
CONTINUOUS
 62
     7
100
AcDbLine
 10
981.9269136853
 20
855.5389663522
 30
0.0
 11
981.9269136853
 21
857.9699641411
 31
0.0
  0
LWPOLYLINE
  5
162
330
1F
100
AcDbEntity
  8
0
  6
CONTINUOUS
 62
     7
100
AcDbPolyline
 90
        3
 70
   128
 43
0.0
 10
981.9269136853
 20
855.5389440004
 10
982.054415471
 20
855.3843295519
 10
982.1545959777
 20
855.2674597446
  0
LINE
  5
163
330
1F
100
AcDbEntity
  8
0
  6
CONTINUOUS
 62
     7
100
AcDbLine
 10
982.1545959777
 20
848.4427875225
 30
0.0
 11
982.1545959777
 21
855.2674597446
 31
0.0
  0
LINE
  5
164
330
1F
100
AcDbEntity
  8
0
  6
CONTINUOUS
 62
     7
100
AcDbLine
 10
981.8857119746
 20
853.9427837674
 30
0.0
 11
982.0260883636
 21
853.9427837674
 31
0.0
  0
LWPOLYLINE
  5
165
330
1F
100
AcDbEntity
  8
0
  6
CONTINUOUS
 62
     7
100
AcDbPolyline
 90
        3
 70
   128
 43
0.0
 10
1203.6402778096
 20
855.5389663522
 10
1203.5127760238
 20
855.3843295519
 10
1203.4125955171
 20
855.2674522941
  0
LINE
  5
166
330
1F
100
AcDbEntity
  8
0
  6
CONTINUOUS
 62
     7
100
AcDbLine
 10
1203.6402778096
 20
855.5389663522
 30
0.0
 11
1203.6402778096
 21
857.9699641411
 31
0.0
  0
LINE
  5
167
330
1F
100
AcDbEntity
  8
0
  6
CONTINUOUS
 62
     7
100
AcDbLine
 10
1203.6402778096
 20
648.5466083829
 30
0.0
 11
1203.6402778096
 21
646.1156031434
 31
0.0
  0
LWPOLYLINE
  5
168
330
1F
100
AcDbEntity
  8
0
  6
CONTINUOUS
 62
     7
100
AcDbPolyline
 90
        3
 70
   128
 43
0.0
 10
1203.6402778096
 20
648.5466232841
 10
1203.5127760238
 20
648.7012377326
 10
1203.4125955171
 20
648.8181075398
  0
LINE
  5
169
330
1F
100
AcDbEntity
  8
0
  6
CONTINUOUS
 62
     7
100
AcDbLine
 10
1203.4125955171
 20
741.1664856915
 30
0.0
 11
1203.4125955171
 21
648.8181075398
 31
0.0
  0
LINE
  5
16A
330
1F
100
AcDbEntity
  8
0
  6
CONTINUOUS
 62
     7
100
AcDbLine
 10
1203.3862428135
 20
745.6192767565
 30
0.0
 11
1203.3862428135
 21
741.1662882511
 31
0.0
  0
LINE
  5
16B
330
1F
100
AcDbEntity
  8
0
  6
CONTINUOUS
 62
     7
100
AcDbLine
 10
1203.4125955171
 20
745.6190830414
 30
0.0
 11
1203.4125955171
 21
758.5664840732
 31
0.0
  0
LINE
  5
16C
330
1F
100
AcDbEntity
  8
0
  6
CONTINUOUS
 62
     7
100
AcDbLine
 10
1203.3862428135
 20
763.0192779322
 30
0.0
 11
1203.3862428135
 21
758.5662884955
 31
0.0
  0
LINE
  5
16D
330
1F
100
AcDbEntity
  8
0
  6
CONTINUOUS
 62
     7
100
AcDbLine
 10
1203.4125955171
 20
855.2674522941
 30
0.0
 11
1203.4125955171
 21
763.0190823544
 31
0.0
  0
LINE
  5
16E
330
1F
100
AcDbEntity
  8
0
  6
CONTINUOUS
 62
     7
100
AcDbLine
 10
981.9747017092
 20
830.4427845721
 30
0.0
 11
981.9747017092
 21
808.6427843515
 31
0.0
  0
LINE
  5
16F
330
1F
100
AcDbEntity
  8
0
  6
CONTINUOUS
 62
     7
100
AcDbLine
 10
981.8857119746
 20
808.6427843515
 30
0.0
 11
981.9747017092
 21
808.6427843515
 31
0.0
  0
LINE
  5
170
330
1F
100
AcDbEntity
  8
0
  6
CONTINUOUS
 62
     7
100
AcDbLine
 10
981.8857119746
 20
830.4427845721
 30
0.0
 11
981.9747017092
 21
830.4427845721
 31
0.0
  0
LINE
  5
171
330
1F
100
AcDbEntity
  8
0
  6
CONTINUOUS
 62
     7
100
AcDbLine
 10
981.9747017092
 20
763.6427834947
 30
0.0
 11
981.9747017092
 21
785.4427837153
 31
0.0
  0
LINE
  5
172
330
1F
100
AcDbEntity
  8
0
  6
CONTINUOUS
 62
     7
100
AcDbLine
 10
981.8857119746
 20
763.6427834947
 30
0.0
 11
981.9747017092
 21
763.6427834947
 31
0.0
  0
LINE
  5
173
330
1F
100
AcDbEntity
  8
0
  6
CONTINUOUS
 62
     7
100
AcDbLine
 10
981.8857119746
 20
785.4427837153
 30
0.0
 11
981.9747017092
 21
785.4427837153
 31
0.0
  0
LINE
  5
174
330
1F
100
AcDbEntity
  8
0
  6
CONTINUOUS
 62
     7
100
AcDbLine
 10
981.9747017092
 20
740.4427847211
 30
0.0
 11
981.9747017092
 21
718.6427845006
 31
0.0
  0
LINE
  5
175
330
1F
100
AcDbEntity
  8
0
  6
CONTINUOUS
 62
     7
100
AcDbLine
 10
981.8857119746
 20
718.6427845006
 30
0.0
 11
981.9747017092
 21
718.6427845006
 31
0.0
  0
LINE
  5
176
330
1F
100
AcDbEntity
  8
0
  6
CONTINUOUS
 62
     7
100
AcDbLine
 10
981.8857119746
 20
740.4427847211
 30
0.0
 11
981.9747017092
 21
740.4427847211
 31
0.0
  0
LINE
  5
177
330
1F
100
AcDbEntity
  8
0
  6
CONTINUOUS
 62
     7
100
AcDbLine
 10
981.9747017092
 20
673.6427864377
 30
0.0
 11
981.9747017092
 21
695.442782933
 31
0.0
  0
LINE
  5
178
330
1F
100
AcDbEntity
  8
0
  6
CONTINUOUS
 62
     7
100
AcDbLine
 10
981.8857119746
 20
673.6427864377
 30
0.0
 11
981.9747017092
 21
673.6427864377
 31
0.0
  0
LINE
  5
179
330
1F
100
AcDbEntity
  8
0
  6
CONTINUOUS
 62
     7
100
AcDbLine
 10
981.8857119746
 20
695.442782933
 30
0.0
 11
981.9747017092
 21
695.442782933
 31
0.0
  0
LINE
  5
17A
330
1F
100
AcDbEntity
  8
0
  6
CONTINUOUS
 62
     7
100
AcDbLine
 10
1092.7835957474
 20
644.0950652902
 30
0.0
 11
1193.5799078412
 21
646.7345079724
 31
0.0
  0
LINE
  5
17B
330
1F
100
AcDbEntity
  8
0
  6
CONTINUOUS
 62
     7
100
AcDbLine
 10
1092.7835957474
 20
644.0950652902
 30
0.0
 11
991.9872836537
 21
646.7345079724
 31
0.0
  0
ELLIPSE
  5
17C
330
1F
100
AcDbEntity
  8
0
  6
CONTINUOUS
 62
     7
100
AcDbEllipse
 10
992.1378701127
 20
652.2357999821
 30
0.0
 11
-3.944339616773731
 21
-3.84240553892846
 31
0.0
210
0.0
220
0.0
230
1.0
 40
0.9988137614
 41
5.511470371821797
 42
7.054900242537464
  0
LINE
  5
17D
330
1F
100
AcDbEntity
  8
0
  6
CONTINUOUS
 62
     7
100
AcDbLine
 10
986.634518332
 20
851.8562933747
 30
0.0
 11
986.634518332
 21
652.2292664592
 31
0.0
  0
ELLIPSE
  5
17E
330
1F
100
AcDbEntity
  8
0
  6
CONTINUOUS
 62
     7
100
AcDbEllipse
 10
992.1378701127
 20
851.8497670282
 30
0.0
 11
3.944339616773505
 21
-3.84240553892846
 31
0.0
210
0.0
220
0.0
230
1.0
 40
0.9988137614
 41
2.369877718231959
 42
3.91330758894768
  0
LINE
  5
17F
330
1F
100
AcDbEntity
  8
0
  6
CONTINUOUS
 62
     7
100
AcDbLine
 10
1092.7835957474
 20
859.9905094449
 30
0.0
 11
991.9872836537
 21
857.3510593121
 31
0.0
  0
LINE
  5
180
330
1F
100
AcDbEntity
  8
0
  6
CONTINUOUS
 62
     7
100
AcDbLine
 10
1092.7835957474
 20
859.9905094449
 30
0.0
 11
1193.5799078412
 21
857.3510593121
 31
0.0
  0
ELLIPSE
  5
181
330
1F
100
AcDbEntity
  8
0
  6
CONTINUOUS
 62
     7
100
AcDbEllipse
 10
1193.4293213821
 20
851.8497670282
 30
0.0
 11
3.944339616773505
 21
3.84240553892846
 31
0.0
210
0.0
220
0.0
230
1.0
 40
0.9988137614
 41
5.511470371821769
 42
7.054900242537455
  0
LINE
  5
182
330
1F
100
AcDbEntity
  8
0
  6
CONTINUOUS
 62
     7
100
AcDbLine
 10
1198.9326731629
 20
652.2292664592
 30
0.0
 11
1198.9326731629
 21
851.8562933747
 31
0.0
  0
ELLIPSE
  5
183
330
1F
100
AcDbEntity
  8
0
  6
CONTINUOUS
 62
     7
100
AcDbEllipse
 10
1193.4293213821
 20
652.2357999821
 30
0.0
 11
-3.944339616773732
 21
3.842405538928346
 31
0.0
210
0.0
220
0.0
230
1.0
 40
0.9988137614
 41
2.369877718231909
 42
3.913307588947581
  0
ARC
  5
184
330
1F
100
AcDbEntity
  8
0
  6
CONTINUOUS
 62
     7
100
AcDbCircle
 10
1193.3969105529
 20
652.2673724986
 30
0.0
 40
3.497604142569724
100
AcDbArc
 50
271.4958440844
 51
0.0040879788
  0
LINE
  5
185
330
1F
100
AcDbEntity
  8
0
  6
CONTINUOUS
 62
     7
100
AcDbLine
 10
1196.8945146865
 20
851.8179377858
 30
0.0
 11
1196.8945146865
 21
652.2676220481
 31
0.0
  0
ARC
  5
186
330
1F
100
AcDbEntity
  8
0
  6
CONTINUOUS
 62
     7
100
AcDbCircle
 10
1193.3969136391
 20
851.8181977918
 30
0.0
 40
3.497601057082342
100
AcDbArc
 50
359.9957407245
 51
88.5042051702
  0
LINE
  5
187
330
1F
100
AcDbEntity
  8
0
  6
CONTINUOUS
 62
     7
100
AcDbLine
 10
1193.4882135458
 20
855.3146070187
 30
0.0
 11
1092.7835957474
 21
857.951650614
 31
0.0
  0
LINE
  5
188
330
1F
100
AcDbEntity
  8
0
  6
CONTINUOUS
 62
     7
100
AcDbLine
 10
992.0789779491
 20
855.3146070187
 30
0.0
 11
1092.7835957474
 21
857.951650614
 31
0.0
  0
ARC
  5
189
330
1F
100
AcDbEntity
  8
0
  6
CONTINUOUS
 62
     7
100
AcDbCircle
 10
992.1702778557
 20
851.8181977918
 30
0.0
 40
3.497601057082263
100
AcDbArc
 50
91.4957948298
 51
180.0042592755
  0
LINE
  5
18A
330
1F
100
AcDbEntity
  8
0
  6
CONTINUOUS
 62
     7
100
AcDbLine
 10
988.6726768083
 20
652.2676220481
 30
0.0
 11
988.6726768083
 21
851.8179377858
 31
0.0
  0
ARC
  5
18B
330
1F
100
AcDbEntity
  8
0
  6
CONTINUOUS
 62
     7
100
AcDbCircle
 10
992.170280942
 20
652.2673724986
 30
0.0
 40
3.497604142569489
100
AcDbArc
 50
179.9959120212
 51
268.5041559156
  0
LINE
  5
18C
330
1F
100
AcDbEntity
  8
0
  6
CONTINUOUS
 62
     7
100
AcDbLine
 10
992.0789779491
 20
648.7709602658
 30
0.0
 11
1092.7835957474
 21
646.1339166705
 31
0.0
  0
LINE
  5
18D
330
1F
100
AcDbEntity
  8
0
  6
CONTINUOUS
 62
     7
100
AcDbLine
 10
1193.4882135458
 20
648.7709602658
 30
0.0
 11
1092.7835957474
 21
646.1339166705
 31
0.0
  0
LINE
  5
18E
330
1F
100
AcDbEntity
  8
0
  6
CONTINUOUS
 62
     7
100
AcDbLine
 10
991.6956232256
 20
857.6351797525
 30
0.0
 11
1092.7835957474
 21
860.2627536599
 31
0.0
  0
LINE
  5
18F
330
1F
100
AcDbEntity
  8
0
  6
CONTINUOUS
 62
     7
100
AcDbLine
 10
1092.7835957474
 20
860.2627536599
 30
0.0
 11
1092.7835957474
 21
859.9905094449
 31
0.0
  0
LINE
  5
190
330
1F
100
AcDbEntity
  8
0
  6
CONTINUOUS
 62
     7
100
AcDbLine
 10
991.6956232256
 20
857.6351797525
 30
0.0
 11
991.9872836537
 21
857.3510593121
 31
0.0
  0
LINE
  5
191
330
1F
100
AcDbEntity
  8
0
  6
CONTINUOUS
 62
     7
100
AcDbLine
 10
1193.8715682692
 20
857.6351797525
 30
0.0
 11
1092.7835957474
 21
860.2627536599
 31
0.0
  0
LINE
  5
192
330
1F
100
AcDbEntity
  8
0
  6
CONTINUOUS
 62
     7
100
AcDbLine
 10
1193.8715682692
 20
857.6351797525
 30
0.0
 11
1193.5799078412
 21
857.3510593121
 31
0.0
  0
LWPOLYLINE
  5
193
330
1F
100
AcDbEntity
  8
0
  6
CONTINUOUS
 62
     7
100
AcDbPolyline
 90
        3
 70
   128
 43
0.0
 10
1194.9330003328
 20
857.5045412724
 10
1194.3417297072
 20
857.6029336397
 10
1193.8715682692
 20
857.6351797525
  0
LINE
  5
194
330
1F
100
AcDbEntity
  8
0
  6
CONTINUOUS
 62
     7
100
AcDbLine
 10
1195.5314458675
 20
856.9574972932
 30
0.0
 11
1194.9330003328
 21
857.5045412724
 31
0.0
  0
ELLIPSE
  5
195
330
1F
100
AcDbEntity
  8
0
  6
CONTINUOUS
 62
     7
100
AcDbEllipse
 10
1193.4432896899
 20
851.8633743512
 30
0.0
 11
3.944339616773505
 21
3.842405538928347
 31
0.0
210
0.0
220
0.0
230
1.0
 40
0.9988137614
 41
6.230075723338389
 42
6.693082239848414
  0
LINE
  5
196
330
1F
100
AcDbEntity
  8
0
  6
CONTINUOUS
 62
     7
100
AcDbLine
 10
1198.3407990403
 20
855.0987487976
 30
0.0
 11
1197.5858019061
 21
855.4912304823
 31
0.0
  0
ELLIPSE
  5
197
330
1F
100
AcDbEntity
  8
0
  6
CONTINUOUS
 62
     7
100
AcDbEllipse
 10
1193.7427488575
 20
852.1550945568
 30
0.0
 11
-1.841882002971488
 21
5.192053248055117
 31
0.0
210
0.0
220
0.0
230
1.0
 40
0.9905382017
 41
4.368481993009708
 42
4.938852366428932
  0
LINE
  5
198
330
1F
100
AcDbEntity
  8
0
  6
CONTINUOUS
 62
     7
100
AcDbLine
 10
1199.2055506773
 20
852.1221226398
 30
0.0
 11
1198.9326731629
 21
851.8562933747
 31
0.0
  0
LINE
  5
199
330
1F
100
AcDbEntity
  8
0
  6
CONTINUOUS
 62
     7
100
AcDbLine
 10
986.3616408176
 20
852.1221226398
 30
0.0
 11
986.634518332
 21
851.8562933747
 31
0.0
  0
ELLIPSE
  5
19A
330
1F
100
AcDbEntity
  8
0
  6
CONTINUOUS
 62
     7
100
AcDbEllipse
 10
991.8244426374
 20
852.1550945568
 30
0.0
 11
1.841882002971715
 21
5.192053248055117
 31
0.0
210
0.0
220
0.0
230
1.0
 40
0.9905382017
 41
1.344332940750503
 42
1.914703314169926
  0
LINE
  5
19B
330
1F
100
AcDbEntity
  8
0
  6
CONTINUOUS
 62
     7
100
AcDbLine
 10
987.2263924546
 20
855.0987487976
 30
0.0
 11
987.9813895888
 21
855.4912304823
 31
0.0
  0
ELLIPSE
  5
19C
330
1F
100
AcDbEntity
  8
0
  6
CONTINUOUS
 62
     7
100
AcDbEllipse
 10
992.1239018049
 20
851.8633743512
 30
0.0
 11
3.944339616773619
 21
-3.842405538928461
 31
0.0
210
0.0
220
0.0
230
1.0
 40
0.9988137614
 41
2.731695720920713
 42
3.194702237431226
  0
LINE
  5
19D
330
1F
100
AcDbEntity
  8
0
  6
CONTINUOUS
 62
     7
100
AcDbLine
 10
990.0357456274
 20
856.9574972932
 30
0.0
 11
990.6341911621
 21
857.5045412724
 31
0.0
  0
LWPOLYLINE
  5
19E
330
1F
100
AcDbEntity
  8
0
  6
CONTINUOUS
 62
     7
100
AcDbPolyline
 90
        3
 70
   128
 43
0.0
 10
990.6341911621
 20
857.5045412724
 10
991.2254617877
 20
857.6029336397
 10
991.6956232256
 20
857.6351797525
  0
LINE
  5
19F
330
1F
100
AcDbEntity
  8
0
  6
CONTINUOUS
 62
     7
100
AcDbLine
 10
1199.2055506773
 20
852.1221226398
 30
0.0
 11
1199.2055506773
 21
651.9634446446
 31
0.0
  0
LINE
  5
1A0
330
1F
100
AcDbEntity
  8
0
  6
CONTINUOUS
 62
     7
100
AcDbLine
 10
1199.2055506773
 20
651.9634446446
 30
0.0
 11
1198.9326731629
 21
652.2292664592
 31
0.0
  0
LINE
  5
1A1
330
1F
100
AcDbEntity
  8
0
  6
CONTINUOUS
 62
     7
100
AcDbLine
 10
986.3616408176
 20
673.6427864377
 30
0.0
 11
986.3616408176
 21
651.9634446446
 31
0.0
  0
LINE
  5
1A2
330
1F
100
AcDbEntity
  8
0
  6
CONTINUOUS
 62
     7
100
AcDbLine
 10
986.5385474033
 20
673.6427864377
 30
0.0
 11
986.5385474033
 21
695.442782933
 31
0.0
  0
LINE
  5
1A3
330
1F
100
AcDbEntity
  8
0
  6
CONTINUOUS
 62
     7
100
AcDbLine
 10
986.3616408176
 20
718.6427845006
 30
0.0
 11
986.3616408176
 21
695.442782933
 31
0.0
  0
LINE
  5
1A4
330
1F
100
AcDbEntity
  8
0
  6
CONTINUOUS
 62
     7
100
AcDbLine
 10
986.5385474033
 20
740.4427847211
 30
0.0
 11
986.5385474033
 21
718.6427845006
 31
0.0
  0
LINE
  5
1A5
330
1F
100
AcDbEntity
  8
0
  6
CONTINUOUS
 62
     7
100
AcDbLine
 10
986.3616408176
 20
763.6427834947
 30
0.0
 11
986.3616408176
 21
740.4427847211
 31
0.0
  0
LINE
  5
1A6
330
1F
100
AcDbEntity
  8
0
  6
CONTINUOUS
 62
     7
100
AcDbLine
 10
986.5385474033
 20
763.6427834947
 30
0.0
 11
986.5385474033
 21
785.4427837153
 31
0.0
  0
LINE
  5
1A7
330
1F
100
AcDbEntity
  8
0
  6
CONTINUOUS
 62
     7
100
AcDbLine
 10
986.3616408176
 20
808.6427843515
 30
0.0
 11
986.3616408176
 21
785.4427837153
 31
0.0
  0
LINE
  5
1A8
330
1F
100
AcDbEntity
  8
0
  6
CONTINUOUS
 62
     7
100
AcDbLine
 10
986.5385474033
 20
830.4427845721
 30
0.0
 11
986.5385474033
 21
808.6427843515
 31
0.0
  0
LINE
  5
1A9
330
1F
100
AcDbEntity
  8
0
  6
CONTINUOUS
 62
     7
100
AcDbLine
 10
986.3616408176
 20
852.1221226398
 30
0.0
 11
986.3616408176
 21
830.4427845721
 31
0.0
  0
LINE
  5
1AA
330
1F
100
AcDbEntity
  8
0
  6
CONTINUOUS
 62
     7
100
AcDbLine
 10
986.3616408176
 20
651.9634446446
 30
0.0
 11
986.634518332
 21
652.2292664592
 31
0.0
  0
ELLIPSE
  5
1AB
330
1F
100
AcDbEntity
  8
0
  6
CONTINUOUS
 62
     7
100
AcDbEllipse
 10
1193.7427488575
 20
651.9304724535
 30
0.0
 11
1.841882002971715
 21
5.192053248055231
 31
0.0
210
0.0
220
0.0
230
1.0
 40
0.9905382017
 41
4.485925594340515
 42
5.056295967759731
  0
LINE
  5
1AC
330
1F
100
AcDbEntity
  8
0
  6
CONTINUOUS
 62
     7
100
AcDbLine
 10
1198.3407990403
 20
648.9868184869
 30
0.0
 11
1197.5858019061
 21
648.5943368022
 31
0.0
  0
ELLIPSE
  5
1AD
330
1F
100
AcDbEntity
  8
0
  6
CONTINUOUS
 62
     7
100
AcDbEllipse
 10
1193.4432896899
 20
652.2221926591
 30
0.0
 11
-3.944339616773505
 21
3.842405538928347
 31
0.0
210
0.0
220
0.0
230
1.0
 40
0.9988137614
 41
2.731695720920646
 42
3.194702237431261
  0
LINE
  5
1AE
330
1F
100
AcDbEntity
  8
0
  6
CONTINUOUS
 62
     7
100
AcDbLine
 10
1195.5314458675
 20
647.1280774419
 30
0.0
 11
1194.9330003328
 21
646.5810260121
 31
0.0
  0
LWPOLYLINE
  5
1AF
330
1F
100
AcDbEntity
  8
0
  6
CONTINUOUS
 62
     7
100
AcDbPolyline
 90
        3
 70
   128
 43
0.0
 10
1194.9330003328
 20
646.5810260121
 10
1194.3417297072
 20
646.4826336448
 10
1193.8715682692
 20
646.4503875319
  0
LINE
  5
1B0
330
1F
100
AcDbEntity
  8
0
  6
CONTINUOUS
 62
     7
100
AcDbLine
 10
1193.8715682692
 20
646.4503875319
 30
0.0
 11
1193.5799078412
 21
646.7345079724
 31
0.0
  0
LINE
  5
1B1
330
1F
100
AcDbEntity
  8
0
  6
CONTINUOUS
 62
     7
100
AcDbLine
 10
991.6956232256
 20
646.4503875319
 30
0.0
 11
991.9872836537
 21
646.7345079724
 31
0.0
  0
LWPOLYLINE
  5
1B2
330
1F
100
AcDbEntity
  8
0
  6
CONTINUOUS
 62
     7
100
AcDbPolyline
 90
        3
 70
   128
 43
0.0
 10
990.6341911621
 20
646.5810260121
 10
991.2254617877
 20
646.4826336448
 10
991.6956232256
 20
646.4503875319
  0
LINE
  5
1B3
330
1F
100
AcDbEntity
  8
0
  6
CONTINUOUS
 62
     7
100
AcDbLine
 10
990.0357456274
 20
647.1280774419
 30
0.0
 11
990.6341911621
 21
646.5810260121
 31
0.0
  0
ELLIPSE
  5
1B4
330
1F
100
AcDbEntity
  8
0
  6
CONTINUOUS
 62
     7
100
AcDbEllipse
 10
992.1239018049
 20
652.2221926591
 30
0.0
 11
-3.944339616773505
 21
-3.84240553892846
 31
0.0
210
0.0
220
0.0
230
1.0
 40
0.9988137614
 41
6.230075723338387
 42
6.693082239848434
  0
LINE
  5
1B5
330
1F
100
AcDbEntity
  8
0
  6
CONTINUOUS
 62
     7
100
AcDbLine
 10
987.2263924546
 20
648.9868184869
 30
0.0
 11
987.9813895888
 21
648.5943368022
 31
0.0
  0
ELLIPSE
  5
1B6
330
1F
100
AcDbEntity
  8
0
  6
CONTINUOUS
 62
     7
100
AcDbEllipse
 10
991.8244426374
 20
651.9304724535
 30
0.0
 11
-1.841882002971715
 21
5.192053248055231
 31
0.0
210
0.0
220
0.0
230
1.0
 40
0.9905382017
 41
1.22688933941987
 42
1.797259712839085
  0
LINE
  5
1B7
330
1F
100
AcDbEntity
  8
0
  6
CONTINUOUS
 62
     7
100
AcDbLine
 10
1193.8715682692
 20
646.4503875319
 30
0.0
 11
1092.7835957474
 21
643.8228210752
 31
0.0
  0
LINE
  5
1B8
330
1F
100
AcDbEntity
  8
0
  6
CONTINUOUS
 62
     7
100
AcDbLine
 10
1092.7835957474
 20
643.8228210752
 30
0.0
 11
1092.7835957474
 21
644.0950652902
 31
0.0
  0
LINE
  5
1B9
330
1F
100
AcDbEntity
  8
0
  6
CONTINUOUS
 62
     7
100
AcDbLine
 10
991.6956232256
 20
646.4503875319
 30
0.0
 11
1092.7835957474
 21
643.8228210752
 31
0.0
  0
ARC
  5
1BA
330
1F
100
AcDbEntity
  8
0
  6
CONTINUOUS
 62
     7
100
AcDbCircle
 10
1194.5798451319
 20
864.0997639051
 30
0.0
 40
0.4996970547485354
100
AcDbArc
 50
327.1202831173
 51
90.0088088599
  0
LWPOLYLINE
  5
1BB
330
1F
100
AcDbEntity
  8
0
  6
CONTINUOUS
 62
     7
100
AcDbPolyline
 90
        3
 70
   128
 43
0.0
 10
1194.7358803219
 20
863.618703777
 10
1194.8810623354
 20
863.7362962906
 10
1194.9995042152
 20
863.8285046761
  0
ARC
  5
1BC
330
1F
100
AcDbEntity
  8
0
  6
CONTINUOUS
 62
     7
100
AcDbCircle
 10
1194.3035946914
 20
863.8711863228
 30
0.0
 40
0.5006141628584886
100
AcDbArc
 50
329.7130666548
 51
89.4649959085
  0
ARC
  5
1BD
330
1F
100
AcDbEntity
  8
0
  6
CONTINUOUS
 62
     7
100
AcDbCircle
 10
990.9873468656
 20
639.9858036531
 30
0.0
 40
0.4996973283114698
100
AcDbArc
 50
147.1203407543
 51
270.0087512229
  0
LWPOLYLINE
  5
1BE
330
1F
100
AcDbEntity
  8
0
  6
CONTINUOUS
 62
     7
100
AcDbPolyline
 90
        3
 70
   128
 43
0.0
 10
990.8313111729
 20
640.466870958
 10
990.6861291594
 20
640.3492709939
 10
990.5676872797
 20
640.2570626084
  0
ARC
  5
1BF
330
1F
100
AcDbEntity
  8
0
  6
CONTINUOUS
 62
     7
100
AcDbCircle
 10
991.2635931514
 20
640.2143739353
 30
0.0
 40
0.5006145529662956
100
AcDbArc
 50
149.7121614429
 51
269.4654143218
  0
ARC
  5
1C0
330
1F
100
AcDbEntity
  8
0
  6
CONTINUOUS
 62
     7
100
AcDbCircle
 10
991.2635968034
 20
863.8711863228
 30
0.0
 40
0.5006141628586055
100
AcDbArc
 50
90.5350040915
 51
210.2869333451
  0
LWPOLYLINE
  5
1C1
330
1F
100
AcDbEntity
  8
0
  6
CONTINUOUS
 62
     7
100
AcDbPolyline
 90
        3
 70
   128
 43
0.0
 10
990.8313111729
 20
863.6187112276
 10
990.6861291594
 20
863.7362962906
 10
990.5676947302
 20
863.8284897749
  0
ARC
  5
1C2
330
1F
100
AcDbEntity
  8
0
  6
CONTINUOUS
 62
     7
100
AcDbCircle
 10
990.9873463629
 20
864.0997639051
 30
0.0
 40
0.4996970547484845
100
AcDbArc
 50
89.99119114
 51
212.8797168827
  0
ARC
  5
1C3
330
1F
100
AcDbEntity
  8
0
  6
CONTINUOUS
 62
     7
100
AcDbCircle
 10
1194.3035983434
 20
640.2143739353
 30
0.0
 40
0.5006145529660585
100
AcDbArc
 50
270.5345856782
 51
30.2878385571
  0
LWPOLYLINE
  5
1C4
330
1F
100
AcDbEntity
  8
0
  6
CONTINUOUS
 62
     7
100
AcDbPolyline
 90
        3
 70
   128
 43
0.0
 10
1194.7358803219
 20
640.4668560569
 10
1194.8810623354
 20
640.3492709939
 10
1194.9994967646
 20
640.2570775096
  0
ARC
  5
1C5
330
1F
100
AcDbEntity
  8
0
  6
CONTINUOUS
 62
     7
100
AcDbCircle
 10
1194.5798446293
 20
639.9858036531
 30
0.0
 40
0.4996973283114276
100
AcDbArc
 50
269.9912487771
 51
32.8796592457
  0
ARC
  5
1C6
330
1F
100
AcDbEntity
  8
0
  6
CONTINUOUS
 62
     7
100
AcDbCircle
 10
982.4266855725
 20
855.5389008978
 30
0.0
 40
0.4997718914912692
100
AcDbArc
 50
57.1370609695
 51
179.9924960614
  0
LWPOLYLINE
  5
1C7
330
1F
100
AcDbEntity
  8
0
  6
CONTINUOUS
 62
     7
100
AcDbPolyline
 90
        3
 70
   128
 43
0.0
 10
982.6978774137
 20
855.9586948101
 10
982.8152538604
 20
855.8086326663
 10
982.9076783127
 20
855.6950709168
  0
ARC
  5
1C8
330
1F
100
AcDbEntity
  8
0
  6
CONTINUOUS
 62
     7
100
AcDbCircle
 10
982.6545250554
 20
855.263957768
 30
0.0
 40
0.4999413431191824
100
AcDbArc
 50
59.5789230922
 51
179.5986526724
  0
ARC
  5
1C9
330
1F
100
AcDbEntity
  8
0
  6
CONTINUOUS
 62
     7
100
AcDbCircle
 10
1203.1404954427
 20
648.5466856343
 30
0.0
 40
0.4997823727922034
100
AcDbArc
 50
237.1392674701
 51
359.9911437816
  0
LWPOLYLINE
  5
1CA
330
1F
100
AcDbEntity
  8
0
  6
CONTINUOUS
 62
     7
100
AcDbPolyline
 90
        3
 70
   128
 43
0.0
 10
1202.8693140811
 20
648.1268724744
 10
1202.7519376344
 20
648.2769271676
 10
1202.6595131821
 20
648.3905038182
  0
ARC
  5
1CB
330
1F
100
AcDbEntity
  8
0
  6
CONTINUOUS
 62
     7
100
AcDbCircle
 10
1202.9126762782
 20
648.8215997006
 30
0.0
 40
0.4999314359590258
100
AcDbArc
 50
239.5769487428
 51
359.5997697135
  0
ARC
  5
1CC
330
1F
100
AcDbEntity
  8
0
  6
CONTINUOUS
 62
     7
100
AcDbCircle
 10
982.6545231975
 20
648.8216093452
 30
0.0
 40
0.4999394840592014
100
AcDbArc
 50
180.4013291868
 51
300.4224391439
  0
LWPOLYLINE
  5
1CD
330
1F
100
AcDbEntity
  8
0
  6
CONTINUOUS
 62
     7
100
AcDbPolyline
 90
        3
 70
   128
 43
0.0
 10
982.6978774137
 20
648.1268724744
 10
982.8152538604
 20
648.2769271676
 10
982.9076783127
 20
648.3905038182
  0
ARC
  5
1CE
330
1F
100
AcDbEntity
  8
0
  6
CONTINUOUS
 62
     7
100
AcDbCircle
 10
982.4266803692
 20
648.5466568269
 30
0.0
 40
0.4997666851011562
100
AcDbArc
 50
180.0038455215
 51
302.864034806
  0
ARC
  5
1CF
330
1F
100
AcDbEntity
  8
0
  6
CONTINUOUS
 62
     7
100
AcDbCircle
 10
1202.9126664394
 20
855.263957768
 30
0.0
 40
0.4999413431191824
100
AcDbArc
 50
0.4013473276
 51
120.4210769078
  0
LWPOLYLINE
  5
1D0
330
1F
100
AcDbEntity
  8
0
  6
CONTINUOUS
 62
     7
100
AcDbPolyline
 90
        3
 70
   128
 43
0.0
 10
1202.8693066306
 20
855.9586873595
 10
1202.7519376344
 20
855.8086326663
 10
1202.6595206327
 20
855.6950709168
  0
ARC
  5
1D1
330
1F
100
AcDbEntity
  8
0
  6
CONTINUOUS
 62
     7
100
AcDbCircle
 10
1203.1405110767
 20
855.5389077278
 30
0.0
 40
0.4997667363453081
100
AcDbArc
 50
0.006720989
 51
122.865041257
  0
ARC
  5
1D2
330
1F
100
AcDbEntity
  8
0
  6
CONTINUOUS
 62
     7
100
AcDbCircle
 10
985.7835957474
 20
860.7427835052
 30
0.0
 40
5.69290450390148
100
AcDbArc
 50
318.324322582
 51
32.8217241538
  0
ARC
  5
1D3
330
1F
100
AcDbEntity
  8
0
  6
CONTINUOUS
 62
     7
100
AcDbCircle
 10
985.7835957474
 20
860.7427835052
 30
0.0
 40
5.692904451066708
100
AcDbArc
 50
237.1781474689
 51
292.7095024868
  0
CIRCLE
  5
1D4
330
1F
100
AcDbEntity
  8
0
  6
CONTINUOUS
 62
     7
100
AcDbCircle
 10
985.7835957474
 20
860.7427835052
 30
0.0
 40
3.499999999996135
  0
ARC
  5
1D5
330
1F
100
AcDbEntity
  8
0
  6
CONTINUOUS
 62
     7
100
AcDbCircle
 10
1199.7835957474
 20
643.3427835052
 30
0.0
 40
5.692904503901445
100
AcDbArc
 50
138.3243225821
 51
212.8217241538
  0
ARC
  5
1D6
330
1F
100
AcDbEntity
  8
0
  6
CONTINUOUS
 62
     7
100
AcDbCircle
 10
1199.7835957474
 20
643.3427835052
 30
0.0
 40
5.692904451066674
100
AcDbArc
 50
57.1781474689
 51
112.7095024868
  0
CIRCLE
  5
1D7
330
1F
100
AcDbEntity
  8
0
  6
CONTINUOUS
 62
     7
100
AcDbCircle
 10
1199.7835957474
 20
643.3427835052
 30
0.0
 40
3.499999999996021
  0
ARC
  5
1D8
330
1F
100
AcDbEntity
  8
0
  6
CONTINUOUS
 62
     7
100
AcDbCircle
 10
1199.7835957474
 20
860.7427835052
 30
0.0
 40
5.692904459857186
100
AcDbArc
 50
247.2904975132
 51
302.8217296651
  0
ARC
  5
1D9
330
1F
100
AcDbEntity
  8
0
  6
CONTINUOUS
 62
     7
100
AcDbCircle
 10
1199.7835957474
 20
860.7427835052
 30
0.0
 40
5.692904459897899
100
AcDbArc
 50
147.1781772817
 51
221.675677418
  0
CIRCLE
  5
1DA
330
1F
100
AcDbEntity
  8
0
  6
CONTINUOUS
 62
     7
100
AcDbCircle
 10
1199.7835957474
 20
860.7427835052
 30
0.0
 40
3.499999999996135
  0
ARC
  5
1DB
330
1F
100
AcDbEntity
  8
0
  6
CONTINUOUS
 62
     7
100
AcDbCircle
 10
985.7835957474
 20
643.3427835052
 30
0.0
 40
5.692904418337007
100
AcDbArc
 50
67.2904975132
 51
122.8218525311
  0
ARC
  5
1DC
330
1F
100
AcDbEntity
  8
0
  6
CONTINUOUS
 62
     7
100
AcDbCircle
 10
985.7835957474
 20
643.3427835052
 30
0.0
 40
5.692904459897899
100
AcDbArc
 50
327.1781772817
 51
41.675677418
  0
CIRCLE
  5
1DD
330
1F
100
AcDbEntity
  8
0
  6
CONTINUOUS
 62
     7
100
AcDbCircle
 10
985.7835957474
 20
643.3427835052
 30
0.0
 40
3.499999999996021
  0
ARC
  5
1DE
330
1F
100
AcDbEntity
  8
0
  6
CONTINUOUS
 62
     7
100
AcDbCircle
 10
1199.7836987418
 20
860.7211896706
 30
0.0
 40
5.820318030211799
100
AcDbArc
 50
150.143546129
 51
213.5495910008
  0
ARC
  5
1DF
330
1F
100
AcDbEntity
  8
0
  6
CONTINUOUS
 62
     7
100
AcDbCircle
 10
985.7834932744
 20
643.3643776307
 30
0.0
 40
5.820317586433005
100
AcDbArc
 50
330.1435434306
 51
33.5495936992
  0
ARC
  5
1E0
330
1F
100
AcDbEntity
  8
0
  6
CONTINUOUS
 62
     7
100
AcDbCircle
 10
985.7834927531
 20
860.7211896706
 30
0.0
 40
5.820318030211571
100
AcDbArc
 50
326.4504089992
 51
29.856453871
  0
ARC
  5
1E1
330
1F
100
AcDbEntity
  8
0
  6
CONTINUOUS
 62
     7
100
AcDbCircle
 10
1199.7619995717
 20
860.7428605962
 30
0.0
 40
5.820292857400164
100
AcDbArc
 50
255.8666061025
 51
299.8565904842
  0
ARC
  5
1E2
330
1F
100
AcDbEntity
  8
0
  6
CONTINUOUS
 62
     7
100
AcDbCircle
 10
1199.7836982204
 20
643.3643776307
 30
0.0
 40
5.820317586433353
100
AcDbArc
 50
146.4504063008
 51
209.8564565694
  0
ARC
  5
1E3
330
1F
100
AcDbEntity
  8
0
  6
CONTINUOUS
 62
     7
100
AcDbCircle
 10
985.8051919231
 20
860.7428605962
 30
0.0
 40
5.820292857399319
100
AcDbArc
 50
240.1434095158
 51
284.1333938975
  0
ARC
  5
1E4
330
1F
100
AcDbEntity
  8
0
  6
CONTINUOUS
 62
     7
100
AcDbCircle
 10
1199.7619657966
 20
643.3423990079
 30
0.0
 40
5.820582978065436
100
AcDbArc
 50
60.1446654634
 51
104.1323319427
  0
ARC
  5
1E5
330
1F
100
AcDbEntity
  8
0
  6
CONTINUOUS
 62
     7
100
AcDbCircle
 10
985.805220362
 20
643.3424738577
 30
0.0
 40
5.820511696558509
100
AcDbArc
 50
75.8674372187
 51
119.8555921611
  0
CIRCLE
  5
1E6
330
1F
100
AcDbEntity
  8
0
  6
CONTINUOUS
 62
     7
100
AcDbCircle
 10
985.7835957474
 20
860.7427835052
 30
0.0
 40
3.028329986450103
  0
CIRCLE
  5
1E7
330
1F
100
AcDbEntity
  8
0
  6
CONTINUOUS
 62
     7
100
AcDbCircle
 10
1199.7835957474
 20
643.3427835052
 30
0.0
 40
3.028329986449876
  0
CIRCLE
  5
1E8
330
1F
100
AcDbEntity
  8
0
  6
CONTINUOUS
 62
     7
100
AcDbCircle
 10
1199.7835957474
 20
860.7427835052
 30
0.0
 40
3.028329986450103
  0
CIRCLE
  5
1E9
330
1F
100
AcDbEntity
  8
0
  6
CONTINUOUS
 62
     7
100
AcDbCircle
 10
985.7835957474
 20
643.3427835052
 30
0.0
 40
3.028329986449876
  0
LINE
  5
1EA
330
1F
100
AcDbEntity
  8
0
  6
CONTINUOUS
 62
     7
100
AcDbLine
 10
974.5791361994
 20
811.6427829806
 30
0.0
 11
970.9307209916
 21
811.6427829806
 31
0.0
  0
LINE
  5
1EB
330
1F
100
AcDbEntity
  8
0
  6
CONTINUOUS
 62
     7
100
AcDbLine
 10
974.5791361994
 20
811.6427829806
 30
0.0
 11
974.5791361994
 21
811.8427826409
 31
0.0
  0
LINE
  5
1EC
330
1F
100
AcDbEntity
  8
0
  6
CONTINUOUS
 62
     7
100
AcDbLine
 10
974.5791361994
 20
827.2427825574
 30
0.0
 11
974.5791361994
 21
827.4427822177
 31
0.0
  0
LINE
  5
1ED
330
1F
100
AcDbEntity
  8
0
  6
CONTINUOUS
 62
     7
100
AcDbLine
 10
974.5791361994
 20
827.4427822177
 30
0.0
 11
970.9307209916
 21
827.4427822177
 31
0.0
  0
LINE
  5
1EE
330
1F
100
AcDbEntity
  8
0
  6
CONTINUOUS
 62
     7
100
AcDbLine
 10
974.6235938138
 20
808.6427843515
 30
0.0
 11
970.8235965437
 21
808.6427843515
 31
0.0
  0
LINE
  5
1EF
330
1F
100
AcDbEntity
  8
0
  6
CONTINUOUS
 62
     7
100
AcDbLine
 10
974.6235938138
 20
830.4427845721
 30
0.0
 11
970.8235965437
 21
830.4427845721
 31
0.0
  0
LINE
  5
1F0
330
1F
100
AcDbEntity
  8
0
  6
CONTINUOUS
 62
     7
100
AcDbLine
 10
974.5791361994
 20
766.6427830551
 30
0.0
 11
970.9307209916
 21
766.6427830551
 31
0.0
  0
LINE
  5
1F1
330
1F
100
AcDbEntity
  8
0
  6
CONTINUOUS
 62
     7
100
AcDbLine
 10
974.5791361994
 20
766.6427830551
 30
0.0
 11
974.5791361994
 21
766.8427836467
 31
0.0
  0
LINE
  5
1F2
330
1F
100
AcDbEntity
  8
0
  6
CONTINUOUS
 62
     7
100
AcDbLine
 10
974.5791361994
 20
782.2427835633
 30
0.0
 11
974.5791361994
 21
782.4427836892
 31
0.0
  0
LINE
  5
1F3
330
1F
100
AcDbEntity
  8
0
  6
CONTINUOUS
 62
     7
100
AcDbLine
 10
974.5791361994
 20
782.4427836892
 30
0.0
 11
970.9307209916
 21
782.4427836892
 31
0.0
  0
LINE
  5
1F4
330
1F
100
AcDbEntity
  8
0
  6
CONTINUOUS
 62
     7
100
AcDbLine
 10
974.6235938138
 20
763.6427834947
 30
0.0
 11
970.8235965437
 21
763.6427834947
 31
0.0
  0
LINE
  5
1F5
330
1F
100
AcDbEntity
  8
0
  6
CONTINUOUS
 62
     7
100
AcDbLine
 10
974.6235938138
 20
785.4427837153
 30
0.0
 11
970.8235965437
 21
785.4427837153
 31
0.0
  0
LINE
  5
1F6
330
1F
100
AcDbEntity
  8
0
  6
CONTINUOUS
 62
     7
100
AcDbLine
 10
974.5791361994
 20
721.6427831296
 30
0.0
 11
970.9307209916
 21
721.6427831296
 31
0.0
  0
LINE
  5
1F7
330
1F
100
AcDbEntity
  8
0
  6
CONTINUOUS
 62
     7
100
AcDbLine
 10
974.5791361994
 20
721.6427831296
 30
0.0
 11
974.5791361994
 21
721.8427827899
 31
0.0
  0
LINE
  5
1F8
330
1F
100
AcDbEntity
  8
0
  6
CONTINUOUS
 62
     7
100
AcDbLine
 10
974.5791361994
 20
737.2427827065
 30
0.0
 11
974.5791361994
 21
737.4427823667
 31
0.0
  0
LINE
  5
1F9
330
1F
100
AcDbEntity
  8
0
  6
CONTINUOUS
 62
     7
100
AcDbLine
 10
974.5791361994
 20
737.4427823667
 30
0.0
 11
970.9307209916
 21
737.4427823667
 31
0.0
  0
LINE
  5
1FA
330
1F
100
AcDbEntity
  8
0
  6
CONTINUOUS
 62
     7
100
AcDbLine
 10
974.6235938138
 20
718.6427845006
 30
0.0
 11
970.8235965437
 21
718.6427845006
 31
0.0
  0
LINE
  5
1FB
330
1F
100
AcDbEntity
  8
0
  6
CONTINUOUS
 62
     7
100
AcDbLine
 10
974.6235938138
 20
740.4427847211
 30
0.0
 11
970.8235965437
 21
740.4427847211
 31
0.0
  0
LINE
  5
1FC
330
1F
100
AcDbEntity
  8
0
  6
CONTINUOUS
 62
     7
100
AcDbLine
 10
970.9307209916
 20
676.6427850668
 30
0.0
 11
974.5791361994
 21
676.6427850668
 31
0.0
  0
LINE
  5
1FD
330
1F
100
AcDbEntity
  8
0
  6
CONTINUOUS
 62
     7
100
AcDbLine
 10
974.5791361994
 20
676.6427850668
 30
0.0
 11
974.5791361994
 21
676.8427810018
 31
0.0
  0
LINE
  5
1FE
330
1F
100
AcDbEntity
  8
0
  6
CONTINUOUS
 62
     7
100
AcDbLine
 10
974.5791361994
 20
692.2427809183
 30
0.0
 11
974.5791361994
 21
692.4427843039
 31
0.0
  0
LINE
  5
1FF
330
1F
100
AcDbEntity
  8
0
  6
CONTINUOUS
 62
     7
100
AcDbLine
 10
970.9307209916
 20
692.4427843039
 30
0.0
 11
974.5791361994
 21
692.4427843039
 31
0.0
  0
LINE
  5
200
330
1F
100
AcDbEntity
  8
0
  6
CONTINUOUS
 62
     7
100
AcDbLine
 10
974.6235938138
 20
673.6427864377
 30
0.0
 11
970.8235965437
 21
673.6427864377
 31
0.0
  0
LINE
  5
201
330
1F
100
AcDbEntity
  8
0
  6
CONTINUOUS
 62
     7
100
AcDbLine
 10
974.6235938138
 20
695.442782933
 30
0.0
 11
970.8235965437
 21
695.442782933
 31
0.0
  0
LINE
  5
202
330
1F
100
AcDbEntity
  8
0
  6
CONTINUOUS
 62
     7
100
AcDbLine
 10
981.9747017092
 20
808.6427843515
 30
0.0
 11
986.5385474033
 21
808.6427843515
 31
0.0
  0
LINE
  5
203
330
1F
100
AcDbEntity
  8
0
  6
CONTINUOUS
 62
     7
100
AcDbLine
 10
981.9747017092
 20
830.4427845721
 30
0.0
 11
986.5385474033
 21
830.4427845721
 31
0.0
  0
LINE
  5
204
330
1F
100
AcDbEntity
  8
0
  6
CONTINUOUS
 62
     7
100
AcDbLine
 10
981.9747017092
 20
763.6427834947
 30
0.0
 11
986.5385474033
 21
763.6427834947
 31
0.0
  0
LINE
  5
205
330
1F
100
AcDbEntity
  8
0
  6
CONTINUOUS
 62
     7
100
AcDbLine
 10
981.9747017092
 20
785.4427837153
 30
0.0
 11
986.5385474033
 21
785.4427837153
 31
0.0
  0
LINE
  5
206
330
1F
100
AcDbEntity
  8
0
  6
CONTINUOUS
 62
     7
100
AcDbLine
 10
981.9747017092
 20
718.6427845006
 30
0.0
 11
986.5385474033
 21
718.6427845006
 31
0.0
  0
LINE
  5
207
330
1F
100
AcDbEntity
  8
0
  6
CONTINUOUS
 62
     7
100
AcDbLine
 10
981.9747017092
 20
740.4427847211
 30
0.0
 11
986.5385474033
 21
740.4427847211
 31
0.0
  0
LINE
  5
208
330
1F
100
AcDbEntity
  8
0
  6
CONTINUOUS
 62
     7
100
AcDbLine
 10
981.9747017092
 20
673.6427864377
 30
0.0
 11
986.5385474033
 21
673.6427864377
 31
0.0
  0
LINE
  5
209
330
1F
100
AcDbEntity
  8
0
  6
CONTINUOUS
 62
     7
100
AcDbLine
 10
981.9747017092
 20
695.442782933
 30
0.0
 11
986.5385474033
 21
695.442782933
 31
0.0
  0
LINE
  5
20A
330
1F
100
AcDbEntity
  8
0
  6
CONTINUOUS
 62
     7
100
AcDbLine
 10
979.0557579464
 20
850.2671366875
 30
0.0
 11
982.0260883636
 21
850.2921035831
 31
0.0
  0
LINE
  5
20B
330
1F
100
AcDbEntity
  8
0
  6
CONTINUOUS
 62
     7
100
AcDbLine
 10
979.0557579464
 20
853.9427837674
 30
0.0
 11
979.0557579464
 21
850.2671366875
 31
0.0
  0
LINE
  5
20C
330
1F
100
AcDbEntity
  8
0
  6
CONTINUOUS
 62
     7
100
AcDbLine
 10
979.0890545911
 20
850.2421697919
 30
0.0
 11
982.0926891036
 21
850.2421697919
 31
0.0
  0
LINE
  5
20D
330
1F
100
AcDbEntity
  8
0
  6
CONTINUOUS
 62
     7
100
AcDbLine
 10
979.0890545911
 20
850.2421697919
 30
0.0
 11
979.0557579464
 21
850.2671366875
 31
0.0
  0
LINE
  5
20E
330
1F
100
AcDbEntity
  8
0
  6
CONTINUOUS
 62
     7
100
AcDbLine
 10
982.1545959777
 20
830.4427845721
 30
0.0
 11
982.1545959777
 21
848.4427875225
 31
0.0
  0
LINE
  5
20F
330
1F
100
AcDbEntity
  8
0
  6
CONTINUOUS
 62
     7
100
AcDbLine
 10
982.0260883636
 20
846.5934640114
 30
0.0
 11
982.0260883636
 21
830.4427845721
 31
0.0
  0
LINE
  5
210
330
1F
100
AcDbEntity
  8
0
  6
CONTINUOUS
 62
     7
100
AcDbLine
 10
982.0260883636
 20
846.5934640114
 30
0.0
 11
982.0926891036
 21
846.6433978025
 31
0.0
  0
ARC
  5
211
330
1F
100
AcDbEntity
  8
0
  6
CONTINUOUS
 62
     7
100
AcDbCircle
 10
966.2177606454
 20
848.0841877692
 30
0.0
 40
15.94017657619123
100
AcDbArc
 50
354.814109836
 51
1.2890688986
  0
LINE
  5
212
330
1F
100
AcDbEntity
  8
0
  6
CONTINUOUS
 62
     7
100
AcDbLine
 10
979.0557579464
 20
846.618430907
 30
0.0
 11
982.0260883636
 21
846.5934640114
 31
0.0
  0
LINE
  5
213
330
1F
100
AcDbEntity
  8
0
  6
CONTINUOUS
 62
     7
100
AcDbLine
 10
979.0557579464
 20
846.618430907
 30
0.0
 11
979.0557579464
 21
830.4427845721
 31
0.0
  0
LINE
  5
214
330
1F
100
AcDbEntity
  8
0
  6
CONTINUOUS
 62
     7
100
AcDbLine
 10
979.0890545911
 20
846.6433978025
 30
0.0
 11
982.0926891036
 21
846.6433978025
 31
0.0
  0
LINE
  5
215
330
1F
100
AcDbEntity
  8
0
  6
CONTINUOUS
 62
     7
100
AcDbLine
 10
979.0557579464
 20
846.618430907
 30
0.0
 11
979.0890545911
 21
846.6433978025
 31
0.0
  0
LINE
  5
216
330
1F
100
AcDbEntity
  8
0
  6
CONTINUOUS
 62
     7
100
AcDbLine
 10
982.0260883636
 20
808.6427843515
 30
0.0
 11
982.0260883636
 21
785.4427837153
 31
0.0
  0
LINE
  5
217
330
1F
100
AcDbEntity
  8
0
  6
CONTINUOUS
 62
     7
100
AcDbLine
 10
982.1545959777
 20
785.4427837153
 30
0.0
 11
982.1545959777
 21
808.6427843515
 31
0.0
  0
LINE
  5
218
330
1F
100
AcDbEntity
  8
0
  6
CONTINUOUS
 62
     7
100
AcDbLine
 10
979.0557579464
 20
808.6427843515
 30
0.0
 11
979.0557579464
 21
785.4427837153
 31
0.0
  0
LINE
  5
219
330
1F
100
AcDbEntity
  8
0
  6
CONTINUOUS
 62
     7
100
AcDbLine
 10
982.1545959777
 20
740.4427847211
 30
0.0
 11
982.1545959777
 21
763.6427834947
 31
0.0
  0
LINE
  5
21A
330
1F
100
AcDbEntity
  8
0
  6
CONTINUOUS
 62
     7
100
AcDbLine
 10
982.0260883636
 20
763.6427834947
 30
0.0
 11
982.0260883636
 21
740.4427847211
 31
0.0
  0
LINE
  5
21B
330
1F
100
AcDbEntity
  8
0
  6
CONTINUOUS
 62
     7
100
AcDbLine
 10
979.0557579464
 20
763.6427834947
 30
0.0
 11
979.0557579464
 21
740.4427847211
 31
0.0
  0
LINE
  5
21C
330
1F
100
AcDbEntity
  8
0
  6
CONTINUOUS
 62
     7
100
AcDbLine
 10
982.0260883636
 20
718.6427845006
 30
0.0
 11
982.0260883636
 21
695.442782933
 31
0.0
  0
LINE
  5
21D
330
1F
100
AcDbEntity
  8
0
  6
CONTINUOUS
 62
     7
100
AcDbLine
 10
979.0557579464
 20
718.6427845006
 30
0.0
 11
979.0557579464
 21
695.442782933
 31
0.0
  0
LINE
  5
21E
330
1F
100
AcDbEntity
  8
0
  6
CONTINUOUS
 62
     7
100
AcDbLine
 10
982.1545959777
 20
695.442782933
 30
0.0
 11
982.1545959777
 21
718.6427845006
 31
0.0
  0
LINE
  5
21F
330
1F
100
AcDbEntity
  8
0
  6
CONTINUOUS
 62
     7
100
AcDbLine
 10
982.0260883636
 20
673.6427864377
 30
0.0
 11
982.0260883636
 21
657.4921032731
 31
0.0
  0
LINE
  5
220
330
1F
100
AcDbEntity
  8
0
  6
CONTINUOUS
 62
     7
100
AcDbLine
 10
979.0557579464
 20
657.4671363775
 30
0.0
 11
982.0260883636
 21
657.4921032731
 31
0.0
  0
LINE
  5
221
330
1F
100
AcDbEntity
  8
0
  6
CONTINUOUS
 62
     7
100
AcDbLine
 10
979.0557579464
 20
673.6427864377
 30
0.0
 11
979.0557579464
 21
657.4671363775
 31
0.0
  0
ARC
  5
222
330
1F
100
AcDbEntity
  8
0
  6
CONTINUOUS
 62
     7
100
AcDbCircle
 10
966.2177606454
 20
656.0013795153
 30
0.0
 40
15.9401765761893
100
AcDbArc
 50
358.7109311014
 51
5.185890164
  0
LINE
  5
223
330
1F
100
AcDbEntity
  8
0
  6
CONTINUOUS
 62
     7
100
AcDbLine
 10
982.0260883636
 20
657.4921032731
 30
0.0
 11
982.0926891036
 21
657.4421694819
 31
0.0
  0
LINE
  5
224
330
1F
100
AcDbEntity
  8
0
  6
CONTINUOUS
 62
     7
100
AcDbLine
 10
982.1545959777
 20
655.642779762
 30
0.0
 11
982.1545959777
 21
673.6427864377
 31
0.0
  0
LINE
  5
225
330
1F
100
AcDbEntity
  8
0
  6
CONTINUOUS
 62
     7
100
AcDbLine
 10
979.0890545911
 20
657.4421694819
 30
0.0
 11
982.0926891036
 21
657.4421694819
 31
0.0
  0
LINE
  5
226
330
1F
100
AcDbEntity
  8
0
  6
CONTINUOUS
 62
     7
100
AcDbLine
 10
979.0557579464
 20
657.4671363775
 30
0.0
 11
979.0890545911
 21
657.4421694819
 31
0.0
  0
LINE
  5
227
330
1F
100
AcDbEntity
  8
0
  6
CONTINUOUS
 62
     7
100
AcDbLine
 10
979.0557579464
 20
653.818430597
 30
0.0
 11
982.0260883636
 21
653.7934637014
 31
0.0
  0
LINE
  5
228
330
1F
100
AcDbEntity
  8
0
  6
CONTINUOUS
 62
     7
100
AcDbLine
 10
979.0557579464
 20
653.818430597
 30
0.0
 11
979.0557579464
 21
650.1427760665
 31
0.0
  0
LINE
  5
229
330
1F
100
AcDbEntity
  8
0
  6
CONTINUOUS
 62
     7
100
AcDbLine
 10
979.0890545911
 20
653.8433974926
 30
0.0
 11
982.0926891036
 21
653.8433974926
 31
0.0
  0
LINE
  5
22A
330
1F
100
AcDbEntity
  8
0
  6
CONTINUOUS
 62
     7
100
AcDbLine
 10
979.0890545911
 20
653.8433974926
 30
0.0
 11
979.0557579464
 21
653.818430597
 31
0.0
  0
ARC
  5
22B
330
1F
100
AcDbEntity
  8
0
  6
CONTINUOUS
 62
     7
100
AcDbCircle
 10
960.9116595875
 20
848.4427837972
 30
0.0
 40
18.26623877748276
100
AcDbArc
 50
354.3466906755
 51
5.6533093245
  0
ARC
  5
22C
330
1F
100
AcDbEntity
  8
0
  6
CONTINUOUS
 62
     7
100
AcDbCircle
 10
960.9115718028
 20
655.6427834873
 30
0.0
 40
18.26632613524327
100
AcDbArc
 50
354.3467178002
 51
5.6532821998
  0
LINE
  5
22D
330
1F
100
AcDbEntity
  8
0
  6
CONTINUOUS
 62
     7
100
AcDbLine
 10
1203.4125955171
 20
763.0190823544
 30
0.0
 11
1199.4780929155
 21
763.0482867677
 31
0.0
  0
LINE
  5
22E
330
1F
100
AcDbEntity
  8
0
  6
CONTINUOUS
 62
     7
100
AcDbLine
 10
1199.4780929155
 20
763.0482867677
 30
0.0
 11
1199.4780929155
 21
758.5372796599
 31
0.0
  0
LINE
  5
22F
330
1F
100
AcDbEntity
  8
0
  6
CONTINUOUS
 62
     7
100
AcDbLine
 10
1203.4125955171
 20
758.5664840732
 30
0.0
 11
1199.4780929155
 21
758.5372796599
 31
0.0
  0
LINE
  5
230
330
1F
100
AcDbEntity
  8
0
  6
CONTINUOUS
 62
     7
100
AcDbLine
 10
1203.4125955171
 20
745.6190830414
 30
0.0
 11
1199.4780929155
 21
745.648285592
 31
0.0
  0
LINE
  5
231
330
1F
100
AcDbEntity
  8
0
  6
CONTINUOUS
 62
     7
100
AcDbLine
 10
1199.4780929155
 20
745.648285592
 30
0.0
 11
1199.4780929155
 21
741.1372794156
 31
0.0
  0
LINE
  5
232
330
1F
100
AcDbEntity
  8
0
  6
CONTINUOUS
 62
     7
100
AcDbLine
 10
1203.4125955171
 20
741.1664856915
 30
0.0
 11
1199.4780929155
 21
741.1372794156
 31
0.0
  0
LINE
  5
233
330
1F
100
AcDbEntity
  8
0
  6
CONTINUOUS
 62
     7
100
AcDbLine
 10
1195.2417076892
 20
835.4135772531
 30
0.0
 11
1176.5043915576
 21
854.1508933846
 31
0.0
  0
LINE
  5
234
330
1F
100
AcDbEntity
  8
0
  6
CONTINUOUS
 62
     7
100
AcDbLine
 10
1194.2214326329
 20
833.727998877
 30
0.0
 11
1195.2417076892
 21
835.4135772531
 31
0.0
  0
LINE
  5
235
330
1F
100
AcDbEntity
  8
0
  6
CONTINUOUS
 62
     7
100
AcDbLine
 10
1174.8186976976
 20
853.1305065696
 30
0.0
 11
1194.2213208742
 21
833.7278871183
 31
0.0
  0
LINE
  5
236
330
1F
100
AcDbEntity
  8
0
  6
CONTINUOUS
 62
     7
100
AcDbLine
 10
1174.8188094563
 20
853.1306183283
 30
0.0
 11
1176.5043915576
 21
854.1508933846
 31
0.0
  0
LINE
  5
237
330
1F
100
AcDbEntity
  8
0
  6
CONTINUOUS
 62
     7
100
AcDbLine
 10
1174.8188094563
 20
853.1306183283
 30
0.0
 11
1010.7483820385
 21
853.1306183283
 31
0.0
  0
LINE
  5
238
330
1F
100
AcDbEntity
  8
0
  6
CONTINUOUS
 62
     7
100
AcDbLine
 10
1010.7483820385
 20
853.1306183283
 30
0.0
 11
1009.0627999372
 21
854.1508933846
 31
0.0
  0
LINE
  5
239
330
1F
100
AcDbEntity
  8
0
  6
CONTINUOUS
 62
     7
100
AcDbLine
 10
1009.0627999372
 20
854.1508933846
 30
0.0
 11
1176.5043915576
 21
854.1508933846
 31
0.0
  0
LINE
  5
23A
330
1F
100
AcDbEntity
  8
0
  6
CONTINUOUS
 62
     7
100
AcDbLine
 10
991.3458706207
 20
833.7278871183
 30
0.0
 11
1010.7484937973
 21
853.1305065696
 31
0.0
  0
LINE
  5
23B
330
1F
100
AcDbEntity
  8
0
  6
CONTINUOUS
 62
     7
100
AcDbLine
 10
991.345758862
 20
833.727998877
 30
0.0
 11
990.3254838056
 21
835.4135772531
 31
0.0
  0
LINE
  5
23C
330
1F
100
AcDbEntity
  8
0
  6
CONTINUOUS
 62
     7
100
AcDbLine
 10
1009.0627999372
 20
854.1508933846
 30
0.0
 11
990.3254838056
 21
835.4135772531
 31
0.0
  0
LINE
  5
23D
330
1F
100
AcDbEntity
  8
0
  6
CONTINUOUS
 62
     7
100
AcDbLine
 10
990.3254838056
 20
835.4135772531
 30
0.0
 11
990.3254838056
 21
668.6719900314
 31
0.0
  0
LINE
  5
23E
330
1F
100
AcDbEntity
  8
0
  6
CONTINUOUS
 62
     7
100
AcDbLine
 10
991.345758862
 20
833.727998877
 30
0.0
 11
991.345758862
 21
670.3575721328
 31
0.0
  0
LINE
  5
23F
330
1F
100
AcDbEntity
  8
0
  6
CONTINUOUS
 62
     7
100
AcDbLine
 10
991.345758862
 20
670.3575721328
 30
0.0
 11
990.3254838056
 21
668.6719900314
 31
0.0
  0
LINE
  5
240
330
1F
100
AcDbEntity
  8
0
  6
CONTINUOUS
 62
     7
100
AcDbLine
 10
1194.2214326329
 20
670.3575721328
 30
0.0
 11
1194.2214326329
 21
833.727998877
 31
0.0
  0
LINE
  5
241
330
1F
100
AcDbEntity
  8
0
  6
CONTINUOUS
 62
     7
100
AcDbLine
 10
1195.2417076892
 20
668.6719900314
 30
0.0
 11
1195.2417076892
 21
835.4135772531
 31
0.0
  0
LINE
  5
242
330
1F
100
AcDbEntity
  8
0
  6
CONTINUOUS
 62
     7
100
AcDbLine
 10
1194.2214326329
 20
670.3575721328
 30
0.0
 11
1195.2417076892
 21
668.6719900314
 31
0.0
  0
LINE
  5
243
330
1F
100
AcDbEntity
  8
0
  6
CONTINUOUS
 62
     7
100
AcDbLine
 10
1010.7484937973
 20
650.9550681655
 30
0.0
 11
991.3458706207
 21
670.3576838915
 31
0.0
  0
LINE
  5
244
330
1F
100
AcDbEntity
  8
0
  6
CONTINUOUS
 62
     7
100
AcDbLine
 10
1010.7483820385
 20
650.9549489562
 30
0.0
 11
1009.1807500786
 21
650.0060728137
 31
0.0
  0
LINE
  5
245
330
1F
100
AcDbEntity
  8
0
  6
CONTINUOUS
 62
     7
100
AcDbLine
 10
990.3254838056
 20
668.6719900314
 30
0.0
 11
1008.9914084739
 21
650.0060728137
 31
0.0
  0
LINE
  5
246
330
1F
100
AcDbEntity
  8
0
  6
CONTINUOUS
 62
     7
100
AcDbLine
 10
1176.5757830209
 20
650.0060728137
 30
0.0
 11
1195.2417076892
 21
668.6719900314
 31
0.0
  0
LINE
  5
247
330
1F
100
AcDbEntity
  8
0
  6
CONTINUOUS
 62
     7
100
AcDbLine
 10
1174.8188094563
 20
650.9549489562
 30
0.0
 11
1176.3864414162
 21
650.0060728137
 31
0.0
  0
LINE
  5
248
330
1F
100
AcDbEntity
  8
0
  6
CONTINUOUS
 62
     7
100
AcDbLine
 10
1194.2213208742
 20
670.3576838915
 30
0.0
 11
1174.8186976976
 21
650.9550681655
 31
0.0
  0
CIRCLE
  5
249
330
1F
100
AcDbEntity
  8
0
  6
CONTINUOUS
 62
     7
100
AcDbCircle
 10
1190.4135957474
 20
849.1527835052
 30
0.0
 40
3.500000000001705
  0
CIRCLE
  5
24A
330
1F
100
AcDbEntity
  8
0
  6
CONTINUOUS
 62
     7
100
AcDbCircle
 10
995.1535957474
 20
654.9327835052
 30
0.0
 40
3.500000000004547
  0
CIRCLE
  5
24B
330
1F
100
AcDbEntity
  8
0
  6
CONTINUOUS
 62
     7
100
AcDbCircle
 10
1190.4135957474
 20
654.9327835052
 30
0.0
 40
3.500000000004547
  0
CIRCLE
  5
24C
330
1F
100
AcDbEntity
  8
0
  6
CONTINUOUS
 62
     7
100
AcDbCircle
 10
995.1535957474
 20
849.1527835052
 30
0.0
 40
3.500000000001705
  0
LINE
  5
24D
330
1F
100
AcDbEntity
  8
0
  6
CONTINUOUS
 62
     7
100
AcDbLine
 10
1008.9914084739
 20
650.0060728137
 30
0.0
 11
1176.5757830209
 21
650.0060728137
 31
0.0
  0
CIRCLE
  5
24E
330
1F
100
AcDbEntity
  8
0
  6
CONTINUOUS
 62
     7
100
AcDbCircle
 10
1190.4135957474
 20
849.1527835052
 30
0.0
 40
3.00946318591059
  0
CIRCLE
  5
24F
330
1F
100
AcDbEntity
  8
0
  6
CONTINUOUS
 62
     7
100
AcDbCircle
 10
995.1535957474
 20
654.9327835052
 30
0.0
 40
3.009463185913546
  0
CIRCLE
  5
250
330
1F
100
AcDbEntity
  8
0
  6
CONTINUOUS
 62
     7
100
AcDbCircle
 10
995.1535957474
 20
849.1527835052
 30
0.0
 40
3.00946318591059
  0
CIRCLE
  5
251
330
1F
100
AcDbEntity
  8
0
  6
CONTINUOUS
 62
     7
100
AcDbCircle
 10
1190.4135957474
 20
654.9327835052
 30
0.0
 40
3.009463185913546
  0
LINE
  5
252
330
1F
100
AcDbEntity
  8
0
  6
CONTINUOUS
 62
     7
100
AcDbLine
 10
1174.8188094563
 20
650.9549489562
 30
0.0
 11
1010.7483820385
 21
650.9549489562
 31
0.0
  0
CIRCLE
  5
253
330
1F
100
AcDbEntity
  8
0
  6
CONTINUOUS
 62
     7
100
AcDbCircle
 10
1172.2835957474
 20
831.5427835052
 30
0.0
 40
7.360359480573379
  0
CIRCLE
  5
254
330
1F
100
AcDbEntity
  8
0
  6
CONTINUOUS
 62
     7
100
AcDbCircle
 10
1172.2835957474
 20
831.5427835052
 30
0.0
 40
3.499999999997044
  0
CIRCLE
  5
255
330
1F
100
AcDbEntity
  8
0
  6
CONTINUOUS
 62
     7
100
AcDbCircle
 10
1172.2835957474
 20
831.5427835052
 30
0.0
 40
2.800731880563717
  0
LWPOLYLINE
  5
256
330
1F
100
AcDbEntity
  8
0
  6
CONTINUOUS
 62
     7
100
AcDbPolyline
 90
        3
 70
   128
 43
0.0
 10
1020.6716389722
 20
832.8338360731
 10
1020.5882967777
 20
832.8669837062
 10
1020.5225752062
 20
832.8931575958
  0
ARC
  5
257
330
1F
100
AcDbEntity
  8
0
  6
CONTINUOUS
 62
     7
100
AcDbCircle
 10
1013.2835957474
 20
831.5427835052
 30
0.0
 40
7.499999999999336
100
AcDbArc
 50
175.4668918349
 51
9.91229553
  0
LWPOLYLINE
  5
258
330
1F
100
AcDbEntity
  8
0
  6
CONTINUOUS
 62
     7
100
AcDbPolyline
 90
        3
 70
   128
 43
0.0
 10
1005.8070601291
 20
832.1355453078
 10
1005.8918328351
 20
832.2313001697
 10
1005.959305293
 20
832.3050683682
  0
LWPOLYLINE
  5
259
330
1F
100
AcDbEntity
  8
0
  6
CONTINUOUS
 62
     7
100
AcDbPolyline
 90
        3
 70
   128
 43
0.0
 10
1006.237182147
 20
833.6815482323
 10
1006.0491369433
 20
832.9171298389
 10
1005.959305293
 20
832.3050683682
  0
LWPOLYLINE
  5
25A
330
1F
100
AcDbEntity
  8
0
  6
CONTINUOUS
 62
     7
100
AcDbPolyline
 90
        3
 70
   128
 43
0.0
 10
1006.133879847
 20
833.8080851678
 10
1006.1916367478
 20
833.7373828833
 10
1006.237182147
 20
833.6815482323
  0
ARC
  5
25B
330
1F
100
AcDbEntity
  8
0
  6
CONTINUOUS
 62
     7
100
AcDbCircle
 10
1013.2835957474
 20
831.5427835052
 30
0.0
 40
7.499999999999074
100
AcDbArc
 50
113.486192938
 51
162.4198236014
  0
LWPOLYLINE
  5
25C
330
1F
100
AcDbEntity
  8
0
  6
CONTINUOUS
 62
     7
100
AcDbPolyline
 90
        3
 70
   128
 43
0.0
 10
1010.2946342296
 20
838.4214548711
 10
1010.3681863613
 20
838.3701203708
 10
1010.426211483
 20
838.3296562676
  0
ARC
  5
25D
330
1F
100
AcDbEntity
  8
0
  6
CONTINUOUS
 62
     7
100
AcDbCircle
 10
1013.2835957474
 20
831.5427835052
 30
0.0
 40
7.363850493559828
100
AcDbArc
 50
10.5666282867
 51
112.8318601813
  0
CIRCLE
  5
25E
330
1F
100
AcDbEntity
  8
0
  6
CONTINUOUS
 62
     7
100
AcDbCircle
 10
1013.2835957474
 20
831.5427835052
 30
0.0
 40
7.360359480573379
  0
CIRCLE
  5
25F
330
1F
100
AcDbEntity
  8
0
  6
CONTINUOUS
 62
     7
100
AcDbCircle
 10
1013.2835957474
 20
831.5427835052
 30
0.0
 40
3.499999999997044
  0
LWPOLYLINE
  5
260
330
1F
100
AcDbEntity
  8
0
  6
CONTINUOUS
 62
     7
100
AcDbPolyline
 90
        3
 70
   128
 43
0.0
 10
1164.8955525226
 20
671.2517312114
 10
1164.9788947172
 20
671.2185835783
 10
1165.0446162886
 20
671.1924096887
  0
ARC
  5
261
330
1F
100
AcDbEntity
  8
0
  6
CONTINUOUS
 62
     7
100
AcDbCircle
 10
1172.2835957474
 20
672.5427835052
 30
0.0
 40
7.499999999999755
100
AcDbArc
 50
355.4668918349
 51
189.91229553
  0
LWPOLYLINE
  5
262
330
1F
100
AcDbEntity
  8
0
  6
CONTINUOUS
 62
     7
100
AcDbPolyline
 90
        3
 70
   128
 43
0.0
 10
1179.7601313657
 20
671.9500219767
 10
1179.6753586597
 20
671.8542671148
 10
1179.6078862018
 20
671.7804989163
  0
LWPOLYLINE
  5
263
330
1F
100
AcDbEntity
  8
0
  6
CONTINUOUS
 62
     7
100
AcDbPolyline
 90
        3
 70
   128
 43
0.0
 10
1179.3300093479
 20
670.4040190522
 10
1179.5180545516
 20
671.1684411709
 10
1179.6078862018
 20
671.7804989163
  0
LWPOLYLINE
  5
264
330
1F
100
AcDbEntity
  8
0
  6
CONTINUOUS
 62
     7
100
AcDbPolyline
 90
        3
 70
   128
 43
0.0
 10
1179.4333116478
 20
670.2774858419
 10
1179.3755547471
 20
670.3481844012
 10
1179.3300093479
 20
670.4040190522
  0
ARC
  5
265
330
1F
100
AcDbEntity
  8
0
  6
CONTINUOUS
 62
     7
100
AcDbCircle
 10
1172.2835957474
 20
672.5427835052
 30
0.0
 40
7.499999999999838
100
AcDbArc
 50
293.486192938
 51
342.4198236013
  0
LWPOLYLINE
  5
266
330
1F
100
AcDbEntity
  8
0
  6
CONTINUOUS
 62
     7
100
AcDbPolyline
 90
        3
 70
   128
 43
0.0
 10
1175.2725572652
 20
665.6641161387
 10
1175.1990051336
 20
665.7154431884
 10
1175.1409800119
 20
665.7559072916
  0
ARC
  5
267
330
1F
100
AcDbEntity
  8
0
  6
CONTINUOUS
 62
     7
100
AcDbCircle
 10
1172.2835957474
 20
672.5427835052
 30
0.0
 40
7.363850493560354
100
AcDbArc
 50
190.5666282867
 51
292.8318601813
  0
CIRCLE
  5
268
330
1F
100
AcDbEntity
  8
0
  6
CONTINUOUS
 62
     7
100
AcDbCircle
 10
1172.2835957474
 20
672.5427835052
 30
0.0
 40
7.360359480574402
  0
CIRCLE
  5
269
330
1F
100
AcDbEntity
  8
0
  6
CONTINUOUS
 62
     7
100
AcDbCircle
 10
1013.2835957474
 20
672.5427835052
 30
0.0
 40
7.360359480574402
  0
CIRCLE
  5
26A
330
1F
100
AcDbEntity
  8
0
  6
CONTINUOUS
 62
     7
100
AcDbCircle
 10
1013.2835957474
 20
672.5427835052
 30
0.0
 40
3.499999999999886
  0
CIRCLE
  5
26B
330
1F
100
AcDbEntity
  8
0
  6
CONTINUOUS
 62
     7
100
AcDbCircle
 10
1013.2835957474
 20
672.5427835052
 30
0.0
 40
2.800731880566559
  0
CIRCLE
  5
26C
330
1F
100
AcDbEntity
  8
0
  6
CONTINUOUS
 62
     7
100
AcDbCircle
 10
1172.2835957474
 20
672.5427835052
 30
0.0
 40
3.499999999999886
  0
CIRCLE
  5
26D
330
1F
100
AcDbEntity
  8
0
  6
CONTINUOUS
 62
     7
100
AcDbCircle
 10
1013.2835957474
 20
831.5427835052
 30
0.0
 40
2.800731880563717
  0
ARC
  5
26E
330
1F
100
AcDbEntity
  8
0
  6
CONTINUOUS
 62
     7
100
AcDbCircle
 10
1172.2835957474
 20
831.5427835052
 30
0.0
 40
7.499999999999142
100
AcDbArc
 50
17.5801763987
 51
66.513807062
  0
LWPOLYLINE
  5
26F
330
1F
100
AcDbEntity
  8
0
  6
CONTINUOUS
 62
     7
100
AcDbPolyline
 90
        3
 70
   128
 43
0.0
 10
1179.4333116478
 20
833.8080851678
 10
1179.3755547471
 20
833.7373828833
 10
1179.3300093479
 20
833.6815482323
  0
LWPOLYLINE
  5
270
330
1F
100
AcDbEntity
  8
0
  6
CONTINUOUS
 62
     7
100
AcDbPolyline
 90
        3
 70
   128
 43
0.0
 10
1179.3300093479
 20
833.6815482323
 10
1179.5180545516
 20
832.9171298389
 10
1179.6078862018
 20
832.3050683682
  0
LWPOLYLINE
  5
271
330
1F
100
AcDbEntity
  8
0
  6
CONTINUOUS
 62
     7
100
AcDbPolyline
 90
        3
 70
   128
 43
0.0
 10
1179.7601313657
 20
832.1355453078
 10
1179.6753586597
 20
832.2313001697
 10
1179.6078862018
 20
832.3050683682
  0
ARC
  5
272
330
1F
100
AcDbEntity
  8
0
  6
CONTINUOUS
 62
     7
100
AcDbCircle
 10
1172.2835957474
 20
831.5427835052
 30
0.0
 40
7.499999999999146
100
AcDbArc
 50
170.08770447
 51
4.5331081651
  0
LWPOLYLINE
  5
273
330
1F
100
AcDbEntity
  8
0
  6
CONTINUOUS
 62
     7
100
AcDbPolyline
 90
        3
 70
   128
 43
0.0
 10
1164.8955525226
 20
832.8338360731
 10
1164.9788947172
 20
832.8669837062
 10
1165.0446162886
 20
832.8931575958
  0
ARC
  5
274
330
1F
100
AcDbEntity
  8
0
  6
CONTINUOUS
 62
     7
100
AcDbCircle
 10
1172.2835957474
 20
831.5427835052
 30
0.0
 40
7.363850493559828
100
AcDbArc
 50
67.1681398187
 51
169.4333717133
  0
LWPOLYLINE
  5
275
330
1F
100
AcDbEntity
  8
0
  6
CONTINUOUS
 62
     7
100
AcDbPolyline
 90
        3
 70
   128
 43
0.0
 10
1175.2725572652
 20
838.4214548711
 10
1175.1990051336
 20
838.3701203708
 10
1175.1409800119
 20
838.3296562676
  0
LWPOLYLINE
  5
276
330
1F
100
AcDbEntity
  8
0
  6
CONTINUOUS
 62
     7
100
AcDbPolyline
 90
        3
 70
   128
 43
0.0
 10
1010.2946342296
 20
665.6641161387
 10
1010.3681863613
 20
665.7154431884
 10
1010.426211483
 20
665.7559072916
  0
ARC
  5
277
330
1F
100
AcDbEntity
  8
0
  6
CONTINUOUS
 62
     7
100
AcDbCircle
 10
1013.2835957474
 20
672.5427835052
 30
0.0
 40
7.499999999999622
100
AcDbArc
 50
197.5801763987
 51
246.513807062
  0
LWPOLYLINE
  5
278
330
1F
100
AcDbEntity
  8
0
  6
CONTINUOUS
 62
     7
100
AcDbPolyline
 90
        3
 70
   128
 43
0.0
 10
1006.133879847
 20
670.2774858419
 10
1006.1916367478
 20
670.3481844012
 10
1006.237182147
 20
670.4040190522
  0
LWPOLYLINE
  5
279
330
1F
100
AcDbEntity
  8
0
  6
CONTINUOUS
 62
     7
100
AcDbPolyline
 90
        3
 70
   128
 43
0.0
 10
1006.237182147
 20
670.4040190522
 10
1006.0491369433
 20
671.1684411709
 10
1005.959305293
 20
671.7804989163
  0
LWPOLYLINE
  5
27A
330
1F
100
AcDbEntity
  8
0
  6
CONTINUOUS
 62
     7
100
AcDbPolyline
 90
        3
 70
   128
 43
0.0
 10
1005.8070601291
 20
671.9500219767
 10
1005.8918328351
 20
671.8542671148
 10
1005.959305293
 20
671.7804989163
  0
ARC
  5
27B
330
1F
100
AcDbEntity
  8
0
  6
CONTINUOUS
 62
     7
100
AcDbCircle
 10
1013.2835957474
 20
672.5427835052
 30
0.0
 40
7.499999999999636
100
AcDbArc
 50
350.08770447
 51
184.5331081651
  0
LWPOLYLINE
  5
27C
330
1F
100
AcDbEntity
  8
0
  6
CONTINUOUS
 62
     7
100
AcDbPolyline
 90
        3
 70
   128
 43
0.0
 10
1020.6716389722
 20
671.2517312114
 10
1020.5882967777
 20
671.2185835783
 10
1020.5225752062
 20
671.1924096887
  0
ARC
  5
27D
330
1F
100
AcDbEntity
  8
0
  6
CONTINUOUS
 62
     7
100
AcDbCircle
 10
1013.2835957474
 20
672.5427835052
 30
0.0
 40
7.363850493560514
100
AcDbArc
 50
247.1681398187
 51
349.4333717133
  0
CIRCLE
  5
27E
330
1F
100
AcDbEntity
  8
0
  6
CONTINUOUS
 62
     7
100
AcDbCircle
 10
1172.2835957474
 20
672.5427835052
 30
0.0
 40
2.800731880566559
  0
ARC
  5
27F
330
1F
100
AcDbEntity
  8
0
  6
CONTINUOUS
 62
     7
100
AcDbCircle
 10
1181.9902331774
 20
831.3144600469
 30
0.0
 40
0.299936712877734
100
AcDbArc
 50
228.0801473116
 51
314.5028348794
  0
LWPOLYLINE
  5
280
330
1F
100
AcDbEntity
  8
0
  6
CONTINUOUS
 62
     7
100
AcDbPolyline
 90
        3
 70
   128
 43
0.0
 10
1181.7903028197
 20
831.2717473452
 10
1181.7903624243
 20
831.1709186379
 10
1181.7898483343
 20
831.0912831072
  0
ARC
  5
281
330
1F
100
AcDbEntity
  8
0
  6
CONTINUOUS
 62
     7
100
AcDbCircle
 10
1181.9848368795
 20
831.5000628253
 30
0.0
 40
0.299952427711227
100
AcDbArc
 50
229.5676547855
 51
314.5004411998
  0
LWPOLYLINE
  5
282
330
1F
100
AcDbEntity
  8
0
  6
CONTINUOUS
 62
     7
100
AcDbPolyline
 90
        3
 70
   128
 43
0.0
 10
1182.1950779624
 20
831.2861232404
 10
1182.1983860201
 20
831.182481939
 10
1182.2004721827
 20
831.1005404536
  0
ARC
  5
283
330
1F
100
AcDbEntity
  8
0
  6
CONTINUOUS
 62
     7
100
AcDbCircle
 10
1003.5823546154
 20
831.5000628253
 30
0.0
 40
0.2999524277114866
100
AcDbArc
 50
225.4995588002
 51
310.4323452144
  0
LWPOLYLINE
  5
284
330
1F
100
AcDbEntity
  8
0
  6
CONTINUOUS
 62
     7
100
AcDbPolyline
 90
        3
 70
   128
 43
0.0
 10
1003.7768886752
 20
831.2717473452
 10
1003.7768290705
 20
831.1709186379
 10
1003.7773431606
 20
831.0912831072
  0
ARC
  5
285
330
1F
100
AcDbEntity
  8
0
  6
CONTINUOUS
 62
     7
100
AcDbCircle
 10
1003.5769583175
 20
831.3144600469
 30
0.0
 40
0.299936712877854
100
AcDbArc
 50
225.4971651206
 51
311.9198526884
  0
LWPOLYLINE
  5
286
330
1F
100
AcDbEntity
  8
0
  6
CONTINUOUS
 62
     7
100
AcDbPolyline
 90
        3
 70
   128
 43
0.0
 10
1003.3721135325
 20
831.2861232404
 10
1003.3688054747
 20
831.182481939
 10
1003.3667193121
 20
831.1005404536
  0
ARC
  5
287
330
1F
100
AcDbEntity
  8
0
  6
CONTINUOUS
 62
     7
100
AcDbCircle
 10
1181.9848350833
 20
672.5855093217
 30
0.0
 40
0.2999475615864737
100
AcDbArc
 50
45.4981642742
 51
130.4326864423
  0
LWPOLYLINE
  5
288
330
1F
100
AcDbEntity
  8
0
  6
CONTINUOUS
 62
     7
100
AcDbPolyline
 90
        3
 70
   128
 43
0.0
 10
1181.7903028197
 20
672.8138199393
 10
1181.7903624243
 20
672.9146486465
 10
1181.7898483343
 20
672.9942879025
  0
ARC
  5
289
330
1F
100
AcDbEntity
  8
0
  6
CONTINUOUS
 62
     7
100
AcDbCircle
 10
1181.9902351066
 20
672.7711030025
 30
0.0
 40
0.2999383811369474
100
AcDbArc
 50
45.4979950385
 51
131.9200618481
  0
LWPOLYLINE
  5
28A
330
1F
100
AcDbEntity
  8
0
  6
CONTINUOUS
 62
     7
100
AcDbPolyline
 90
        3
 70
   128
 43
0.0
 10
1182.1950779624
 20
672.7994403188
 10
1182.1983860201
 20
672.9030853455
 10
1182.2004721827
 20
672.9850268309
  0
ARC
  5
28B
330
1F
100
AcDbEntity
  8
0
  6
CONTINUOUS
 62
     7
100
AcDbCircle
 10
1003.5769563882
 20
672.7711030025
 30
0.0
 40
0.2999383811373672
100
AcDbArc
 50
48.0799381519
 51
134.5020049614
  0
LWPOLYLINE
  5
28C
330
1F
100
AcDbEntity
  8
0
  6
CONTINUOUS
 62
     7
100
AcDbPolyline
 90
        3
 70
   128
 43
0.0
 10
1003.7768886752
 20
672.8138199393
 10
1003.7768290705
 20
672.9146486465
 10
1003.7773431606
 20
672.994280452
  0
ARC
  5
28D
330
1F
100
AcDbEntity
  8
0
  6
CONTINUOUS
 62
     7
100
AcDbCircle
 10
1003.5823564116
 20
672.5855093217
 30
0.0
 40
0.2999475615859641
100
AcDbArc
 50
49.5673135575
 51
134.5018357258
  0
LWPOLYLINE
  5
28E
330
1F
100
AcDbEntity
  8
0
  6
CONTINUOUS
 62
     7
100
AcDbPolyline
 90
        3
 70
   128
 43
0.0
 10
1003.3721135325
 20
672.7994403188
 10
1003.3688054747
 20
672.9030853455
 10
1003.3667193121
 20
672.9850268309
  0
ARC
  5
28F
330
1F
100
AcDbEntity
  8
0
  6
CONTINUOUS
 62
     7
100
AcDbCircle
 10
1003.0614482052
 20
832.0119305498
 30
0.0
 40
0.2999308136943182
100
AcDbArc
 50
131.0809008841
 51
225.5052288064
  0
LWPOLYLINE
  5
290
330
1F
100
AcDbEntity
  8
0
  6
CONTINUOUS
 62
     7
100
AcDbPolyline
 90
        3
 70
   128
 43
0.0
 10
1002.851243443
 20
831.7979818527
 10
1002.7394772834
 20
831.8009136562
 10
1002.6522458858
 20
831.8026496415
  0
ARC
  5
291
330
1F
100
AcDbEntity
  8
0
  6
CONTINUOUS
 62
     7
100
AcDbCircle
 10
1002.8624682307
 20
832.0165930763
 30
0.0
 40
0.2999420404298135
100
AcDbArc
 50
132.5346914354
 51
225.502627256
  0
LWPOLYLINE
  5
292
330
1F
100
AcDbEntity
  8
0
  6
CONTINUOUS
 62
     7
100
AcDbPolyline
 90
        3
 70
   128
 43
0.0
 10
1002.8643639154
 20
832.2380168681
 10
1002.749379105
 20
832.2380950992
 10
1002.659703917
 20
832.2376145367
  0
ARC
  5
293
330
1F
100
AcDbEntity
  8
0
  6
CONTINUOUS
 62
     7
100
AcDbCircle
 10
1182.7047232642
 20
832.0165930763
 30
0.0
 40
0.2999420404297366
100
AcDbArc
 50
314.497372744
 51
47.4653085646
  0
LWPOLYLINE
  5
294
330
1F
100
AcDbEntity
  8
0
  6
CONTINUOUS
 62
     7
100
AcDbPolyline
 90
        3
 70
   128
 43
0.0
 10
1182.7159480519
 20
831.797985578
 10
1182.8277142114
 20
831.8009136562
 10
1182.914945609
 20
831.8026496415
  0
ARC
  5
295
330
1F
100
AcDbEntity
  8
0
  6
CONTINUOUS
 62
     7
100
AcDbCircle
 10
1182.5057432896
 20
832.0119305498
 30
0.0
 40
0.2999308136943182
100
AcDbArc
 50
314.4947711936
 51
48.9190991159
  0
LWPOLYLINE
  5
296
330
1F
100
AcDbEntity
  8
0
  6
CONTINUOUS
 62
     7
100
AcDbPolyline
 90
        3
 70
   128
 43
0.0
 10
1182.7028275794
 20
832.2380168681
 10
1182.8178123898
 20
832.2380950992
 10
1182.9074875779
 20
832.2376145367
  0
ARC
  5
297
330
1F
100
AcDbEntity
  8
0
  6
CONTINUOUS
 62
     7
100
AcDbCircle
 10
1182.5057398918
 20
672.0736386473
 30
0.0
 40
0.2999344881208681
100
AcDbArc
 50
311.0811500724
 51
45.5050085027
  0
LWPOLYLINE
  5
298
330
1F
100
AcDbEntity
  8
0
  6
CONTINUOUS
 62
     7
100
AcDbPolyline
 90
        3
 70
   128
 43
0.0
 10
1182.7159480519
 20
672.2875854318
 10
1182.8277142114
 20
672.284649903
 10
1182.914945609
 20
672.2829139177
  0
ARC
  5
299
330
1F
100
AcDbEntity
  8
0
  6
CONTINUOUS
 62
     7
100
AcDbCircle
 10
1182.7047205667
 20
672.0689760867
 30
0.0
 40
0.2999452482630744
100
AcDbArc
 50
312.5348285316
 51
45.5025069661
  0
LWPOLYLINE
  5
29A
330
1F
100
AcDbEntity
  8
0
  6
CONTINUOUS
 62
     7
100
AcDbPolyline
 90
        3
 70
   128
 43
0.0
 10
1182.7028275794
 20
671.8475541417
 10
1182.8178123898
 20
671.8474721853
 10
1182.9074875779
 20
671.8479490225
  0
ARC
  5
29B
330
1F
100
AcDbEntity
  8
0
  6
CONTINUOUS
 62
     7
100
AcDbCircle
 10
1002.8624709282
 20
672.0689760867
 30
0.0
 40
0.2999452482633134
100
AcDbArc
 50
134.4974930339
 51
227.4651714683
  0
LWPOLYLINE
  5
29C
330
1F
100
AcDbEntity
  8
0
  6
CONTINUOUS
 62
     7
100
AcDbPolyline
 90
        3
 70
   128
 43
0.0
 10
1002.851243443
 20
672.2875854318
 10
1002.7394772834
 20
672.284649903
 10
1002.6522458858
 20
672.2829213683
  0
ARC
  5
29D
330
1F
100
AcDbEntity
  8
0
  6
CONTINUOUS
 62
     7
100
AcDbCircle
 10
1003.061451603
 20
672.0736386473
 30
0.0
 40
0.2999344881206331
100
AcDbArc
 50
134.4949914973
 51
228.9188499276
  0
LWPOLYLINE
  5
29E
330
1F
100
AcDbEntity
  8
0
  6
CONTINUOUS
 62
     7
100
AcDbPolyline
 90
        3
 70
   128
 43
0.0
 10
1002.8643639154
 20
671.8475466911
 10
1002.749379105
 20
671.8474721853
 10
1002.659703917
 20
671.8479490225
  0
LINE
  5
29F
330
1F
100
AcDbEntity
  8
0
  6
CONTINUOUS
 62
     7
100
AcDbLine
 10
1002.6522458858
 20
831.8026496415
 30
0.0
 11
1003.3667193121
 21
831.1005404536
 31
0.0
  0
LINE
  5
2A0
330
1F
100
AcDbEntity
  8
0
  6
CONTINUOUS
 62
     7
100
AcDbLine
 10
1002.851243443
 20
831.797985578
 30
0.0
 11
1003.3721135325
 21
831.2861232404
 31
0.0
  0
LINE
  5
2A1
330
1F
100
AcDbEntity
  8
0
  6
CONTINUOUS
 62
     7
100
AcDbLine
 10
1182.914945609
 20
672.2829139177
 30
0.0
 11
1182.2004721827
 21
672.9850268309
 31
0.0
  0
LINE
  5
2A2
330
1F
100
AcDbEntity
  8
0
  6
CONTINUOUS
 62
     7
100
AcDbLine
 10
1182.7159480519
 20
672.2875854318
 30
0.0
 11
1182.1950779624
 21
672.7994403188
 31
0.0
  0
ARC
  5
2A3
330
1F
100
AcDbEntity
  8
0
  6
CONTINUOUS
 62
     7
100
AcDbCircle
 10
1178.7835957474
 20
676.3427835052
 30
0.0
 40
5.963850493972229
100
AcDbArc
 50
275.25688548
 51
311.0840323638
  0
ARC
  5
2A4
330
1F
100
AcDbEntity
  8
0
  6
CONTINUOUS
 62
     7
100
AcDbCircle
 10
1178.7835957474
 20
676.3427835052
 30
0.0
 40
4.636149506439788
100
AcDbArc
 50
280.2414189575
 51
310.4313046929
  0
ARC
  5
2A5
330
1F
100
AcDbEntity
  8
0
  6
CONTINUOUS
 62
     7
100
AcDbCircle
 10
1006.7835957474
 20
827.7427835052
 30
0.0
 40
6.099999999998088
100
AcDbArc
 50
96.1142013384
 51
132.5356023101
  0
ARC
  5
2A6
330
1F
100
AcDbEntity
  8
0
  6
CONTINUOUS
 62
     7
100
AcDbCircle
 10
1006.7835957474
 20
827.7427835052
 30
0.0
 40
5.963850493559841
100
AcDbArc
 50
95.25688548
 51
131.0840323637
  0
ARC
  5
2A7
330
1F
100
AcDbEntity
  8
0
  6
CONTINUOUS
 62
     7
100
AcDbCircle
 10
1006.7835957474
 20
827.7427835052
 30
0.0
 40
4.636149506716431
100
AcDbArc
 50
100.2414189575
 51
130.4313046929
  0
ARC
  5
2A8
330
1F
100
AcDbEntity
  8
0
  6
CONTINUOUS
 62
     7
100
AcDbCircle
 10
1178.7835957474
 20
676.3427835052
 30
0.0
 40
4.500000000254142
100
AcDbArc
 50
282.5333945081
 51
311.9171992586
  0
ARC
  5
2A9
330
1F
100
AcDbEntity
  8
0
  6
CONTINUOUS
 62
     7
100
AcDbCircle
 10
1016.7835957474
 20
838.0427835052
 30
0.0
 40
6.363850493560679
100
AcDbArc
 50
305.9821875685
 51
177.4163008995
  0
ARC
  5
2AA
330
1F
100
AcDbEntity
  8
0
  6
CONTINUOUS
 62
     7
100
AcDbCircle
 10
1016.7835957474
 20
838.0427835052
 30
0.0
 40
6.500000000000107
100
AcDbArc
 50
306.7382643539
 51
176.6602241141
  0
ARC
  5
2AB
330
1F
100
AcDbEntity
  8
0
  6
CONTINUOUS
 62
     7
100
AcDbCircle
 10
1006.7835957474
 20
827.7427835052
 30
0.0
 40
4.500000000253321
100
AcDbArc
 50
102.5333945081
 51
131.9171921372
  0
ARC
  5
2AC
330
1F
100
AcDbEntity
  8
0
  6
CONTINUOUS
 62
     7
100
AcDbCircle
 10
1178.7835957474
 20
827.7427835052
 30
0.0
 40
4.636149506439382
100
AcDbArc
 50
49.5686794119
 51
79.7585810425
  0
ARC
  5
2AD
330
1F
100
AcDbEntity
  8
0
  6
CONTINUOUS
 62
     7
100
AcDbCircle
 10
1178.7835957474
 20
827.7427835052
 30
0.0
 40
5.963850493971623
100
AcDbArc
 50
48.9159766366
 51
84.74311452
  0
LINE
  5
2AE
330
1F
100
AcDbEntity
  8
0
  6
CONTINUOUS
 62
     7
100
AcDbLine
 10
1182.7159480519
 20
831.797985578
 30
0.0
 11
1182.1950779624
 21
831.2861232404
 31
0.0
  0
ARC
  5
2AF
330
1F
100
AcDbEntity
  8
0
  6
CONTINUOUS
 62
     7
100
AcDbCircle
 10
1178.7835957474
 20
827.7427835052
 30
0.0
 40
4.500000000508567
100
AcDbArc
 50
48.0828093773
 51
77.4666054919
  0
ARC
  5
2B0
330
1F
100
AcDbEntity
  8
0
  6
CONTINUOUS
 62
     7
100
AcDbCircle
 10
1168.7835957474
 20
666.0427835052
 30
0.0
 40
6.363850493560142
100
AcDbArc
 50
125.9821875685
 51
357.4163008995
  0
ARC
  5
2B1
330
1F
100
AcDbEntity
  8
0
  6
CONTINUOUS
 62
     7
100
AcDbCircle
 10
1168.7835957474
 20
666.0427835052
 30
0.0
 40
6.499999999999582
100
AcDbArc
 50
126.7382643539
 51
356.6602241141
  0
ARC
  5
2B2
330
1F
100
AcDbEntity
  8
0
  6
CONTINUOUS
 62
     7
100
AcDbCircle
 10
1006.7835957474
 20
676.3427835052
 30
0.0
 40
4.636149506994158
100
AcDbArc
 50
229.568679741
 51
259.7585810425
  0
ARC
  5
2B3
330
1F
100
AcDbEntity
  8
0
  6
CONTINUOUS
 62
     7
100
AcDbCircle
 10
1006.7835957474
 20
676.3427835052
 30
0.0
 40
5.963850493560109
100
AcDbArc
 50
228.9159811983
 51
264.74311452
  0
LINE
  5
2B4
330
1F
100
AcDbEntity
  8
0
  6
CONTINUOUS
 62
     7
100
AcDbLine
 10
1002.851243443
 20
672.2875854318
 30
0.0
 11
1003.3721135325
 21
672.7994403188
 31
0.0
  0
ARC
  5
2B5
330
1F
100
AcDbEntity
  8
0
  6
CONTINUOUS
 62
     7
100
AcDbCircle
 10
1006.7835957474
 20
676.3427835052
 30
0.0
 40
6.10000000026
100
AcDbArc
 50
227.4643910823
 51
263.8857986616
  0
ARC
  5
2B6
330
1F
100
AcDbEntity
  8
0
  6
CONTINUOUS
 62
     7
100
AcDbCircle
 10
1016.7835957474
 20
666.0427835052
 30
0.0
 40
6.363850493560932
100
AcDbArc
 50
182.5836991005
 51
54.0178124315
  0
ARC
  5
2B7
330
1F
100
AcDbEntity
  8
0
  6
CONTINUOUS
 62
     7
100
AcDbCircle
 10
1016.7835957474
 20
666.0427835052
 30
0.0
 40
6.499999999999224
100
AcDbArc
 50
183.3397758859
 51
53.2617356461
  0
ARC
  5
2B8
330
1F
100
AcDbEntity
  8
0
  6
CONTINUOUS
 62
     7
100
AcDbCircle
 10
1178.7835957474
 20
676.3427835052
 30
0.0
 40
6.100000000259231
100
AcDbArc
 50
276.1142013384
 51
312.5356023103
  0
ARC
  5
2B9
330
1F
100
AcDbEntity
  8
0
  6
CONTINUOUS
 62
     7
100
AcDbCircle
 10
1168.7835957474
 20
838.0427835052
 30
0.0
 40
6.363850493560787
100
AcDbArc
 50
2.5836991005
 51
234.0178124315
  0
ARC
  5
2BA
330
1F
100
AcDbEntity
  8
0
  6
CONTINUOUS
 62
     7
100
AcDbCircle
 10
1168.7835957474
 20
838.0427835052
 30
0.0
 40
6.500000000000205
100
AcDbArc
 50
3.3397758859
 51
233.2617356461
  0
ARC
  5
2BB
330
1F
100
AcDbEntity
  8
0
  6
CONTINUOUS
 62
     7
100
AcDbCircle
 10
1178.7835957474
 20
827.7427835052
 30
0.0
 40
6.099999999999344
100
AcDbArc
 50
47.4643970449
 51
83.8857986616
  0
LINE
  5
2BC
330
1F
100
AcDbEntity
  8
0
  6
CONTINUOUS
 62
     7
100
AcDbLine
 10
1182.914945609
 20
831.8026496415
 30
0.0
 11
1182.2004721827
 21
831.1005404536
 31
0.0
  0
ARC
  5
2BD
330
1F
100
AcDbEntity
  8
0
  6
CONTINUOUS
 62
     7
100
AcDbCircle
 10
1006.7835957474
 20
676.3427835052
 30
0.0
 40
4.499999999999555
100
AcDbArc
 50
228.0828089208
 51
257.4666054919
  0
LINE
  5
2BE
330
1F
100
AcDbEntity
  8
0
  6
CONTINUOUS
 62
     7
100
AcDbLine
 10
1002.6522458858
 20
672.2829213683
 30
0.0
 11
1003.3667193121
 21
672.9850268309
 31
0.0
  0
LINE
  5
2BF
330
1F
100
AcDbEntity
  8
0
  6
CONTINUOUS
 62
     7
100
AcDbLine
 10
1010.9555230803
 20
651.4548978154
 30
0.0
 11
991.8457151718
 21
670.564705724
 31
0.0
  0
ARC
  5
2C0
330
1F
100
AcDbEntity
  8
0
  6
CONTINUOUS
 62
     7
100
AcDbCircle
 10
982.6688691583
 20
662.8767561268
 30
0.0
 40
30.50563287964766
100
AcDbArc
 50
336.9955363328
 51
338.0116532171
  0
ARC
  5
2C1
330
1F
100
AcDbEntity
  8
0
  6
CONTINUOUS
 62
     7
100
AcDbCircle
 10
1017.3604364932
 20
608.2731374551
 30
0.0
 40
67.31448938754968
100
AcDbArc
 50
112.2740810373
 51
112.7347041725
  0
ARC
  5
2C2
330
1F
100
AcDbEntity
  8
0
  6
CONTINUOUS
 62
     7
100
AcDbCircle
 10
1147.5111436231
 20
639.9341651654
 30
0.0
 40
29.44767774824141
100
AcDbArc
 50
21.9780082208
 51
23.0308812338
  0
LINE
  5
2C3
330
1F
100
AcDbEntity
  8
0
  6
CONTINUOUS
 62
     7
100
AcDbLine
 10
1174.6116684145
 20
651.4548978154
 30
0.0
 11
1010.9555230803
 21
651.4548978154
 31
0.0
  0
ARC
  5
2C4
330
1F
100
AcDbEntity
  8
0
  6
CONTINUOUS
 62
     7
100
AcDbCircle
 10
965.4248758275
 20
770.4262779134
 30
0.0
 40
68.40311957193146
100
AcDbArc
 50
67.2785142071
 51
67.7316943463
  0
LINE
  5
2C5
330
1F
100
AcDbEntity
  8
0
  6
CONTINUOUS
 62
     7
100
AcDbLine
 10
991.8457151718
 20
833.5208578352
 30
0.0
 11
991.8457151718
 21
670.564705724
 31
0.0
  0
ARC
  5
2C6
330
1F
100
AcDbEntity
  8
0
  6
CONTINUOUS
 62
     7
100
AcDbCircle
 10
1205.2535485794
 20
806.3920742933
 30
0.0
 40
29.47812047923258
100
AcDbArc
 50
111.9778802454
 51
113.0296765095
  0
LINE
  5
2C7
330
1F
100
AcDbEntity
  8
0
  6
CONTINUOUS
 62
     7
100
AcDbLine
 10
1174.6116684145
 20
852.6306694691
 30
0.0
 11
1193.7214763231
 21
833.5208578352
 31
0.0
  0
ARC
  5
2C8
330
1F
100
AcDbEntity
  8
0
  6
CONTINUOUS
 62
     7
100
AcDbCircle
 10
1112.2964936654
 20
878.7287499647
 30
0.0
 40
67.55953529716932
100
AcDbArc
 50
337.275684868
 51
337.7345236854
  0
LINE
  5
2C9
330
1F
100
AcDbEntity
  8
0
  6
CONTINUOUS
 62
     7
100
AcDbLine
 10
1174.6116684145
 20
852.6306694691
 30
0.0
 11
1010.9555230803
 21
852.6306694691
 31
0.0
  0
ARC
  5
2CA
330
1F
100
AcDbEntity
  8
0
  6
CONTINUOUS
 62
     7
100
AcDbCircle
 10
1037.9844523631
 20
864.1215759763
 30
0.0
 40
29.37012002919071
100
AcDbArc
 50
201.9763093592
 51
203.0319762025
  0
LINE
  5
2CB
330
1F
100
AcDbEntity
  8
0
  6
CONTINUOUS
 62
     7
100
AcDbLine
 10
991.8457151718
 20
833.5208578352
 30
0.0
 11
1010.9555230803
 21
852.6306694691
 31
0.0
  0
ARC
  5
2CC
330
1F
100
AcDbEntity
  8
0
  6
CONTINUOUS
 62
     7
100
AcDbCircle
 10
1220.2013850092
 20
733.8019275929
 30
0.0
 40
68.55750720176418
100
AcDbArc
 50
247.2790244778
 51
247.7311840756
  0
LINE
  5
2CD
330
1F
100
AcDbEntity
  8
0
  6
CONTINUOUS
 62
     7
100
AcDbLine
 10
1193.7214763231
 20
670.564705724
 30
0.0
 11
1193.7214763231
 21
833.5208578352
 31
0.0
  0
LINE
  5
2CE
330
1F
100
AcDbEntity
  8
0
  6
CONTINUOUS
 62
     7
100
AcDbLine
 10
1193.7214763231
 20
670.564705724
 30
0.0
 11
1174.6116684145
 21
651.4548978154
 31
0.0
  0
LINE
  5
2CF
330
1F
100
AcDbEntity
  8
0
  6
CONTINUOUS
 62
     7
100
AcDbLine
 10
1073.7835963584
 20
802.3427838777
 30
0.0
 11
1075.2460950381
 21
802.3427838777
 31
0.0
  0
LINE
  5
2D0
330
1F
100
AcDbEntity
  8
0
  6
CONTINUOUS
 62
     7
100
AcDbLine
 10
1073.7835963584
 20
811.3427853529
 30
0.0
 11
1073.7835963584
 21
802.3427838777
 31
0.0
  0
LINE
  5
2D1
330
1F
100
AcDbEntity
  8
0
  6
CONTINUOUS
 62
     7
100
AcDbLine
 10
1082.5585958875
 20
811.3427853529
 30
0.0
 11
1073.7835963584
 21
811.3427853529
 31
0.0
  0
LINE
  5
2D2
330
1F
100
AcDbEntity
  8
0
  6
CONTINUOUS
 62
     7
100
AcDbLine
 10
1082.5585958875
 20
810.1938462202
 30
0.0
 11
1082.5585958875
 21
811.3427853529
 31
0.0
  0
LINE
  5
2D3
330
1F
100
AcDbEntity
  8
0
  6
CONTINUOUS
 62
     7
100
AcDbLine
 10
1075.2460950381
 20
810.1938462202
 30
0.0
 11
1082.5585958875
 21
810.1938462202
 31
0.0
  0
LINE
  5
2D4
330
1F
100
AcDbEntity
  8
0
  6
CONTINUOUS
 62
     7
100
AcDbLine
 10
1075.2460950381
 20
807.7044861708
 30
0.0
 11
1075.2460950381
 21
810.1938462202
 31
0.0
  0
LINE
  5
2D5
330
1F
100
AcDbEntity
  8
0
  6
CONTINUOUS
 62
     7
100
AcDbLine
 10
1081.5835961468
 20
807.7044861708
 30
0.0
 11
1075.2460950381
 21
807.7044861708
 31
0.0
  0
LINE
  5
2D6
330
1F
100
AcDbEntity
  8
0
  6
CONTINUOUS
 62
     7
100
AcDbLine
 10
1081.5835961468
 20
806.5555489008
 30
0.0
 11
1081.5835961468
 21
807.7044861708
 31
0.0
  0
LINE
  5
2D7
330
1F
100
AcDbEntity
  8
0
  6
CONTINUOUS
 62
     7
100
AcDbLine
 10
1075.2460950381
 20
806.5555489008
 30
0.0
 11
1081.5835961468
 21
806.5555489008
 31
0.0
  0
LINE
  5
2D8
330
1F
100
AcDbEntity
  8
0
  6
CONTINUOUS
 62
     7
100
AcDbLine
 10
1075.2460950381
 20
802.3427838777
 30
0.0
 11
1075.2460950381
 21
806.5555489008
 31
0.0
  0
LINE
  5
2D9
330
1F
100
AcDbEntity
  8
0
  6
CONTINUOUS
 62
     7
100
AcDbLine
 10
1084.5085963003
 20
802.3427838777
 30
0.0
 11
1085.9710954457
 21
802.3427838777
 31
0.0
  0
LINE
  5
2DA
330
1F
100
AcDbEntity
  8
0
  6
CONTINUOUS
 62
     7
100
AcDbLine
 10
1084.5085963003
 20
811.3427853529
 30
0.0
 11
1084.5085963003
 21
802.3427838777
 31
0.0
  0
LINE
  5
2DB
330
1F
100
AcDbEntity
  8
0
  6
CONTINUOUS
 62
     7
100
AcDbLine
 10
1085.9710954457
 20
811.3427853529
 30
0.0
 11
1084.5085963003
 21
811.3427853529
 31
0.0
  0
LINE
  5
2DC
330
1F
100
AcDbEntity
  8
0
  6
CONTINUOUS
 62
     7
100
AcDbLine
 10
1085.9710954457
 20
802.3427838777
 30
0.0
 11
1085.9710954457
 21
811.3427853529
 31
0.0
  0
LINE
  5
2DD
330
1F
100
AcDbEntity
  8
0
  6
CONTINUOUS
 62
     7
100
AcDbLine
 10
1095.9648462805
 20
806.7470381354
 30
0.0
 11
1095.477345246
 21
806.9385273699
 31
0.0
  0
LINE
  5
2DE
330
1F
100
AcDbEntity
  8
0
  6
CONTINUOUS
 62
     7
100
AcDbLine
 10
1096.6960963189
 20
805.9810811971
 30
0.0
 11
1095.9648462805
 21
806.7470381354
 31
0.0
  0
LINE
  5
2DF
330
1F
100
AcDbEntity
  8
0
  6
CONTINUOUS
 62
     7
100
AcDbLine
 10
1096.9398453227
 20
805.4066134934
 30
0.0
 11
1096.6960963189
 21
805.9810811971
 31
0.0
  0
LINE
  5
2E0
330
1F
100
AcDbEntity
  8
0
  6
CONTINUOUS
 62
     7
100
AcDbLine
 10
1096.9398453227
 20
804.4491673206
 30
0.0
 11
1096.9398453227
 21
805.4066134934
 31
0.0
  0
LINE
  5
2E1
330
1F
100
AcDbEntity
  8
0
  6
CONTINUOUS
 62
     7
100
AcDbLine
 10
1096.6960963189
 20
803.8746977542
 30
0.0
 11
1096.9398453227
 21
804.4491673206
 31
0.0
  0
LINE
  5
2E2
330
1F
100
AcDbEntity
  8
0
  6
CONTINUOUS
 62
     7
100
AcDbLine
 10
1095.9648462805
 20
803.108740816
 30
0.0
 11
1096.6960963189
 21
803.8746977542
 31
0.0
  0
LINE
  5
2E3
330
1F
100
AcDbEntity
  8
0
  6
CONTINUOUS
 62
     7
100
AcDbLine
 10
1094.9898458413
 20
802.5342731123
 30
0.0
 11
1095.9648462805
 21
803.108740816
 31
0.0
  0
LINE
  5
2E4
330
1F
100
AcDbEntity
  8
0
  6
CONTINUOUS
 62
     7
100
AcDbLine
 10
1093.7710961654
 20
802.3427838777
 30
0.0
 11
1094.9898458413
 21
802.5342731123
 31
0.0
  0
LINE
  5
2E5
330
1F
100
AcDbEntity
  8
0
  6
CONTINUOUS
 62
     7
100
AcDbLine
 10
1087.9210963241
 20
802.3427838777
 30
0.0
 11
1093.7710961654
 21
802.3427838777
 31
0.0
  0
LINE
  5
2E6
330
1F
100
AcDbEntity
  8
0
  6
CONTINUOUS
 62
     7
100
AcDbLine
 10
1087.9210963241
 20
811.3427853529
 30
0.0
 11
1087.9210963241
 21
802.3427838777
 31
0.0
  0
LINE
  5
2E7
330
1F
100
AcDbEntity
  8
0
  6
CONTINUOUS
 62
     7
100
AcDbLine
 10
1093.7710961654
 20
811.3427853529
 30
0.0
 11
1087.9210963241
 21
811.3427853529
 31
0.0
  0
LINE
  5
2E8
330
1F
100
AcDbEntity
  8
0
  6
CONTINUOUS
 62
     7
100
AcDbLine
 10
1094.9898458413
 20
811.1512942557
 30
0.0
 11
1093.7710961654
 21
811.3427853529
 31
0.0
  0
LINE
  5
2E9
330
1F
100
AcDbEntity
  8
0
  6
CONTINUOUS
 62
     7
100
AcDbLine
 10
1096.6960963189
 20
809.8108677511
 30
0.0
 11
1095.9648462805
 21
810.5768246893
 31
0.0
  0
LINE
  5
2EA
330
1F
100
AcDbEntity
  8
0
  6
CONTINUOUS
 62
     7
100
AcDbLine
 10
1096.9398453227
 20
809.23640191
 30
0.0
 11
1096.6960963189
 21
809.8108677511
 31
0.0
  0
LINE
  5
2EB
330
1F
100
AcDbEntity
  8
0
  6
CONTINUOUS
 62
     7
100
AcDbLine
 10
1096.9398453227
 20
808.4704431091
 30
0.0
 11
1096.9398453227
 21
809.23640191
 31
0.0
  0
LINE
  5
2EC
330
1F
100
AcDbEntity
  8
0
  6
CONTINUOUS
 62
     7
100
AcDbLine
 10
1096.6960963189
 20
807.8959754054
 30
0.0
 11
1096.9398453227
 21
808.4704431091
 31
0.0
  0
LINE
  5
2ED
330
1F
100
AcDbEntity
  8
0
  6
CONTINUOUS
 62
     7
100
AcDbLine
 10
1095.9648462805
 20
807.1300166045
 30
0.0
 11
1096.6960963189
 21
807.8959754054
 31
0.0
  0
LINE
  5
2EE
330
1F
100
AcDbEntity
  8
0
  6
CONTINUOUS
 62
     7
100
AcDbLine
 10
1095.477345246
 20
806.9385273699
 30
0.0
 11
1095.9648462805
 21
807.1300166045
 31
0.0
  0
LINE
  5
2EF
330
1F
100
AcDbEntity
  8
0
  6
CONTINUOUS
 62
     7
100
AcDbLine
 10
1089.383596168
 20
807.5129969363
 30
0.0
 11
1089.383596168
 21
810.1938462202
 31
0.0
  0
LINE
  5
2F0
330
1F
100
AcDbEntity
  8
0
  6
CONTINUOUS
 62
     7
100
AcDbLine
 10
1094.0148452857
 20
807.5129969363
 30
0.0
 11
1089.383596168
 21
807.5129969363
 31
0.0
  0
LINE
  5
2F1
330
1F
100
AcDbEntity
  8
0
  6
CONTINUOUS
 62
     7
100
AcDbLine
 10
1094.7460952076
 20
807.7044861708
 30
0.0
 11
1094.0148452857
 21
807.5129969363
 31
0.0
  0
LINE
  5
2F2
330
1F
100
AcDbEntity
  8
0
  6
CONTINUOUS
 62
     7
100
AcDbLine
 10
1095.2335962421
 20
808.08746464
 30
0.0
 11
1094.7460952076
 21
807.7044861708
 31
0.0
  0
LINE
  5
2F3
330
1F
100
AcDbEntity
  8
0
  6
CONTINUOUS
 62
     7
100
AcDbLine
 10
1095.477345246
 20
808.6619323437
 30
0.0
 11
1095.2335962421
 21
808.08746464
 31
0.0
  0
LINE
  5
2F4
330
1F
100
AcDbEntity
  8
0
  6
CONTINUOUS
 62
     7
100
AcDbLine
 10
1095.477345246
 20
809.0449108128
 30
0.0
 11
1095.477345246
 21
808.6619323437
 31
0.0
  0
LINE
  5
2F5
330
1F
100
AcDbEntity
  8
0
  6
CONTINUOUS
 62
     7
100
AcDbLine
 10
1095.2335962421
 20
809.6193803792
 30
0.0
 11
1095.477345246
 21
809.0449108128
 31
0.0
  0
LINE
  5
2F6
330
1F
100
AcDbEntity
  8
0
  6
CONTINUOUS
 62
     7
100
AcDbLine
 10
1094.7460952076
 20
810.0023588483
 30
0.0
 11
1095.2335962421
 21
809.6193803792
 31
0.0
  0
LINE
  5
2F7
330
1F
100
AcDbEntity
  8
0
  6
CONTINUOUS
 62
     7
100
AcDbLine
 10
1094.0148452857
 20
810.1938462202
 30
0.0
 11
1094.7460952076
 21
810.0023588483
 31
0.0
  0
LINE
  5
2F8
330
1F
100
AcDbEntity
  8
0
  6
CONTINUOUS
 62
     7
100
AcDbLine
 10
1089.383596168
 20
810.1938462202
 30
0.0
 11
1094.0148452857
 21
810.1938462202
 31
0.0
  0
LINE
  5
2F9
330
1F
100
AcDbEntity
  8
0
  6
CONTINUOUS
 62
     7
100
AcDbLine
 10
1095.2335962421
 20
805.7895919625
 30
0.0
 11
1095.477345246
 21
805.2151242588
 31
0.0
  0
LINE
  5
2FA
330
1F
100
AcDbEntity
  8
0
  6
CONTINUOUS
 62
     7
100
AcDbLine
 10
1094.7460952076
 20
806.1725704317
 30
0.0
 11
1095.2335962421
 21
805.7895919625
 31
0.0
  0
LINE
  5
2FB
330
1F
100
AcDbEntity
  8
0
  6
CONTINUOUS
 62
     7
100
AcDbLine
 10
1094.0148452857
 20
806.3640596662
 30
0.0
 11
1094.7460952076
 21
806.1725704317
 31
0.0
  0
LINE
  5
2FC
330
1F
100
AcDbEntity
  8
0
  6
CONTINUOUS
 62
     7
100
AcDbLine
 10
1089.383596168
 20
806.3640596662
 30
0.0
 11
1094.0148452857
 21
806.3640596662
 31
0.0
  0
LINE
  5
2FD
330
1F
100
AcDbEntity
  8
0
  6
CONTINUOUS
 62
     7
100
AcDbLine
 10
1089.383596168
 20
803.4917192851
 30
0.0
 11
1089.383596168
 21
806.3640596662
 31
0.0
  0
LINE
  5
2FE
330
1F
100
AcDbEntity
  8
0
  6
CONTINUOUS
 62
     7
100
AcDbLine
 10
1094.0148452857
 20
803.4917192851
 30
0.0
 11
1089.383596168
 21
803.4917192851
 31
0.0
  0
LINE
  5
2FF
330
1F
100
AcDbEntity
  8
0
  6
CONTINUOUS
 62
     7
100
AcDbLine
 10
1094.7460952076
 20
803.6832085197
 30
0.0
 11
1094.0148452857
 21
803.4917192851
 31
0.0
  0
LINE
  5
300
330
1F
100
AcDbEntity
  8
0
  6
CONTINUOUS
 62
     7
100
AcDbLine
 10
1095.2335962421
 20
804.0661869888
 30
0.0
 11
1094.7460952076
 21
803.6832085197
 31
0.0
  0
LINE
  5
301
330
1F
100
AcDbEntity
  8
0
  6
CONTINUOUS
 62
     7
100
AcDbLine
 10
1095.477345246
 20
804.6406565551
 30
0.0
 11
1095.2335962421
 21
804.0661869888
 31
0.0
  0
LINE
  5
302
330
1F
100
AcDbEntity
  8
0
  6
CONTINUOUS
 62
     7
100
AcDbLine
 10
1095.477345246
 20
805.2151242588
 30
0.0
 11
1095.477345246
 21
804.6406565551
 31
0.0
  0
LINE
  5
303
330
1F
100
AcDbEntity
  8
0
  6
CONTINUOUS
 62
     7
100
AcDbLine
 10
1095.9648462805
 20
810.5768246893
 30
0.0
 11
1094.9898458413
 21
811.1512942557
 31
0.0
  0
LINE
  5
304
330
1F
100
AcDbEntity
  8
0
  6
CONTINUOUS
 62
     7
100
AcDbLine
 10
1107.9085965968
 20
810.0023588483
 30
0.0
 11
1106.9335949934
 21
810.7683157866
 31
0.0
  0
LINE
  5
305
330
1F
100
AcDbEntity
  8
0
  6
CONTINUOUS
 62
     7
100
AcDbLine
 10
1108.3960946045
 20
809.23640191
 30
0.0
 11
1107.9085965968
 21
810.0023588483
 31
0.0
  0
LINE
  5
306
330
1F
100
AcDbEntity
  8
0
  6
CONTINUOUS
 62
     7
100
AcDbLine
 10
1108.639846868
 20
808.2789538745
 30
0.0
 11
1108.3960946045
 21
809.23640191
 31
0.0
  0
LINE
  5
307
330
1F
100
AcDbEntity
  8
0
  6
CONTINUOUS
 62
     7
100
AcDbLine
 10
1108.639846868
 20
805.4066134934
 30
0.0
 11
1108.639846868
 21
808.2789538745
 31
0.0
  0
LINE
  5
308
330
1F
100
AcDbEntity
  8
0
  6
CONTINUOUS
 62
     7
100
AcDbLine
 10
1108.3960946045
 20
804.4491673206
 30
0.0
 11
1108.639846868
 21
805.4066134934
 31
0.0
  0
LINE
  5
309
330
1F
100
AcDbEntity
  8
0
  6
CONTINUOUS
 62
     7
100
AcDbLine
 10
1107.9085965968
 20
803.6832085197
 30
0.0
 11
1108.3960946045
 21
804.4491673206
 31
0.0
  0
LINE
  5
30A
330
1F
100
AcDbEntity
  8
0
  6
CONTINUOUS
 62
     7
100
AcDbLine
 10
1106.9335949934
 20
802.9172515814
 30
0.0
 11
1107.9085965968
 21
803.6832085197
 31
0.0
  0
LINE
  5
30B
330
1F
100
AcDbEntity
  8
0
  6
CONTINUOUS
 62
     7
100
AcDbLine
 10
1105.958596184
 20
802.5342731123
 30
0.0
 11
1106.9335949934
 21
802.9172515814
 31
0.0
  0
LINE
  5
30C
330
1F
100
AcDbEntity
  8
0
  6
CONTINUOUS
 62
     7
100
AcDbLine
 10
1104.7398451111
 20
802.3427838777
 30
0.0
 11
1105.958596184
 21
802.5342731123
 31
0.0
  0
LINE
  5
30D
330
1F
100
AcDbEntity
  8
0
  6
CONTINUOUS
 62
     7
100
AcDbLine
 10
1102.789846561
 20
802.3427838777
 30
0.0
 11
1104.7398451111
 21
802.3427838777
 31
0.0
  0
LINE
  5
30E
330
1F
100
AcDbEntity
  8
0
  6
CONTINUOUS
 62
     7
100
AcDbLine
 10
1101.5710954881
 20
802.5342731123
 30
0.0
 11
1102.789846561
 21
802.3427838777
 31
0.0
  0
LINE
  5
30F
330
1F
100
AcDbEntity
  8
0
  6
CONTINUOUS
 62
     7
100
AcDbLine
 10
1100.5960966787
 20
802.9172515814
 30
0.0
 11
1101.5710954881
 21
802.5342731123
 31
0.0
  0
LINE
  5
310
330
1F
100
AcDbEntity
  8
0
  6
CONTINUOUS
 62
     7
100
AcDbLine
 10
1099.6210946097
 20
803.6832085197
 30
0.0
 11
1100.5960966787
 21
802.9172515814
 31
0.0
  0
LINE
  5
311
330
1F
100
AcDbEntity
  8
0
  6
CONTINUOUS
 62
     7
100
AcDbLine
 10
1099.133596602
 20
804.4491673206
 30
0.0
 11
1099.6210946097
 21
803.6832085197
 31
0.0
  0
LINE
  5
312
330
1F
100
AcDbEntity
  8
0
  6
CONTINUOUS
 62
     7
100
AcDbLine
 10
1098.8898448042
 20
805.4066134934
 30
0.0
 11
1099.133596602
 21
804.4491673206
 31
0.0
  0
LINE
  5
313
330
1F
100
AcDbEntity
  8
0
  6
CONTINUOUS
 62
     7
100
AcDbLine
 10
1098.8898448042
 20
808.2789538745
 30
0.0
 11
1098.8898448042
 21
805.4066134934
 31
0.0
  0
LINE
  5
314
330
1F
100
AcDbEntity
  8
0
  6
CONTINUOUS
 62
     7
100
AcDbLine
 10
1099.133596602
 20
809.23640191
 30
0.0
 11
1098.8898448042
 21
808.2789538745
 31
0.0
  0
LINE
  5
315
330
1F
100
AcDbEntity
  8
0
  6
CONTINUOUS
 62
     7
100
AcDbLine
 10
1099.6210946097
 20
810.0023588483
 30
0.0
 11
1099.133596602
 21
809.23640191
 31
0.0
  0
LINE
  5
316
330
1F
100
AcDbEntity
  8
0
  6
CONTINUOUS
 62
     7
100
AcDbLine
 10
1100.5960966787
 20
810.7683157866
 30
0.0
 11
1099.6210946097
 21
810.0023588483
 31
0.0
  0
LINE
  5
317
330
1F
100
AcDbEntity
  8
0
  6
CONTINUOUS
 62
     7
100
AcDbLine
 10
1101.8148449577
 20
810.0023588483
 30
0.0
 11
1102.789846561
 21
810.1938462202
 31
0.0
  0
LINE
  5
318
330
1F
100
AcDbEntity
  8
0
  6
CONTINUOUS
 62
     7
100
AcDbLine
 10
1101.0835946865
 20
809.6193803792
 30
0.0
 11
1101.8148449577
 21
810.0023588483
 31
0.0
  0
LINE
  5
319
330
1F
100
AcDbEntity
  8
0
  6
CONTINUOUS
 62
     7
100
AcDbLine
 10
1100.5960966787
 20
809.0449108128
 30
0.0
 11
1101.0835946865
 21
809.6193803792
 31
0.0
  0
LINE
  5
31A
330
1F
100
AcDbEntity
  8
0
  6
CONTINUOUS
 62
     7
100
AcDbLine
 10
1100.3523448809
 20
808.2789538745
 30
0.0
 11
1100.5960966787
 21
809.0449108128
 31
0.0
  0
LINE
  5
31B
330
1F
100
AcDbEntity
  8
0
  6
CONTINUOUS
 62
     7
100
AcDbLine
 10
1100.3523448809
 20
805.4066134934
 30
0.0
 11
1100.3523448809
 21
808.2789538745
 31
0.0
  0
LINE
  5
31C
330
1F
100
AcDbEntity
  8
0
  6
CONTINUOUS
 62
     7
100
AcDbLine
 10
1100.5960966787
 20
804.6406565551
 30
0.0
 11
1100.3523448809
 21
805.4066134934
 31
0.0
  0
LINE
  5
31D
330
1F
100
AcDbEntity
  8
0
  6
CONTINUOUS
 62
     7
100
AcDbLine
 10
1101.0835946865
 20
804.0661869888
 30
0.0
 11
1100.5960966787
 21
804.6406565551
 31
0.0
  0
LINE
  5
31E
330
1F
100
AcDbEntity
  8
0
  6
CONTINUOUS
 62
     7
100
AcDbLine
 10
1101.8148449577
 20
803.6832085197
 30
0.0
 11
1101.0835946865
 21
804.0661869888
 31
0.0
  0
LINE
  5
31F
330
1F
100
AcDbEntity
  8
0
  6
CONTINUOUS
 62
     7
100
AcDbLine
 10
1102.789846561
 20
803.4917192851
 30
0.0
 11
1101.8148449577
 21
803.6832085197
 31
0.0
  0
LINE
  5
320
330
1F
100
AcDbEntity
  8
0
  6
CONTINUOUS
 62
     7
100
AcDbLine
 10
1104.7398451111
 20
803.4917192851
 30
0.0
 11
1102.789846561
 21
803.4917192851
 31
0.0
  0
LINE
  5
321
330
1F
100
AcDbEntity
  8
0
  6
CONTINUOUS
 62
     7
100
AcDbLine
 10
1105.7148467145
 20
803.6832085197
 30
0.0
 11
1104.7398451111
 21
803.4917192851
 31
0.0
  0
LINE
  5
322
330
1F
100
AcDbEntity
  8
0
  6
CONTINUOUS
 62
     7
100
AcDbLine
 10
1106.4460969857
 20
804.0661869888
 30
0.0
 11
1105.7148467145
 21
803.6832085197
 31
0.0
  0
LINE
  5
323
330
1F
100
AcDbEntity
  8
0
  6
CONTINUOUS
 62
     7
100
AcDbLine
 10
1106.9335949934
 20
804.6406565551
 30
0.0
 11
1106.4460969857
 21
804.0661869888
 31
0.0
  0
LINE
  5
324
330
1F
100
AcDbEntity
  8
0
  6
CONTINUOUS
 62
     7
100
AcDbLine
 10
1107.1773463256
 20
805.4066134934
 30
0.0
 11
1106.9335949934
 21
804.6406565551
 31
0.0
  0
LINE
  5
325
330
1F
100
AcDbEntity
  8
0
  6
CONTINUOUS
 62
     7
100
AcDbLine
 10
1107.1773463256
 20
808.2789538745
 30
0.0
 11
1107.1773463256
 21
805.4066134934
 31
0.0
  0
LINE
  5
326
330
1F
100
AcDbEntity
  8
0
  6
CONTINUOUS
 62
     7
100
AcDbLine
 10
1106.9335949934
 20
809.0449108128
 30
0.0
 11
1107.1773463256
 21
808.2789538745
 31
0.0
  0
LINE
  5
327
330
1F
100
AcDbEntity
  8
0
  6
CONTINUOUS
 62
     7
100
AcDbLine
 10
1106.4460969857
 20
809.6193803792
 30
0.0
 11
1106.9335949934
 21
809.0449108128
 31
0.0
  0
LINE
  5
328
330
1F
100
AcDbEntity
  8
0
  6
CONTINUOUS
 62
     7
100
AcDbLine
 10
1105.7148467145
 20
810.0023588483
 30
0.0
 11
1106.4460969857
 21
809.6193803792
 31
0.0
  0
LINE
  5
329
330
1F
100
AcDbEntity
  8
0
  6
CONTINUOUS
 62
     7
100
AcDbLine
 10
1104.7398451111
 20
810.1938462202
 30
0.0
 11
1105.7148467145
 21
810.0023588483
 31
0.0
  0
LINE
  5
32A
330
1F
100
AcDbEntity
  8
0
  6
CONTINUOUS
 62
     7
100
AcDbLine
 10
1102.789846561
 20
810.1938462202
 30
0.0
 11
1104.7398451111
 21
810.1938462202
 31
0.0
  0
LINE
  5
32B
330
1F
100
AcDbEntity
  8
0
  6
CONTINUOUS
 62
     7
100
AcDbLine
 10
1104.7398451111
 20
811.3427853529
 30
0.0
 11
1102.789846561
 21
811.3427853529
 31
0.0
  0
LINE
  5
32C
330
1F
100
AcDbEntity
  8
0
  6
CONTINUOUS
 62
     7
100
AcDbLine
 10
1101.5710954881
 20
811.1512942557
 30
0.0
 11
1100.5960966787
 21
810.7683157866
 31
0.0
  0
LINE
  5
32D
330
1F
100
AcDbEntity
  8
0
  6
CONTINUOUS
 62
     7
100
AcDbLine
 10
1106.9335949934
 20
810.7683157866
 30
0.0
 11
1105.958596184
 21
811.1512942557
 31
0.0
  0
LINE
  5
32E
330
1F
100
AcDbEntity
  8
0
  6
CONTINUOUS
 62
     7
100
AcDbLine
 10
1105.958596184
 20
811.1512942557
 30
0.0
 11
1104.7398451111
 21
811.3427853529
 31
0.0
  0
LINE
  5
32F
330
1F
100
AcDbEntity
  8
0
  6
CONTINUOUS
 62
     7
100
AcDbLine
 10
1102.789846561
 20
811.3427853529
 30
0.0
 11
1101.5710954881
 21
811.1512942557
 31
0.0
  0
LINE
  5
330
330
1F
100
AcDbEntity
  8
0
  6
CONTINUOUS
 62
     7
100
AcDbLine
 10
1115.464845053
 20
805.9810811971
 30
0.0
 11
1118.8773469395
 21
802.3427838777
 31
0.0
  0
LINE
  5
331
330
1F
100
AcDbEntity
  8
0
  6
CONTINUOUS
 62
     7
100
AcDbLine
 10
1112.0523450292
 20
802.3427838777
 30
0.0
 11
1115.464845053
 21
805.9810811971
 31
0.0
  0
LINE
  5
332
330
1F
100
AcDbEntity
  8
0
  6
CONTINUOUS
 62
     7
100
AcDbLine
 10
1110.5898444868
 20
802.3427838777
 30
0.0
 11
1112.0523450292
 21
802.3427838777
 31
0.0
  0
LINE
  5
333
330
1F
100
AcDbEntity
  8
0
  6
CONTINUOUS
 62
     7
100
AcDbLine
 10
1114.7335966445
 20
806.9385273699
 30
0.0
 11
1110.5898444868
 21
802.3427838777
 31
0.0
  0
LINE
  5
334
330
1F
100
AcDbEntity
  8
0
  6
CONTINUOUS
 62
     7
100
AcDbLine
 10
1120.3398474819
 20
811.3427853529
 30
0.0
 11
1118.8773469395
 21
811.3427853529
 31
0.0
  0
LINE
  5
335
330
1F
100
AcDbEntity
  8
0
  6
CONTINUOUS
 62
     7
100
AcDbLine
 10
1120.3398474819
 20
802.3427838777
 30
0.0
 11
1116.1960953242
 21
806.9385273699
 31
0.0
  0
LINE
  5
336
330
1F
100
AcDbEntity
  8
0
  6
CONTINUOUS
 62
     7
100
AcDbLine
 10
1118.8773469395
 20
802.3427838777
 30
0.0
 11
1120.3398474819
 21
802.3427838777
 31
0.0
  0
LINE
  5
337
330
1F
100
AcDbEntity
  8
0
  6
CONTINUOUS
 62
     7
100
AcDbLine
 10
1116.1960953242
 20
806.9385273699
 30
0.0
 11
1120.3398474819
 21
811.3427853529
 31
0.0
  0
LINE
  5
338
330
1F
100
AcDbEntity
  8
0
  6
CONTINUOUS
 62
     7
100
AcDbLine
 10
1110.5898444868
 20
811.3427853529
 30
0.0
 11
1114.7335966445
 21
806.9385273699
 31
0.0
  0
LINE
  5
339
330
1F
100
AcDbEntity
  8
0
  6
CONTINUOUS
 62
     7
100
AcDbLine
 10
1118.8773469395
 20
811.3427853529
 30
0.0
 11
1115.464845053
 21
807.7044861708
 31
0.0
  0
LINE
  5
33A
330
1F
100
AcDbEntity
  8
0
  6
CONTINUOUS
 62
     7
100
AcDbLine
 10
1115.464845053
 20
807.7044861708
 30
0.0
 11
1112.0523450292
 21
811.3427853529
 31
0.0
  0
LINE
  5
33B
330
1F
100
AcDbEntity
  8
0
  6
CONTINUOUS
 62
     7
100
AcDbLine
 10
1112.0523450292
 20
811.3427853529
 30
0.0
 11
1110.5898444868
 21
811.3427853529
 31
0.0
  0
LINE
  5
33C
330
1F
100
AcDbEntity
  8
0
  6
CONTINUOUS
 62
     7
100
AcDbLine
 10
772.5178810048
 20
636.76122039
 30
0.0
 11
760.5353217783
 21
636.3427808826
 31
0.0
  0
LINE
  5
33D
330
1F
100
AcDbEntity
  8
0
  6
CONTINUOUS
 62
     7
100
AcDbLine
 10
760.5353217783
 20
636.3427808826
 30
0.0
 11
760.5353217783
 21
641.8394318168
 31
0.0
  0
LINE
  5
33E
330
1F
100
AcDbEntity
  8
0
  6
CONTINUOUS
 62
     7
100
AcDbLine
 10
772.5178819361
 20
642.2578713243
 30
0.0
 11
760.5353217783
 21
641.8394318168
 31
0.0
  0
ARC
  5
33F
330
1F
100
AcDbEntity
  8
0
  6
CONTINUOUS
 62
     7
100
AcDbCircle
 10
885.625721651
 20
639.5095266928
 30
0.0
 40
113.1412250383963
100
AcDbArc
 50
178.6080755425
 51
181.3919050418
  0
LINE
  5
340
330
1F
100
AcDbEntity
  8
0
  6
CONTINUOUS
 62
     7
100
AcDbLine
 10
772.5178819361
 20
861.8276959602
 30
0.0
 11
760.5353217783
 21
862.2461354677
 31
0.0
  0
LWPOLYLINE
  5
341
330
1F
100
AcDbEntity
  8
0
  6
CONTINUOUS
 62
     7
100
AcDbPolyline
 90
        3
 70
   128
 43
0.0
 10
772.5178819361
 20
861.8276959602
 10
772.5684043231
 20
860.718595082
 10
772.5834107238
 20
859.8463928644
  0
LINE
  5
342
330
1F
100
AcDbEntity
  8
0
  6
CONTINUOUS
 62
     7
100
AcDbLine
 10
772.5834107238
 20
644.2391744201
 30
0.0
 11
772.5834107238
 21
859.8463928644
 31
0.0
  0
LWPOLYLINE
  5
343
330
1F
100
AcDbEntity
  8
0
  6
CONTINUOUS
 62
     7
100
AcDbPolyline
 90
        3
 70
   128
 43
0.0
 10
772.5178819361
 20
642.2578713243
 10
772.5684043231
 20
643.3669796531
 10
772.5834107238
 20
644.2391744201
  0
LINE
  5
344
330
1F
100
AcDbEntity
  8
0
  6
CONTINUOUS
 62
     7
100
AcDbLine
 10
760.5353217783
 20
641.8394318168
 30
0.0
 11
760.5353217783
 21
862.2461354677
 31
0.0
  0
LINE
  5
345
330
1F
100
AcDbEntity
  8
0
  6
CONTINUOUS
 62
     7
100
AcDbLine
 10
760.5353217783
 20
867.7427864019
 30
0.0
 11
760.5353217783
 21
862.2461354677
 31
0.0
  0
LINE
  5
346
330
1F
100
AcDbEntity
  8
0
  6
CONTINUOUS
 62
     7
100
AcDbLine
 10
772.5178810048
 20
867.3243468945
 30
0.0
 11
760.5353217783
 21
867.7427864019
 31
0.0
  0
ARC
  5
347
330
1F
100
AcDbEntity
  8
0
  6
CONTINUOUS
 62
     7
100
AcDbCircle
 10
885.7404783656
 20
864.576059795
 30
0.0
 40
113.2559604948887
100
AcDbArc
 50
178.6095150409
 51
181.3905237906
  0
LINE
  5
348
330
1F
100
AcDbEntity
  8
0
  6
CONTINUOUS
 62
     7
100
AcDbLine
 10
772.5834107238
 20
644.2391744201
 30
0.0
 11
774.9415017876
 21
644.2391744201
 31
0.0
  0
LINE
  5
349
330
1F
100
AcDbEntity
  8
0
  6
CONTINUOUS
 62
     7
100
AcDbLine
 10
774.8976448762
 20
642.1259811465
 30
0.0
 11
774.9415017876
 21
644.2391744201
 31
0.0
  0
ARC
  5
34A
330
1F
100
AcDbEntity
  8
0
  6
CONTINUOUS
 62
     7
100
AcDbCircle
 10
749.293170823
 20
233.070980232
 30
0.0
 40
409.8454574651294
100
AcDbArc
 50
86.4183514051
 51
86.7514802276
  0
ARC
  5
34B
330
1F
100
AcDbEntity
  8
0
  6
CONTINUOUS
 62
     7
100
AcDbCircle
 10
749.1939663298
 20
1272.6530247818
 30
0.0
 40
411.4868913933382
100
AcDbArc
 50
273.2493825827
 51
273.5811807898
  0
LINE
  5
34C
330
1F
100
AcDbEntity
  8
0
  6
CONTINUOUS
 62
     7
100
AcDbLine
 10
774.8971326488
 20
861.9596978967
 30
0.0
 11
774.9415017876
 21
859.8463928644
 31
0.0
  0
LINE
  5
34D
330
1F
100
AcDbEntity
  8
0
  6
CONTINUOUS
 62
     7
100
AcDbLine
 10
772.5834107238
 20
859.8463928644
 30
0.0
 11
774.9415017876
 21
859.8463928644
 31
0.0
  0
ARC
  5
34E
330
1F
100
AcDbEntity
  8
0
  6
CONTINUOUS
 62
     7
100
AcDbCircle
 10
793.8478064933
 20
640.4950049245
 30
0.0
 40
19.02037558243283
100
AcDbArc
 50
175.1113195265
 51
184.8885487912
  0
ARC
  5
34F
330
1F
100
AcDbEntity
  8
0
  6
CONTINUOUS
 62
     7
100
AcDbCircle
 10
772.4291735852
 20
639.2566908108
 30
0.0
 40
2.496927314547907
100
AcDbArc
 50
272.0358690087
 51
351.176136377
  0
ARC
  5
350
330
1F
100
AcDbEntity
  8
0
  6
CONTINUOUS
 62
     7
100
AcDbCircle
 10
772.4291615771
 20
864.8289832609
 30
0.0
 40
2.496940287715484
100
AcDbArc
 50
8.8213376889
 51
87.9637803218
  0
ARC
  5
351
330
1F
100
AcDbEntity
  8
0
  6
CONTINUOUS
 62
     7
100
AcDbCircle
 10
793.8474788305
 20
863.5905623598
 30
0.0
 40
19.02004847670381
100
AcDbArc
 50
175.1113894564
 51
184.8887422266
  0
LINE
  5
352
330
1F
100
AcDbEntity
  8
0
  6
CONTINUOUS
 62
     7
100
AcDbLine
 10
774.9415017876
 20
757.4324181621
 30
0.0
 11
774.9415017876
 21
746.6531491224
 31
0.0
  0
LINE
  5
353
330
1F
100
AcDbEntity
  8
0
  6
CONTINUOUS
 62
     7
100
AcDbLine
 10
774.9415017876
 20
644.2391744201
 30
0.0
 11
774.9415017876
 21
746.6531491224
 31
0.0
  0
LINE
  5
354
330
1F
100
AcDbEntity
  8
0
  6
CONTINUOUS
 62
     7
100
AcDbLine
 10
774.9415017876
 20
757.4324181621
 30
0.0
 11
774.9415017876
 21
859.8463928644
 31
0.0
  0
LINE
  5
355
330
1F
100
AcDbEntity
  8
0
  6
CONTINUOUS
 62
     7
100
AcDbLine
 10
774.9415017876
 20
865.3434908335
 30
0.0
 11
774.8976318377
 21
865.2086949293
 31
0.0
  0
LINE
  5
356
330
1F
100
AcDbEntity
  8
0
  6
CONTINUOUS
 62
     7
100
AcDbLine
 10
774.9415017876
 20
865.3434908335
 30
0.0
 11
776.1453153777
 21
859.6815562193
 31
0.0
  0
ARC
  5
357
330
1F
100
AcDbEntity
  8
0
  6
CONTINUOUS
 62
     7
100
AcDbCircle
 10
808.4992593688
 20
855.1204569528
 30
0.0
 40
32.73307574254593
100
AcDbArc
 50
171.9892932607
 51
178.5991383603
  0
LINE
  5
358
330
1F
100
AcDbEntity
  8
0
  6
CONTINUOUS
 62
     7
100
AcDbLine
 10
775.7759668144
 20
855.9206893985
 30
0.0
 11
774.9415017876
 21
859.8463928644
 31
0.0
  0
ARC
  5
359
330
1F
100
AcDbEntity
  8
0
  6
CONTINUOUS
 62
     7
100
AcDbCircle
 10
808.4993932702
 20
648.9651229392
 30
0.0
 40
32.73321009430278
100
AcDbArc
 50
181.4008910086
 51
188.0106959292
  0
LINE
  5
35A
330
1F
100
AcDbEntity
  8
0
  6
CONTINUOUS
 62
     7
100
AcDbLine
 10
774.9415017876
 20
638.742076451
 30
0.0
 11
776.1453153777
 21
644.4040110652
 31
0.0
  0
LINE
  5
35B
330
1F
100
AcDbEntity
  8
0
  6
CONTINUOUS
 62
     7
100
AcDbLine
 10
774.9415017876
 20
638.742076451
 30
0.0
 11
774.8971410307
 21
638.8736835067
 31
0.0
  0
LINE
  5
35C
330
1F
100
AcDbEntity
  8
0
  6
CONTINUOUS
 62
     7
100
AcDbLine
 10
775.7759668144
 20
648.1648704354
 30
0.0
 11
774.9415017876
 21
644.2391744201
 31
0.0
  0
ELLIPSE
  5
35D
330
1F
100
AcDbEntity
  8
0
  6
CONTINUOUS
 62
     7
100
AcDbEllipse
 10
776.8877010221
 20
854.1748690223
 30
0.0
 11
-0.002374878144564718
 21
5.500219689613801
 31
0.0
210
0.0
220
0.0
230
1.0
 40
0.2130095649
 41
1.247708016086452
 42
1.568769290176186
  0
LINE
  5
35E
330
1F
100
AcDbEntity
  8
0
  6
CONTINUOUS
 62
     7
100
AcDbLine
 10
775.7160995367
 20
833.7983137314
 30
0.0
 11
775.7160995367
 21
854.1855087821
 31
0.0
  0
LINE
  5
35F
330
1F
100
AcDbEntity
  8
0
  6
CONTINUOUS
 62
     7
100
AcDbLine
 10
775.7160995367
 20
833.7983137314
 30
0.0
 11
776.2486260596
 21
831.600414807
 31
0.0
  0
LINE
  5
360
330
1F
100
AcDbEntity
  8
0
  6
CONTINUOUS
 62
     7
100
AcDbLine
 10
776.2486260596
 20
831.600414807
 30
0.0
 11
776.2486260596
 21
758.2245098744
 31
0.0
  0
ELLIPSE
  5
361
330
1F
100
AcDbEntity
  8
0
  6
CONTINUOUS
 62
     7
100
AcDbEllipse
 10
775.5365777009
 20
757.4368169976
 30
0.0
 11
-0.0007511895885272679
 21
0.8001287847866934
 31
0.0
210
0.0
220
0.0
230
0.9999999999999999
 40
0.2138423392
 41
6.279251868237022
 42
7.850029197933633
  0
LINE
  5
362
330
1F
100
AcDbEntity
  8
0
  6
CONTINUOUS
 62
     7
100
AcDbLine
 10
774.9415017876
 20
757.4324181621
 30
0.0
 11
775.3654742825
 21
757.4398184512
 31
0.0
  0
LINE
  5
363
330
1F
100
AcDbEntity
  8
0
  6
CONTINUOUS
 62
     7
100
AcDbLine
 10
776.0152533862
 20
763.1922869329
 30
0.0
 11
776.0152533862
 21
758.3932804261
 31
0.0
  0
LINE
  5
364
330
1F
100
AcDbEntity
  8
0
  6
CONTINUOUS
 62
     7
100
AcDbLine
 10
775.1290608409
 20
763.1613400151
 30
0.0
 11
776.0152533862
 21
763.1922869329
 31
0.0
  0
LINE
  5
365
330
1F
100
AcDbEntity
  8
0
  6
CONTINUOUS
 62
     7
100
AcDbLine
 10
775.1290608409
 20
758.4242264126
 30
0.0
 11
775.1290608409
 21
763.1613400151
 31
0.0
  0
LINE
  5
366
330
1F
100
AcDbEntity
  8
0
  6
CONTINUOUS
 62
     7
100
AcDbLine
 10
776.0152533862
 20
758.3932804261
 30
0.0
 11
775.1290608409
 21
758.4242264126
 31
0.0
  0
LINE
  5
367
330
1F
100
AcDbEntity
  8
0
  6
CONTINUOUS
 62
     7
100
AcDbLine
 10
774.9415017876
 20
746.6531491224
 30
0.0
 11
775.3654742825
 21
746.6457488333
 31
0.0
  0
ELLIPSE
  5
368
330
1F
100
AcDbEntity
  8
0
  6
CONTINUOUS
 62
     7
100
AcDbEllipse
 10
775.5365777009
 20
746.6487500127
 30
0.0
 11
0.0007511895885272679
 21
0.8001287847866934
 31
0.0
210
0.0
220
0.0
230
0.9999999999999999
 40
0.2138423392
 41
1.574748763194314
 42
3.145526092532486
  0
LINE
  5
369
330
1F
100
AcDbEntity
  8
0
  6
CONTINUOUS
 62
     7
100
AcDbLine
 10
776.2486260596
 20
745.8610555474
 30
0.0
 11
776.2486260596
 21
672.4851524775
 31
0.0
  0
LINE
  5
36A
330
1F
100
AcDbEntity
  8
0
  6
CONTINUOUS
 62
     7
100
AcDbLine
 10
775.7160995367
 20
670.2872535531
 30
0.0
 11
776.2486260596
 21
672.4851524775
 31
0.0
  0
LINE
  5
36B
330
1F
100
AcDbEntity
  8
0
  6
CONTINUOUS
 62
     7
100
AcDbLine
 10
775.7160995367
 20
670.2872535531
 30
0.0
 11
775.7160995367
 21
649.9000510518
 31
0.0
  0
ELLIPSE
  5
36C
330
1F
100
AcDbEntity
  8
0
  6
CONTINUOUS
 62
     7
100
AcDbEllipse
 10
776.8877010221
 20
649.910697988
 30
0.0
 11
0.002374878144564718
 21
5.500219689613801
 31
0.0
210
0.0
220
0.0
230
1.0
 40
0.2130095649
 41
1.572823363413607
 42
1.893884637503312
  0
LINE
  5
36D
330
1F
100
AcDbEntity
  8
0
  6
CONTINUOUS
 62
     7
100
AcDbLine
 10
776.0152533862
 20
745.7922866885
 30
0.0
 11
776.0152533862
 21
740.9932820444
 31
0.0
  0
LINE
  5
36E
330
1F
100
AcDbEntity
  8
0
  6
CONTINUOUS
 62
     7
100
AcDbLine
 10
775.1290608409
 20
745.761340702
 30
0.0
 11
776.0152533862
 21
745.7922866885
 31
0.0
  0
LINE
  5
36F
330
1F
100
AcDbEntity
  8
0
  6
CONTINUOUS
 62
     7
100
AcDbLine
 10
775.1290608409
 20
741.0242280309
 30
0.0
 11
775.1290608409
 21
745.761340702
 31
0.0
  0
LINE
  5
370
330
1F
100
AcDbEntity
  8
0
  6
CONTINUOUS
 62
     7
100
AcDbLine
 10
776.0152533862
 20
740.9932820444
 30
0.0
 11
775.1290608409
 21
741.0242280309
 31
0.0
  0
LINE
  5
371
330
1F
100
AcDbEntity
  8
0
  6
CONTINUOUS
 62
     7
100
AcDbLine
 10
775.3654742825
 20
751.0433832501
 30
0.0
 11
807.7484104994
 21
750.4781375025
 31
0.0
  0
LINE
  5
372
330
1F
100
AcDbEntity
  8
0
  6
CONTINUOUS
 62
     7
100
AcDbLine
 10
807.7484104994
 20
750.4781375025
 30
0.0
 11
807.7484104994
 21
747.2106444035
 31
0.0
  0
LINE
  5
373
330
1F
100
AcDbEntity
  8
0
  6
CONTINUOUS
 62
     7
100
AcDbLine
 10
807.7484104994
 20
747.2106444035
 30
0.0
 11
775.3654780078
 21
746.6455737446
 31
0.0
  0
LINE
  5
374
330
1F
100
AcDbEntity
  8
0
  6
CONTINUOUS
 62
     7
100
AcDbLine
 10
775.3654742825
 20
757.4398184512
 30
0.0
 11
807.7484104994
 21
756.874922881
 31
0.0
  0
LINE
  5
375
330
1F
100
AcDbEntity
  8
0
  6
CONTINUOUS
 62
     7
100
AcDbLine
 10
807.7484104994
 20
756.874922881
 30
0.0
 11
807.7484104994
 21
753.607429782
 31
0.0
  0
LINE
  5
376
330
1F
100
AcDbEntity
  8
0
  6
CONTINUOUS
 62
     7
100
AcDbLine
 10
775.3654742825
 20
753.0421840344
 30
0.0
 11
807.7484104994
 21
753.607429782
 31
0.0
  0
LINE
  5
377
330
1F
100
AcDbEntity
  8
0
  6
CONTINUOUS
 62
     7
100
AcDbLine
 10
775.3654742825
 20
751.0433832501
 30
0.0
 11
775.3654742825
 21
753.0421840344
 31
0.0
  0
ARC
  5
378
330
1F
100
AcDbEntity
  8
0
  6
CONTINUOUS
 62
     7
100
AcDbCircle
 10
796.563964036
 20
746.8488088182
 30
0.0
 40
11.19029792651307
100
AcDbArc
 50
357.8161406277
 51
1.8529682025
  0
ELLIPSE
  5
379
330
1F
100
AcDbEntity
  8
0
  6
CONTINUOUS
 62
     7
100
AcDbEllipse
 10
955.9669300195
 20
749.7981735274
 30
0.0
 11
157.9809049598989
 21
3.544286533630043
 31
0.0
210
0.0
220
0.0
230
1.0
 40
0.0009227446
 41
3.324880806182256
 42
3.49488103039521
  0
LINE
  5
37A
330
1F
100
AcDbEntity
  8
0
  6
CONTINUOUS
 62
     7
100
AcDbLine
 10
800.6328489843
 20
746.2866848652
 30
0.0
 11
775.5364995661
 21
745.848627979
 31
0.0
  0
LINE
  5
37B
330
1F
100
AcDbEntity
  8
0
  6
CONTINUOUS
 62
     7
100
AcDbLine
 10
775.5364995661
 20
758.2369393055
 30
0.0
 11
800.6328489843
 21
757.7988824193
 31
0.0
  0
LWPOLYLINE
  5
37C
330
1F
100
AcDbEntity
  8
0
  6
CONTINUOUS
 62
     7
100
AcDbPolyline
 90
        5
 70
   128
 43
0.0
 10
807.7440481844
 20
757.6632222478
 10
805.3263310555
 20
757.7109394912
 10
803.7618842187
 20
757.7411739473
 10
802.1973889533
 20
757.7706465815
 10
800.6328489843
 20
757.7988824193
  0
ARC
  5
37D
330
1F
100
AcDbEntity
  8
0
  6
CONTINUOUS
 62
     7
100
AcDbCircle
 10
796.552778221
 20
757.2370435646
 30
0.0
 40
11.20148711118698
100
AcDbArc
 50
358.1474243307
 51
2.1802175164
  0
LINE
  5
37E
330
1F
100
AcDbEntity
  8
0
  6
CONTINUOUS
 62
     7
100
AcDbLine
 10
776.2486260596
 20
751.0279679988
 30
0.0
 11
776.2486260596
 21
753.0575992857
 31
0.0
  0
LINE
  5
37F
330
1F
100
AcDbEntity
  8
0
  6
CONTINUOUS
 62
     7
100
AcDbLine
 10
808.2353208426
 20
750.4696382527
 30
0.0
 11
808.2353208426
 21
747.2106444035
 31
0.0
  0
LINE
  5
380
330
1F
100
AcDbEntity
  8
0
  6
CONTINUOUS
 62
     7
100
AcDbLine
 10
807.7484104994
 20
747.2106444035
 30
0.0
 11
808.2353208426
 21
747.2106444035
 31
0.0
  0
LWPOLYLINE
  5
381
330
1F
100
AcDbEntity
  8
0
  6
CONTINUOUS
 62
     7
100
AcDbPolyline
 90
        9
 70
   128
 43
0.0
 10
808.2353208426
 20
750.4696382527
 10
808.2260299685
 20
750.4698003028
 10
808.1985037985
 20
750.4702808653
 10
808.153763062
 20
750.4710613136
 10
808.0934729639
 20
750.4721137081
 10
808.0198724034
 20
750.4733989332
 10
807.9356957438
 20
750.4748685603
 10
807.844072229
 20
750.4764667098
 10
807.7484104994
 20
750.4781375025
  0
LINE
  5
382
330
1F
100
AcDbEntity
  8
0
  6
CONTINUOUS
 62
     7
100
AcDbLine
 10
807.7484104994
 20
756.874922881
 30
0.0
 11
808.2353208426
 21
756.874922881
 31
0.0
  0
LINE
  5
383
330
1F
100
AcDbEntity
  8
0
  6
CONTINUOUS
 62
     7
100
AcDbLine
 10
808.2353208426
 20
756.874922881
 30
0.0
 11
808.2353208426
 21
753.6159290318
 31
0.0
  0
LWPOLYLINE
  5
384
330
1F
100
AcDbEntity
  8
0
  6
CONTINUOUS
 62
     7
100
AcDbPolyline
 90
        9
 70
   128
 43
0.0
 10
807.7484104994
 20
753.607429782
 10
807.844072229
 20
753.6091005747
 10
807.9356957438
 20
753.6106987242
 10
808.0198724034
 20
753.6121683512
 10
808.0934729639
 20
753.6134535764
 10
808.153763062
 20
753.6145059709
 10
808.1985037985
 20
753.6152864192
 10
808.2260299685
 20
753.6157669817
 10
808.2353208426
 20
753.6159290318
  0
LINE
  5
385
330
1F
100
AcDbEntity
  8
0
  6
CONTINUOUS
 62
     7
100
AcDbLine
 10
808.2353208426
 20
747.2106444035
 30
0.0
 11
808.2353208426
 21
746.9343563859
 31
0.0
  0
ARC
  5
386
330
1F
100
AcDbEntity
  8
0
  6
CONTINUOUS
 62
     7
100
AcDbCircle
 10
807.7295973838
 20
746.9278863222
 30
0.0
 40
0.5057640151913467
100
AcDbArc
 50
271.8762672353
 51
0.7255990632
  0
LINE
  5
387
330
1F
100
AcDbEntity
  8
0
  6
CONTINUOUS
 62
     7
100
AcDbLine
 10
808.2353208426
 20
757.0473162775
 30
0.0
 11
808.2353208426
 21
756.874922881
 31
0.0
  0
ARC
  5
388
330
1F
100
AcDbEntity
  8
0
  6
CONTINUOUS
 62
     7
100
AcDbCircle
 10
807.728447007
 20
757.1565610013
 30
0.0
 40
0.5069013863487228
100
AcDbArc
 50
359.4026283276
 51
88.236298357
  0
ARC
  5
389
330
1F
100
AcDbEntity
  8
0
  6
CONTINUOUS
 62
     7
100
AcDbCircle
 10
772.4961616155
 20
639.2619890968
 30
0.0
 40
2.500000000000068
100
AcDbArc
 50
272.0
 51
347.9967874683
  0
LWPOLYLINE
  5
38A
330
1F
100
AcDbEntity
  8
0
  6
CONTINUOUS
 62
     7
100
AcDbPolyline
 90
        3
 70
   128
 43
0.0
 10
772.5834107238
 20
636.7635151689
 10
772.5600978571
 20
636.762695605
 10
772.5178810048
 20
636.76122039
  0
ARC
  5
38B
330
1F
100
AcDbEntity
  8
0
  6
CONTINUOUS
 62
     7
100
AcDbCircle
 10
772.4961616155
 20
864.8235779135
 30
0.0
 40
2.500000000000068
100
AcDbArc
 50
12.0032126248
 51
88.0
  0
LWPOLYLINE
  5
38C
330
1F
100
AcDbEntity
  8
0
  6
CONTINUOUS
 62
     7
100
AcDbPolyline
 90
        3
 70
   128
 43
0.0
 10
772.5834107238
 20
867.3220521156
 10
772.5600978571
 20
867.3228716795
 10
772.5178810048
 20
867.3243468945
  0
LINE
  5
38D
330
1F
100
AcDbEntity
  8
0
  6
CONTINUOUS
 62
     7
100
AcDbLine
 10
855.3853254977
 20
650.595324332
 30
0.0
 11
855.3853254977
 21
645.0955292527
 31
0.0
  0
LINE
  5
38E
330
1F
100
AcDbEntity
  8
0
  6
CONTINUOUS
 62
     7
100
AcDbLine
 10
855.3853254977
 20
645.0955292527
 30
0.0
 11
776.0855915236
 21
644.4034895246
 31
0.0
  0
LINE
  5
38F
330
1F
100
AcDbEntity
  8
0
  6
CONTINUOUS
 62
     7
100
AcDbLine
 10
855.3853254977
 20
650.595324332
 30
0.0
 11
775.7160995367
 21
649.9000510518
 31
0.0
  0
LINE
  5
390
330
1F
100
AcDbEntity
  8
0
  6
CONTINUOUS
 62
     7
100
AcDbLine
 10
775.7160995367
 20
670.2872535531
 30
0.0
 11
853.3853214446
 21
669.9808409755
 31
0.0
  0
LINE
  5
391
330
1F
100
AcDbEntity
  8
0
  6
CONTINUOUS
 62
     7
100
AcDbLine
 10
853.3853214446
 20
669.9808409755
 30
0.0
 11
853.3853214446
 21
669.3386754338
 31
0.0
  0
LINE
  5
392
330
1F
100
AcDbEntity
  8
0
  6
CONTINUOUS
 62
     7
100
AcDbLine
 10
855.3853254977
 20
669.3226790373
 30
0.0
 11
853.3853214446
 21
669.3386754338
 31
0.0
  0
LINE
  5
393
330
1F
100
AcDbEntity
  8
0
  6
CONTINUOUS
 62
     7
100
AcDbLine
 10
855.3853254977
 20
669.3226790373
 30
0.0
 11
855.3853254977
 21
650.595324332
 31
0.0
  0
LINE
  5
394
330
1F
100
AcDbEntity
  8
0
  6
CONTINUOUS
 62
     7
100
AcDbLine
 10
776.2486260596
 20
672.4851524775
 30
0.0
 11
853.3853214446
 21
672.1808409636
 31
0.0
  0
LINE
  5
395
330
1F
100
AcDbEntity
  8
0
  6
CONTINUOUS
 62
     7
100
AcDbLine
 10
853.3853214446
 20
669.9808409755
 30
0.0
 11
853.3853214446
 21
672.1808409636
 31
0.0
  0
LINE
  5
396
330
1F
100
AcDbEntity
  8
0
  6
CONTINUOUS
 62
     7
100
AcDbLine
 10
855.3853254977
 20
834.7628845219
 30
0.0
 11
855.3853254977
 21
853.4902504031
 31
0.0
  0
LINE
  5
397
330
1F
100
AcDbEntity
  8
0
  6
CONTINUOUS
 62
     7
100
AcDbLine
 10
855.3853254977
 20
834.7628845219
 30
0.0
 11
853.3853214446
 21
834.7468918507
 31
0.0
  0
LINE
  5
398
330
1F
100
AcDbEntity
  8
0
  6
CONTINUOUS
 62
     7
100
AcDbLine
 10
853.3853214446
 20
834.1047300343
 30
0.0
 11
853.3853214446
 21
834.7468918507
 31
0.0
  0
LINE
  5
399
330
1F
100
AcDbEntity
  8
0
  6
CONTINUOUS
 62
     7
100
AcDbLine
 10
775.7160995367
 20
833.7983137314
 30
0.0
 11
853.3853214446
 21
834.1047300343
 31
0.0
  0
LINE
  5
39A
330
1F
100
AcDbEntity
  8
0
  6
CONTINUOUS
 62
     7
100
AcDbLine
 10
855.3853254977
 20
853.4902504031
 30
0.0
 11
775.7160995367
 21
854.1855087821
 31
0.0
  0
LINE
  5
39B
330
1F
100
AcDbEntity
  8
0
  6
CONTINUOUS
 62
     7
100
AcDbLine
 10
776.2486260596
 20
831.600414807
 30
0.0
 11
853.3853214446
 21
831.9047300462
 31
0.0
  0
LINE
  5
39C
330
1F
100
AcDbEntity
  8
0
  6
CONTINUOUS
 62
     7
100
AcDbLine
 10
853.3853214446
 20
834.1047300343
 30
0.0
 11
853.3853214446
 21
831.9047300462
 31
0.0
  0
LINE
  5
39D
330
1F
100
AcDbEntity
  8
0
  6
CONTINUOUS
 62
     7
100
AcDbLine
 10
855.3853254977
 20
858.9900380318
 30
0.0
 11
776.0855915236
 21
859.6820777599
 31
0.0
  0
LINE
  5
39E
330
1F
100
AcDbEntity
  8
0
  6
CONTINUOUS
 62
     7
100
AcDbLine
 10
855.3853254977
 20
853.4902504031
 30
0.0
 11
855.3853254977
 21
858.9900380318
 31
0.0
  0
LINE
  5
39F
330
1F
100
AcDbEntity
  8
0
  6
CONTINUOUS
 62
     7
100
AcDbLine
 10
855.3853254977
 20
669.5734581296
 30
0.0
 11
853.3853214446
 21
669.5925018136
 31
0.0
  0
LINE
  5
3A0
330
1F
100
AcDbEntity
  8
0
  6
CONTINUOUS
 62
     7
100
AcDbLine
 10
855.3853254977
 20
669.3226790373
 30
0.0
 11
855.3853254977
 21
669.5734581296
 31
0.0
  0
LINE
  5
3A1
330
1F
100
AcDbEntity
  8
0
  6
CONTINUOUS
 62
     7
100
AcDbLine
 10
855.3853254977
 20
834.5121128802
 30
0.0
 11
853.3853214446
 21
834.4930654709
 31
0.0
  0
LINE
  5
3A2
330
1F
100
AcDbEntity
  8
0
  6
CONTINUOUS
 62
     7
100
AcDbLine
 10
855.3853254977
 20
834.7628845219
 30
0.0
 11
855.3853254977
 21
834.5121128802
 31
0.0
  0
LINE
  5
3A3
330
1F
100
AcDbEntity
  8
0
  6
CONTINUOUS
 62
     7
100
AcDbLine
 10
853.3853214446
 20
831.9047300462
 30
0.0
 11
853.3853214446
 21
672.1808409636
 31
0.0
  0
LINE
  5
3A4
330
1F
100
AcDbEntity
  8
0
  6
CONTINUOUS
 62
     8
100
AcDbLine
 10
808.2353208426
 20
757.1512108986
 30
0.0
 11
808.2353208426
 21
757.0473162775
 31
0.0
  0
LINE
  5
3A5
330
1F
100
AcDbEntity
  8
0
  6
CONTINUOUS
 62
     7
100
AcDbLine
 10
1444.6018718472
 20
827.2427825574
 30
0.0
 11
1444.6018718472
 21
811.8427826409
 31
0.0
  0
LINE
  5
3A6
330
1F
100
AcDbEntity
  8
0
  6
CONTINUOUS
 62
     7
100
AcDbLine
 10
1444.3859763732
 20
811.8427826409
 30
0.0
 11
1444.6018718472
 21
811.8427826409
 31
0.0
  0
LINE
  5
3A7
330
1F
100
AcDbEntity
  8
0
  6
CONTINUOUS
 62
     7
100
AcDbLine
 10
1444.3859763732
 20
808.6427843515
 30
0.0
 11
1444.3859763732
 21
811.8427826409
 31
0.0
  0
LINE
  5
3A8
330
1F
100
AcDbEntity
  8
0
  6
CONTINUOUS
 62
     7
100
AcDbLine
 10
1435.1470426945
 20
808.6427843515
 30
0.0
 11
1444.3859763732
 21
808.6427843515
 31
0.0
  0
LINE
  5
3A9
330
1F
100
AcDbEntity
  8
0
  6
CONTINUOUS
 62
     7
100
AcDbLine
 10
1435.1470426945
 20
811.6427829806
 30
0.0
 11
1435.1470426945
 21
808.6427843515
 31
0.0
  0
LINE
  5
3AA
330
1F
100
AcDbEntity
  8
0
  6
CONTINUOUS
 62
     7
100
AcDbLine
 10
1435.1470426945
 20
811.6427829806
 30
0.0
 11
1435.5123791201
 21
811.6427829806
 31
0.0
  0
LINE
  5
3AB
330
1F
100
AcDbEntity
  8
0
  6
CONTINUOUS
 62
     7
100
AcDbLine
 10
1435.5123791201
 20
811.6427829806
 30
0.0
 11
1435.5123791201
 21
827.4427822177
 31
0.0
  0
LINE
  5
3AC
330
1F
100
AcDbEntity
  8
0
  6
CONTINUOUS
 62
     7
100
AcDbLine
 10
1435.1470426945
 20
827.4427822177
 30
0.0
 11
1435.5123791201
 21
827.4427822177
 31
0.0
  0
LINE
  5
3AD
330
1F
100
AcDbEntity
  8
0
  6
CONTINUOUS
 62
     7
100
AcDbLine
 10
1435.1470426945
 20
830.4427845721
 30
0.0
 11
1435.1470426945
 21
827.4427822177
 31
0.0
  0
LINE
  5
3AE
330
1F
100
AcDbEntity
  8
0
  6
CONTINUOUS
 62
     7
100
AcDbLine
 10
1435.1470426945
 20
830.4427845721
 30
0.0
 11
1444.3859763732
 21
830.4427845721
 31
0.0
  0
LINE
  5
3AF
330
1F
100
AcDbEntity
  8
0
  6
CONTINUOUS
 62
     7
100
AcDbLine
 10
1444.3859763732
 20
827.2427825574
 30
0.0
 11
1444.3859763732
 21
830.4427845721
 31
0.0
  0
LINE
  5
3B0
330
1F
100
AcDbEntity
  8
0
  6
CONTINUOUS
 62
     7
100
AcDbLine
 10
1444.3859763732
 20
827.2427825574
 30
0.0
 11
1444.6018718472
 21
827.2427825574
 31
0.0
  0
LINE
  5
3B1
330
1F
100
AcDbEntity
  8
0
  6
CONTINUOUS
 62
     7
100
AcDbLine
 10
1444.3859763732
 20
763.6427834947
 30
0.0
 11
1444.3859763732
 21
766.8427836467
 31
0.0
  0
LINE
  5
3B2
330
1F
100
AcDbEntity
  8
0
  6
CONTINUOUS
 62
     7
100
AcDbLine
 10
1435.1470426945
 20
763.6427834947
 30
0.0
 11
1444.3859763732
 21
763.6427834947
 31
0.0
  0
LINE
  5
3B3
330
1F
100
AcDbEntity
  8
0
  6
CONTINUOUS
 62
     7
100
AcDbLine
 10
1435.1470426945
 20
763.6427834947
 30
0.0
 11
1435.1470426945
 21
766.6427830551
 31
0.0
  0
LINE
  5
3B4
330
1F
100
AcDbEntity
  8
0
  6
CONTINUOUS
 62
     7
100
AcDbLine
 10
1435.1470426945
 20
766.6427830551
 30
0.0
 11
1435.5123791201
 21
766.6427830551
 31
0.0
  0
LINE
  5
3B5
330
1F
100
AcDbEntity
  8
0
  6
CONTINUOUS
 62
     7
100
AcDbLine
 10
1435.5123791201
 20
766.6427830551
 30
0.0
 11
1435.5123791201
 21
782.4427836892
 31
0.0
  0
LINE
  5
3B6
330
1F
100
AcDbEntity
  8
0
  6
CONTINUOUS
 62
     7
100
AcDbLine
 10
1435.1470426945
 20
782.4427836892
 30
0.0
 11
1435.5123791201
 21
782.4427836892
 31
0.0
  0
LINE
  5
3B7
330
1F
100
AcDbEntity
  8
0
  6
CONTINUOUS
 62
     7
100
AcDbLine
 10
1435.1470426945
 20
782.4427836892
 30
0.0
 11
1435.1470426945
 21
785.4427837153
 31
0.0
  0
LINE
  5
3B8
330
1F
100
AcDbEntity
  8
0
  6
CONTINUOUS
 62
     7
100
AcDbLine
 10
1444.3859763732
 20
782.2427835633
 30
0.0
 11
1444.3859763732
 21
785.4427837153
 31
0.0
  0
LINE
  5
3B9
330
1F
100
AcDbEntity
  8
0
  6
CONTINUOUS
 62
     7
100
AcDbLine
 10
1444.3859763732
 20
782.2427835633
 30
0.0
 11
1444.6018718472
 21
782.2427835633
 31
0.0
  0
LINE
  5
3BA
330
1F
100
AcDbEntity
  8
0
  6
CONTINUOUS
 62
     7
100
AcDbLine
 10
1444.6018718472
 20
766.8427836467
 30
0.0
 11
1444.6018718472
 21
782.2427835633
 31
0.0
  0
LINE
  5
3BB
330
1F
100
AcDbEntity
  8
0
  6
CONTINUOUS
 62
     7
100
AcDbLine
 10
1444.3859763732
 20
766.8427836467
 30
0.0
 11
1444.6018718472
 21
766.8427836467
 31
0.0
  0
LINE
  5
3BC
330
1F
100
AcDbEntity
  8
0
  6
CONTINUOUS
 62
     7
100
AcDbLine
 10
1435.1470426945
 20
785.4427837153
 30
0.0
 11
1444.3859763732
 21
785.4427837153
 31
0.0
  0
LINE
  5
3BD
330
1F
100
AcDbEntity
  8
0
  6
CONTINUOUS
 62
     7
100
AcDbLine
 10
1444.6018718472
 20
737.2427827065
 30
0.0
 11
1444.6018718472
 21
721.8427827899
 31
0.0
  0
LINE
  5
3BE
330
1F
100
AcDbEntity
  8
0
  6
CONTINUOUS
 62
     7
100
AcDbLine
 10
1444.3859763732
 20
721.8427827899
 30
0.0
 11
1444.6018718472
 21
721.8427827899
 31
0.0
  0
LINE
  5
3BF
330
1F
100
AcDbEntity
  8
0
  6
CONTINUOUS
 62
     7
100
AcDbLine
 10
1444.3859763732
 20
718.6427845006
 30
0.0
 11
1444.3859763732
 21
721.8427827899
 31
0.0
  0
LINE
  5
3C0
330
1F
100
AcDbEntity
  8
0
  6
CONTINUOUS
 62
     7
100
AcDbLine
 10
1435.1470426945
 20
718.6427845006
 30
0.0
 11
1444.3859763732
 21
718.6427845006
 31
0.0
  0
LINE
  5
3C1
330
1F
100
AcDbEntity
  8
0
  6
CONTINUOUS
 62
     7
100
AcDbLine
 10
1435.1470426945
 20
721.6427831296
 30
0.0
 11
1435.1470426945
 21
718.6427845006
 31
0.0
  0
LINE
  5
3C2
330
1F
100
AcDbEntity
  8
0
  6
CONTINUOUS
 62
     7
100
AcDbLine
 10
1435.1470426945
 20
721.6427831296
 30
0.0
 11
1435.5123791201
 21
721.6427831296
 31
0.0
  0
LINE
  5
3C3
330
1F
100
AcDbEntity
  8
0
  6
CONTINUOUS
 62
     7
100
AcDbLine
 10
1435.5123791201
 20
721.6427831296
 30
0.0
 11
1435.5123791201
 21
737.4427823667
 31
0.0
  0
LINE
  5
3C4
330
1F
100
AcDbEntity
  8
0
  6
CONTINUOUS
 62
     7
100
AcDbLine
 10
1435.1470426945
 20
737.4427823667
 30
0.0
 11
1435.5123791201
 21
737.4427823667
 31
0.0
  0
LINE
  5
3C5
330
1F
100
AcDbEntity
  8
0
  6
CONTINUOUS
 62
     7
100
AcDbLine
 10
1435.1470426945
 20
740.4427847211
 30
0.0
 11
1435.1470426945
 21
737.4427823667
 31
0.0
  0
LINE
  5
3C6
330
1F
100
AcDbEntity
  8
0
  6
CONTINUOUS
 62
     7
100
AcDbLine
 10
1444.3859763732
 20
737.2427827065
 30
0.0
 11
1444.3859763732
 21
740.4427847211
 31
0.0
  0
LINE
  5
3C7
330
1F
100
AcDbEntity
  8
0
  6
CONTINUOUS
 62
     7
100
AcDbLine
 10
1444.3859763732
 20
737.2427827065
 30
0.0
 11
1444.6018718472
 21
737.2427827065
 31
0.0
  0
LINE
  5
3C8
330
1F
100
AcDbEntity
  8
0
  6
CONTINUOUS
 62
     7
100
AcDbLine
 10
1435.1470426945
 20
740.4427847211
 30
0.0
 11
1444.3859763732
 21
740.4427847211
 31
0.0
  0
LINE
  5
3C9
330
1F
100
AcDbEntity
  8
0
  6
CONTINUOUS
 62
     7
100
AcDbLine
 10
1444.3859763732
 20
673.6427864377
 30
0.0
 11
1444.3859763732
 21
676.8427810018
 31
0.0
  0
LINE
  5
3CA
330
1F
100
AcDbEntity
  8
0
  6
CONTINUOUS
 62
     7
100
AcDbLine
 10
1435.1470426945
 20
673.6427864377
 30
0.0
 11
1444.3859763732
 21
673.6427864377
 31
0.0
  0
LINE
  5
3CB
330
1F
100
AcDbEntity
  8
0
  6
CONTINUOUS
 62
     7
100
AcDbLine
 10
1435.1470426945
 20
673.6427864377
 30
0.0
 11
1435.1470426945
 21
676.6427850668
 31
0.0
  0
LINE
  5
3CC
330
1F
100
AcDbEntity
  8
0
  6
CONTINUOUS
 62
     7
100
AcDbLine
 10
1435.1470426945
 20
676.6427850668
 30
0.0
 11
1435.5123791201
 21
676.6427850668
 31
0.0
  0
LINE
  5
3CD
330
1F
100
AcDbEntity
  8
0
  6
CONTINUOUS
 62
     7
100
AcDbLine
 10
1435.5123791201
 20
676.6427850668
 30
0.0
 11
1435.5123791201
 21
692.4427843039
 31
0.0
  0
LINE
  5
3CE
330
1F
100
AcDbEntity
  8
0
  6
CONTINUOUS
 62
     7
100
AcDbLine
 10
1435.5123791201
 20
692.4427843039
 30
0.0
 11
1435.1470426945
 21
692.4427843039
 31
0.0
  0
LINE
  5
3CF
330
1F
100
AcDbEntity
  8
0
  6
CONTINUOUS
 62
     7
100
AcDbLine
 10
1435.1470426945
 20
692.4427843039
 30
0.0
 11
1435.1470426945
 21
695.442782933
 31
0.0
  0
LINE
  5
3D0
330
1F
100
AcDbEntity
  8
0
  6
CONTINUOUS
 62
     7
100
AcDbLine
 10
1435.1470426945
 20
695.442782933
 30
0.0
 11
1444.3859763732
 21
695.442782933
 31
0.0
  0
LINE
  5
3D1
330
1F
100
AcDbEntity
  8
0
  6
CONTINUOUS
 62
     7
100
AcDbLine
 10
1444.3859763732
 20
692.2427809183
 30
0.0
 11
1444.3859763732
 21
695.442782933
 31
0.0
  0
LINE
  5
3D2
330
1F
100
AcDbEntity
  8
0
  6
CONTINUOUS
 62
     7
100
AcDbLine
 10
1444.3859763732
 20
692.2427809183
 30
0.0
 11
1444.6018718472
 21
692.2427809183
 31
0.0
  0
LINE
  5
3D3
330
1F
100
AcDbEntity
  8
0
  6
CONTINUOUS
 62
     7
100
AcDbLine
 10
1444.6018718472
 20
676.8427810018
 30
0.0
 11
1444.6018718472
 21
692.2427809183
 31
0.0
  0
LINE
  5
3D4
330
1F
100
AcDbEntity
  8
0
  6
CONTINUOUS
 62
     7
100
AcDbLine
 10
1444.3859763732
 20
676.8427810018
 30
0.0
 11
1444.6018718472
 21
676.8427810018
 31
0.0
  0
LINE
  5
3D5
330
1F
100
AcDbEntity
  8
0
  6
CONTINUOUS
 62
     7
100
AcDbLine
 10
1445.7633785959
 20
830.4427845721
 30
0.0
 11
1445.7633785959
 21
827.2427825574
 31
0.0
  0
LINE
  5
3D6
330
1F
100
AcDbEntity
  8
0
  6
CONTINUOUS
 62
     7
100
AcDbLine
 10
1447.0378740979
 20
830.4427845721
 30
0.0
 11
1447.0378740979
 21
808.6427843515
 31
0.0
  0
LINE
  5
3D7
330
1F
100
AcDbEntity
  8
0
  6
CONTINUOUS
 62
     7
100
AcDbLine
 10
1445.7633785959
 20
808.6427843515
 30
0.0
 11
1445.7633785959
 21
811.8427826409
 31
0.0
  0
LINE
  5
3D8
330
1F
100
AcDbEntity
  8
0
  6
CONTINUOUS
 62
     7
100
AcDbLine
 10
1444.6018718472
 20
811.8427826409
 30
0.0
 11
1445.7633785959
 21
811.8427826409
 31
0.0
  0
LINE
  5
3D9
330
1F
100
AcDbEntity
  8
0
  6
CONTINUOUS
 62
     7
100
AcDbLine
 10
1444.6018718472
 20
827.2427825574
 30
0.0
 11
1445.7633785959
 21
827.2427825574
 31
0.0
  0
LINE
  5
3DA
330
1F
100
AcDbEntity
  8
0
  6
CONTINUOUS
 62
     7
100
AcDbLine
 10
1445.7633785959
 20
808.6427843515
 30
0.0
 11
1447.0378740979
 21
808.6427843515
 31
0.0
  0
LINE
  5
3DB
330
1F
100
AcDbEntity
  8
0
  6
CONTINUOUS
 62
     7
100
AcDbLine
 10
1445.7633785959
 20
830.4427845721
 30
0.0
 11
1447.0378740979
 21
830.4427845721
 31
0.0
  0
LINE
  5
3DC
330
1F
100
AcDbEntity
  8
0
  6
CONTINUOUS
 62
     7
100
AcDbLine
 10
1445.7633785959
 20
785.4427837153
 30
0.0
 11
1445.7633785959
 21
782.2427835633
 31
0.0
  0
LINE
  5
3DD
330
1F
100
AcDbEntity
  8
0
  6
CONTINUOUS
 62
     7
100
AcDbLine
 10
1447.0378740979
 20
763.6427834947
 30
0.0
 11
1447.0378740979
 21
785.4427837153
 31
0.0
  0
LINE
  5
3DE
330
1F
100
AcDbEntity
  8
0
  6
CONTINUOUS
 62
     7
100
AcDbLine
 10
1445.7633785959
 20
763.6427834947
 30
0.0
 11
1445.7633785959
 21
766.8427836467
 31
0.0
  0
LINE
  5
3DF
330
1F
100
AcDbEntity
  8
0
  6
CONTINUOUS
 62
     7
100
AcDbLine
 10
1444.6018718472
 20
766.8427836467
 30
0.0
 11
1445.7633785959
 21
766.8427836467
 31
0.0
  0
LINE
  5
3E0
330
1F
100
AcDbEntity
  8
0
  6
CONTINUOUS
 62
     7
100
AcDbLine
 10
1444.6018718472
 20
782.2427835633
 30
0.0
 11
1445.7633785959
 21
782.2427835633
 31
0.0
  0
LINE
  5
3E1
330
1F
100
AcDbEntity
  8
0
  6
CONTINUOUS
 62
     7
100
AcDbLine
 10
1445.7633785959
 20
763.6427834947
 30
0.0
 11
1447.0378740979
 21
763.6427834947
 31
0.0
  0
LINE
  5
3E2
330
1F
100
AcDbEntity
  8
0
  6
CONTINUOUS
 62
     7
100
AcDbLine
 10
1445.7633785959
 20
785.4427837153
 30
0.0
 11
1447.0378740979
 21
785.4427837153
 31
0.0
  0
LINE
  5
3E3
330
1F
100
AcDbEntity
  8
0
  6
CONTINUOUS
 62
     7
100
AcDbLine
 10
1445.7633785959
 20
740.4427847211
 30
0.0
 11
1445.7633785959
 21
737.2427827065
 31
0.0
  0
LINE
  5
3E4
330
1F
100
AcDbEntity
  8
0
  6
CONTINUOUS
 62
     7
100
AcDbLine
 10
1447.0378740979
 20
740.4427847211
 30
0.0
 11
1447.0378740979
 21
718.6427845006
 31
0.0
  0
LINE
  5
3E5
330
1F
100
AcDbEntity
  8
0
  6
CONTINUOUS
 62
     7
100
AcDbLine
 10
1445.7633785959
 20
718.6427845006
 30
0.0
 11
1445.7633785959
 21
721.8427827899
 31
0.0
  0
LINE
  5
3E6
330
1F
100
AcDbEntity
  8
0
  6
CONTINUOUS
 62
     7
100
AcDbLine
 10
1444.6018718472
 20
721.8427827899
 30
0.0
 11
1445.7633785959
 21
721.8427827899
 31
0.0
  0
LINE
  5
3E7
330
1F
100
AcDbEntity
  8
0
  6
CONTINUOUS
 62
     7
100
AcDbLine
 10
1444.6018718472
 20
737.2427827065
 30
0.0
 11
1445.7633785959
 21
737.2427827065
 31
0.0
  0
LINE
  5
3E8
330
1F
100
AcDbEntity
  8
0
  6
CONTINUOUS
 62
     7
100
AcDbLine
 10
1445.7633785959
 20
718.6427845006
 30
0.0
 11
1447.0378740979
 21
718.6427845006
 31
0.0
  0
LINE
  5
3E9
330
1F
100
AcDbEntity
  8
0
  6
CONTINUOUS
 62
     7
100
AcDbLine
 10
1445.7633785959
 20
740.4427847211
 30
0.0
 11
1447.0378740979
 21
740.4427847211
 31
0.0
  0
LINE
  5
3EA
330
1F
100
AcDbEntity
  8
0
  6
CONTINUOUS
 62
     7
100
AcDbLine
 10
1445.7633785959
 20
695.442782933
 30
0.0
 11
1445.7633785959
 21
692.2427809183
 31
0.0
  0
LINE
  5
3EB
330
1F
100
AcDbEntity
  8
0
  6
CONTINUOUS
 62
     7
100
AcDbLine
 10
1447.0378740979
 20
673.6427864377
 30
0.0
 11
1447.0378740979
 21
695.442782933
 31
0.0
  0
LINE
  5
3EC
330
1F
100
AcDbEntity
  8
0
  6
CONTINUOUS
 62
     7
100
AcDbLine
 10
1445.7633785959
 20
673.6427864377
 30
0.0
 11
1445.7633785959
 21
676.8427810018
 31
0.0
  0
LINE
  5
3ED
330
1F
100
AcDbEntity
  8
0
  6
CONTINUOUS
 62
     7
100
AcDbLine
 10
1444.6018718472
 20
676.8427810018
 30
0.0
 11
1445.7633785959
 21
676.8427810018
 31
0.0
  0
LINE
  5
3EE
330
1F
100
AcDbEntity
  8
0
  6
CONTINUOUS
 62
     7
100
AcDbLine
 10
1444.6018718472
 20
692.2427809183
 30
0.0
 11
1445.7633785959
 21
692.2427809183
 31
0.0
  0
LINE
  5
3EF
330
1F
100
AcDbEntity
  8
0
  6
CONTINUOUS
 62
     7
100
AcDbLine
 10
1445.7633785959
 20
673.6427864377
 30
0.0
 11
1447.0378740979
 21
673.6427864377
 31
0.0
  0
LINE
  5
3F0
330
1F
100
AcDbEntity
  8
0
  6
CONTINUOUS
 62
     7
100
AcDbLine
 10
1445.7633785959
 20
695.442782933
 30
0.0
 11
1447.0378740979
 21
695.442782933
 31
0.0
  0
LINE
  5
3F1
330
1F
100
AcDbEntity
  8
0
  6
CONTINUOUS
 62
     7
100
AcDbLine
 10
1433.3956552027
 20
830.4427845721
 30
0.0
 11
1433.3956552027
 21
827.4427822177
 31
0.0
  0
LINE
  5
3F2
330
1F
100
AcDbEntity
  8
0
  6
CONTINUOUS
 62
     7
100
AcDbLine
 10
1433.3956552027
 20
827.4427822177
 30
0.0
 11
1435.1470426945
 21
827.4427822177
 31
0.0
  0
LINE
  5
3F3
330
1F
100
AcDbEntity
  8
0
  6
CONTINUOUS
 62
     7
100
AcDbLine
 10
1433.3956552027
 20
830.4427845721
 30
0.0
 11
1435.1470426945
 21
830.4427845721
 31
0.0
  0
LINE
  5
3F4
330
1F
100
AcDbEntity
  8
0
  6
CONTINUOUS
 62
     7
100
AcDbLine
 10
1433.3956552027
 20
811.6427829806
 30
0.0
 11
1433.3956552027
 21
808.6427843515
 31
0.0
  0
LINE
  5
3F5
330
1F
100
AcDbEntity
  8
0
  6
CONTINUOUS
 62
     7
100
AcDbLine
 10
1433.3956552027
 20
811.6427829806
 30
0.0
 11
1435.1470426945
 21
811.6427829806
 31
0.0
  0
LINE
  5
3F6
330
1F
100
AcDbEntity
  8
0
  6
CONTINUOUS
 62
     7
100
AcDbLine
 10
1433.3956552027
 20
808.6427843515
 30
0.0
 11
1435.1470426945
 21
808.6427843515
 31
0.0
  0
LINE
  5
3F7
330
1F
100
AcDbEntity
  8
0
  6
CONTINUOUS
 62
     7
100
AcDbLine
 10
1433.3956552027
 20
785.4427837153
 30
0.0
 11
1433.3956552027
 21
782.4427836892
 31
0.0
  0
LINE
  5
3F8
330
1F
100
AcDbEntity
  8
0
  6
CONTINUOUS
 62
     7
100
AcDbLine
 10
1433.3956552027
 20
782.4427836892
 30
0.0
 11
1435.1470426945
 21
782.4427836892
 31
0.0
  0
LINE
  5
3F9
330
1F
100
AcDbEntity
  8
0
  6
CONTINUOUS
 62
     7
100
AcDbLine
 10
1433.3956552027
 20
785.4427837153
 30
0.0
 11
1435.1470426945
 21
785.4427837153
 31
0.0
  0
LINE
  5
3FA
330
1F
100
AcDbEntity
  8
0
  6
CONTINUOUS
 62
     7
100
AcDbLine
 10
1433.3956552027
 20
766.6427830551
 30
0.0
 11
1433.3956552027
 21
763.6427834947
 31
0.0
  0
LINE
  5
3FB
330
1F
100
AcDbEntity
  8
0
  6
CONTINUOUS
 62
     7
100
AcDbLine
 10
1433.3956552027
 20
766.6427830551
 30
0.0
 11
1435.1470426945
 21
766.6427830551
 31
0.0
  0
LINE
  5
3FC
330
1F
100
AcDbEntity
  8
0
  6
CONTINUOUS
 62
     7
100
AcDbLine
 10
1433.3956552027
 20
763.6427834947
 30
0.0
 11
1435.1470426945
 21
763.6427834947
 31
0.0
  0
LINE
  5
3FD
330
1F
100
AcDbEntity
  8
0
  6
CONTINUOUS
 62
     7
100
AcDbLine
 10
1433.3956552027
 20
740.4427847211
 30
0.0
 11
1433.3956552027
 21
737.4427823667
 31
0.0
  0
LINE
  5
3FE
330
1F
100
AcDbEntity
  8
0
  6
CONTINUOUS
 62
     7
100
AcDbLine
 10
1433.3956552027
 20
737.4427823667
 30
0.0
 11
1435.1470426945
 21
737.4427823667
 31
0.0
  0
LINE
  5
3FF
330
1F
100
AcDbEntity
  8
0
  6
CONTINUOUS
 62
     7
100
AcDbLine
 10
1433.3956552027
 20
740.4427847211
 30
0.0
 11
1435.1470426945
 21
740.4427847211
 31
0.0
  0
LINE
  5
400
330
1F
100
AcDbEntity
  8
0
  6
CONTINUOUS
 62
     7
100
AcDbLine
 10
1433.3956552027
 20
721.6427831296
 30
0.0
 11
1433.3956552027
 21
718.6427845006
 31
0.0
  0
LINE
  5
401
330
1F
100
AcDbEntity
  8
0
  6
CONTINUOUS
 62
     7
100
AcDbLine
 10
1433.3956552027
 20
721.6427831296
 30
0.0
 11
1435.1470426945
 21
721.6427831296
 31
0.0
  0
LINE
  5
402
330
1F
100
AcDbEntity
  8
0
  6
CONTINUOUS
 62
     7
100
AcDbLine
 10
1433.3956552027
 20
718.6427845006
 30
0.0
 11
1435.1470426945
 21
718.6427845006
 31
0.0
  0
LINE
  5
403
330
1F
100
AcDbEntity
  8
0
  6
CONTINUOUS
 62
     7
100
AcDbLine
 10
1433.3956552027
 20
695.442782933
 30
0.0
 11
1433.3956552027
 21
692.4427843039
 31
0.0
  0
LINE
  5
404
330
1F
100
AcDbEntity
  8
0
  6
CONTINUOUS
 62
     7
100
AcDbLine
 10
1435.1470426945
 20
692.4427843039
 30
0.0
 11
1433.3956552027
 21
692.4427843039
 31
0.0
  0
LINE
  5
405
330
1F
100
AcDbEntity
  8
0
  6
CONTINUOUS
 62
     7
100
AcDbLine
 10
1433.3956552027
 20
695.442782933
 30
0.0
 11
1435.1470426945
 21
695.442782933
 31
0.0
  0
LINE
  5
406
330
1F
100
AcDbEntity
  8
0
  6
CONTINUOUS
 62
     7
100
AcDbLine
 10
1433.3956552027
 20
676.6427850668
 30
0.0
 11
1433.3956552027
 21
673.6427864377
 31
0.0
  0
LINE
  5
407
330
1F
100
AcDbEntity
  8
0
  6
CONTINUOUS
 62
     7
100
AcDbLine
 10
1433.3956552027
 20
676.6427850668
 30
0.0
 11
1435.1470426945
 21
676.6427850668
 31
0.0
  0
LINE
  5
408
330
1F
100
AcDbEntity
  8
0
  6
CONTINUOUS
 62
     7
100
AcDbLine
 10
1433.3956552027
 20
673.6427864377
 30
0.0
 11
1435.1470426945
 21
673.6427864377
 31
0.0
  0
LINE
  5
409
330
1F
100
AcDbEntity
  8
0
  6
CONTINUOUS
 62
     7
100
AcDbLine
 10
1445.7633785959
 20
830.4427845721
 30
0.0
 11
1444.3859763732
 21
830.4427845721
 31
0.0
  0
LINE
  5
40A
330
1F
100
AcDbEntity
  8
0
  6
CONTINUOUS
 62
     7
100
AcDbLine
 10
1445.7633785959
 20
808.6427843515
 30
0.0
 11
1444.3859763732
 21
808.6427843515
 31
0.0
  0
LINE
  5
40B
330
1F
100
AcDbEntity
  8
0
  6
CONTINUOUS
 62
     7
100
AcDbLine
 10
1445.7633785959
 20
785.4427837153
 30
0.0
 11
1444.3859763732
 21
785.4427837153
 31
0.0
  0
LINE
  5
40C
330
1F
100
AcDbEntity
  8
0
  6
CONTINUOUS
 62
     7
100
AcDbLine
 10
1445.7633785959
 20
763.6427834947
 30
0.0
 11
1444.3859763732
 21
763.6427834947
 31
0.0
  0
LINE
  5
40D
330
1F
100
AcDbEntity
  8
0
  6
CONTINUOUS
 62
     7
100
AcDbLine
 10
1445.7633785959
 20
740.4427847211
 30
0.0
 11
1444.3859763732
 21
740.4427847211
 31
0.0
  0
LINE
  5
40E
330
1F
100
AcDbEntity
  8
0
  6
CONTINUOUS
 62
     7
100
AcDbLine
 10
1445.7633785959
 20
718.6427845006
 30
0.0
 11
1444.3859763732
 21
718.6427845006
 31
0.0
  0
LINE
  5
40F
330
1F
100
AcDbEntity
  8
0
  6
CONTINUOUS
 62
     7
100
AcDbLine
 10
1445.7633785959
 20
695.442782933
 30
0.0
 11
1444.3859763732
 21
695.442782933
 31
0.0
  0
LINE
  5
410
330
1F
100
AcDbEntity
  8
0
  6
CONTINUOUS
 62
     7
100
AcDbLine
 10
1445.7633785959
 20
673.6427864377
 30
0.0
 11
1444.3859763732
 21
673.6427864377
 31
0.0
  0
LINE
  5
411
330
1F
100
AcDbEntity
  8
0
  6
CONTINUOUS
 62
     7
100
AcDbLine
 10
1435.0553148715
 20
867.3243468945
 30
0.0
 11
1447.0378740979
 21
867.7427864019
 31
0.0
  0
LINE
  5
412
330
1F
100
AcDbEntity
  8
0
  6
CONTINUOUS
 62
     7
100
AcDbLine
 10
1447.0378740979
 20
867.7427864019
 30
0.0
 11
1447.0378740979
 21
862.2461354677
 31
0.0
  0
LINE
  5
413
330
1F
100
AcDbEntity
  8
0
  6
CONTINUOUS
 62
     7
100
AcDbLine
 10
1435.0553139402
 20
861.8276959602
 30
0.0
 11
1447.0378740979
 21
862.2461354677
 31
0.0
  0
ARC
  5
414
330
1F
100
AcDbEntity
  8
0
  6
CONTINUOUS
 62
     7
100
AcDbCircle
 10
1321.8131704
 20
864.5760598016
 30
0.0
 40
113.2755018504101
100
AcDbArc
 50
358.6097161348
 51
1.3902450336
  0
LINE
  5
415
330
1F
100
AcDbEntity
  8
0
  6
CONTINUOUS
 62
     7
100
AcDbLine
 10
1439.2442040434
 20
846.618430907
 30
0.0
 11
1438.2907555727
 21
846.6433978025
 31
0.0
  0
LINE
  5
416
330
1F
100
AcDbEntity
  8
0
  6
CONTINUOUS
 62
     7
100
AcDbLine
 10
1439.2442040434
 20
846.618430907
 30
0.0
 11
1439.2442040434
 21
830.4427845721
 31
0.0
  0
LINE
  5
417
330
1F
100
AcDbEntity
  8
0
  6
CONTINUOUS
 62
     7
100
AcDbLine
 10
1434.9897851525
 20
830.4427845721
 30
0.0
 11
1434.9897851525
 21
859.8463928644
 31
0.0
  0
LWPOLYLINE
  5
418
330
1F
100
AcDbEntity
  8
0
  6
CONTINUOUS
 62
     7
100
AcDbPolyline
 90
        3
 70
   128
 43
0.0
 10
1435.0553139402
 20
861.8276959602
 10
1435.0047915531
 20
860.718595082
 10
1434.9897851525
 20
859.8463928644
  0
LINE
  5
419
330
1F
100
AcDbEntity
  8
0
  6
CONTINUOUS
 62
     7
100
AcDbLine
 10
1447.0378740979
 20
853.9427837674
 30
0.0
 11
1447.0378740979
 21
862.2461354677
 31
0.0
  0
LINE
  5
41A
330
1F
100
AcDbEntity
  8
0
  6
CONTINUOUS
 62
     7
100
AcDbLine
 10
1447.0378740979
 20
853.9427837674
 30
0.0
 11
1439.2442040434
 21
853.9427837674
 31
0.0
  0
LINE
  5
41B
330
1F
100
AcDbEntity
  8
0
  6
CONTINUOUS
 62
     7
100
AcDbLine
 10
1439.2442040434
 20
853.9427837674
 30
0.0
 11
1439.2442040434
 21
850.2671366875
 31
0.0
  0
LINE
  5
41C
330
1F
100
AcDbEntity
  8
0
  6
CONTINUOUS
 62
     7
100
AcDbLine
 10
1438.2907555727
 20
850.2421697919
 30
0.0
 11
1439.2442040434
 21
850.2671366875
 31
0.0
  0
ARC
  5
41D
330
1F
100
AcDbEntity
  8
0
  6
CONTINUOUS
 62
     7
100
AcDbCircle
 10
1438.3378799016
 20
848.4427837972
 30
0.0
 40
1.800002961163272
100
AcDbArc
 50
91.5001829123
 51
268.4998170877
  0
LINE
  5
41E
330
1F
100
AcDbEntity
  8
0
  6
CONTINUOUS
 62
     7
100
AcDbLine
 10
1438.2907555727
 20
653.8433974926
 30
0.0
 11
1439.2442040434
 21
653.818430597
 31
0.0
  0
LINE
  5
41F
330
1F
100
AcDbEntity
  8
0
  6
CONTINUOUS
 62
     7
100
AcDbLine
 10
1439.2442040434
 20
653.818430597
 30
0.0
 11
1439.2442040434
 21
650.1427760665
 31
0.0
  0
LINE
  5
420
330
1F
100
AcDbEntity
  8
0
  6
CONTINUOUS
 62
     7
100
AcDbLine
 10
1447.0378740979
 20
650.1427760665
 30
0.0
 11
1439.2442040434
 21
650.1427760665
 31
0.0
  0
LINE
  5
421
330
1F
100
AcDbEntity
  8
0
  6
CONTINUOUS
 62
     7
100
AcDbLine
 10
1447.0378740979
 20
641.8394318168
 30
0.0
 11
1447.0378740979
 21
650.1427760665
 31
0.0
  0
LINE
  5
422
330
1F
100
AcDbEntity
  8
0
  6
CONTINUOUS
 62
     7
100
AcDbLine
 10
1435.0553139402
 20
642.2578713243
 30
0.0
 11
1447.0378740979
 21
641.8394318168
 31
0.0
  0
LWPOLYLINE
  5
423
330
1F
100
AcDbEntity
  8
0
  6
CONTINUOUS
 62
     7
100
AcDbPolyline
 90
        3
 70
   128
 43
0.0
 10
1435.0553139402
 20
642.2578713243
 10
1435.0047915531
 20
643.3669796531
 10
1434.9897851525
 20
644.2391744201
  0
LINE
  5
424
330
1F
100
AcDbEntity
  8
0
  6
CONTINUOUS
 62
     7
100
AcDbLine
 10
1434.9897851525
 20
644.2391744201
 30
0.0
 11
1434.9897851525
 21
673.6427864377
 31
0.0
  0
LINE
  5
425
330
1F
100
AcDbEntity
  8
0
  6
CONTINUOUS
 62
     7
100
AcDbLine
 10
1439.2442040434
 20
673.6427864377
 30
0.0
 11
1439.2442040434
 21
657.4671363775
 31
0.0
  0
LINE
  5
426
330
1F
100
AcDbEntity
  8
0
  6
CONTINUOUS
 62
     7
100
AcDbLine
 10
1439.2442040434
 20
657.4671363775
 30
0.0
 11
1438.2907555727
 21
657.4421694819
 31
0.0
  0
ARC
  5
427
330
1F
100
AcDbEntity
  8
0
  6
CONTINUOUS
 62
     7
100
AcDbCircle
 10
1438.3378829669
 20
655.6427834873
 30
0.0
 40
1.800003041415492
100
AcDbArc
 50
91.5002804499
 51
268.4997195501
  0
LINE
  5
428
330
1F
100
AcDbEntity
  8
0
  6
CONTINUOUS
 62
     7
100
AcDbLine
 10
1447.0378740979
 20
636.3427808826
 30
0.0
 11
1447.0378740979
 21
641.8394318168
 31
0.0
  0
LINE
  5
429
330
1F
100
AcDbEntity
  8
0
  6
CONTINUOUS
 62
     7
100
AcDbLine
 10
1435.0553148715
 20
636.76122039
 30
0.0
 11
1447.0378740979
 21
636.3427808826
 31
0.0
  0
ARC
  5
42A
330
1F
100
AcDbEntity
  8
0
  6
CONTINUOUS
 62
     7
100
AcDbCircle
 10
1321.9147238868
 20
639.5095266872
 30
0.0
 40
113.1739657159502
100
AcDbArc
 50
358.6084977116
 51
1.3915217042
  0
LINE
  5
42B
330
1F
100
AcDbEntity
  8
0
  6
CONTINUOUS
 62
     7
100
AcDbLine
 10
1440.1978741689
 20
853.9427837674
 30
0.0
 11
1440.1978741689
 21
850.2921035831
 31
0.0
  0
LINE
  5
42C
330
1F
100
AcDbEntity
  8
0
  6
CONTINUOUS
 62
     7
100
AcDbLine
 10
1439.2442040434
 20
850.2671366875
 30
0.0
 11
1440.1978741689
 21
850.2921035831
 31
0.0
  0
LINE
  5
42D
330
1F
100
AcDbEntity
  8
0
  6
CONTINUOUS
 62
     7
100
AcDbLine
 10
1440.1978741689
 20
846.5934640114
 30
0.0
 11
1440.1978741689
 21
830.4427845721
 31
0.0
  0
LINE
  5
42E
330
1F
100
AcDbEntity
  8
0
  6
CONTINUOUS
 62
     7
100
AcDbLine
 10
1439.2442040434
 20
846.618430907
 30
0.0
 11
1440.1978741689
 21
846.5934640114
 31
0.0
  0
LINE
  5
42F
330
1F
100
AcDbEntity
  8
0
  6
CONTINUOUS
 62
     7
100
AcDbLine
 10
1434.9897851525
 20
785.4427837153
 30
0.0
 11
1434.9897851525
 21
808.6427843515
 31
0.0
  0
LINE
  5
430
330
1F
100
AcDbEntity
  8
0
  6
CONTINUOUS
 62
     7
100
AcDbLine
 10
1439.2442040434
 20
808.6427843515
 30
0.0
 11
1439.2442040434
 21
785.4427837153
 31
0.0
  0
LINE
  5
431
330
1F
100
AcDbEntity
  8
0
  6
CONTINUOUS
 62
     7
100
AcDbLine
 10
1440.1978741689
 20
808.6427843515
 30
0.0
 11
1440.1978741689
 21
785.4427837153
 31
0.0
  0
LINE
  5
432
330
1F
100
AcDbEntity
  8
0
  6
CONTINUOUS
 62
     7
100
AcDbLine
 10
1439.2442040434
 20
763.6427834947
 30
0.0
 11
1439.2442040434
 21
740.4427847211
 31
0.0
  0
LINE
  5
433
330
1F
100
AcDbEntity
  8
0
  6
CONTINUOUS
 62
     7
100
AcDbLine
 10
1434.9897851525
 20
740.4427847211
 30
0.0
 11
1434.9897851525
 21
763.6427834947
 31
0.0
  0
LINE
  5
434
330
1F
100
AcDbEntity
  8
0
  6
CONTINUOUS
 62
     7
100
AcDbLine
 10
1440.1978741689
 20
763.6427834947
 30
0.0
 11
1440.1978741689
 21
740.4427847211
 31
0.0
  0
LINE
  5
435
330
1F
100
AcDbEntity
  8
0
  6
CONTINUOUS
 62
     7
100
AcDbLine
 10
1439.2442040434
 20
718.6427845006
 30
0.0
 11
1439.2442040434
 21
695.442782933
 31
0.0
  0
LINE
  5
436
330
1F
100
AcDbEntity
  8
0
  6
CONTINUOUS
 62
     7
100
AcDbLine
 10
1434.9897851525
 20
695.442782933
 30
0.0
 11
1434.9897851525
 21
718.6427845006
 31
0.0
  0
LINE
  5
437
330
1F
100
AcDbEntity
  8
0
  6
CONTINUOUS
 62
     7
100
AcDbLine
 10
1440.1978741689
 20
718.6427845006
 30
0.0
 11
1440.1978741689
 21
695.442782933
 31
0.0
  0
LINE
  5
438
330
1F
100
AcDbEntity
  8
0
  6
CONTINUOUS
 62
     7
100
AcDbLine
 10
1440.1978741689
 20
673.6427864377
 30
0.0
 11
1440.1978741689
 21
657.4921032731
 31
0.0
  0
LINE
  5
439
330
1F
100
AcDbEntity
  8
0
  6
CONTINUOUS
 62
     7
100
AcDbLine
 10
1439.2442040434
 20
657.4671363775
 30
0.0
 11
1440.1978741689
 21
657.4921032731
 31
0.0
  0
LINE
  5
43A
330
1F
100
AcDbEntity
  8
0
  6
CONTINUOUS
 62
     7
100
AcDbLine
 10
1440.1978741689
 20
653.7934637014
 30
0.0
 11
1440.1978741689
 21
650.1427760665
 31
0.0
  0
LINE
  5
43B
330
1F
100
AcDbEntity
  8
0
  6
CONTINUOUS
 62
     7
100
AcDbLine
 10
1439.2442040434
 20
653.818430597
 30
0.0
 11
1440.1978741689
 21
653.7934637014
 31
0.0
  0
ARC
  5
43C
330
1F
100
AcDbEntity
  8
0
  6
CONTINUOUS
 62
     7
100
AcDbCircle
 10
1458.3113829185
 20
232.5479055927
 30
0.0
 40
410.3694683950025
100
AcDbArc
 50
93.2487520471
 51
93.5814536707
  0
LINE
  5
43D
330
1F
100
AcDbEntity
  8
0
  6
CONTINUOUS
 62
     7
100
AcDbLine
 10
1432.6760632275
 20
642.1258619372
 30
0.0
 11
1432.6316940887
 21
644.2391744201
 31
0.0
  0
LINE
  5
43E
330
1F
100
AcDbEntity
  8
0
  6
CONTINUOUS
 62
     7
100
AcDbLine
 10
1434.9897851525
 20
644.2391744201
 30
0.0
 11
1432.6316940887
 21
644.2391744201
 31
0.0
  0
LINE
  5
43F
330
1F
100
AcDbEntity
  8
0
  6
CONTINUOUS
 62
     7
100
AcDbLine
 10
1434.9897851525
 20
859.8463928644
 30
0.0
 11
1432.6316940887
 21
859.8463928644
 31
0.0
  0
LINE
  5
440
330
1F
100
AcDbEntity
  8
0
  6
CONTINUOUS
 62
     7
100
AcDbLine
 10
1432.6755510001
 20
861.959586138
 30
0.0
 11
1432.6316940887
 21
859.8463928644
 31
0.0
  0
ARC
  5
441
330
1F
100
AcDbEntity
  8
0
  6
CONTINUOUS
 62
     7
100
AcDbCircle
 10
1458.3194473642
 20
1271.6752022586
 30
0.0
 40
410.5072451000448
100
AcDbArc
 50
266.418619928
 51
266.7512117047
  0
ARC
  5
442
330
1F
100
AcDbEntity
  8
0
  6
CONTINUOUS
 62
     7
100
AcDbCircle
 10
1435.1440289164
 20
639.2565779624
 30
0.0
 40
2.496934039139248
100
AcDbArc
 50
188.8212191936
 51
267.9638988171
  0
ARC
  5
443
330
1F
100
AcDbEntity
  8
0
  6
CONTINUOUS
 62
     7
100
AcDbCircle
 10
1413.725389383
 20
640.4950049245
 30
0.0
 40
19.02037558247769
100
AcDbArc
 50
355.1114512088
 51
4.8886804735
  0
ARC
  5
444
330
1F
100
AcDbEntity
  8
0
  6
CONTINUOUS
 62
     7
100
AcDbCircle
 10
1413.7257170457
 20
863.5905623598
 30
0.0
 40
19.02004847674674
100
AcDbArc
 50
355.1112577734
 51
4.8886105436
  0
ARC
  5
445
330
1F
100
AcDbEntity
  8
0
  6
CONTINUOUS
 62
     7
100
AcDbCircle
 10
1435.1440309291
 20
864.8288680975
 30
0.0
 40
2.4969359923333
100
AcDbArc
 50
92.0360602676
 51
171.1761457942
  0
LINE
  5
446
330
1F
100
AcDbEntity
  8
0
  6
CONTINUOUS
 62
     7
100
AcDbLine
 10
1432.6316940887
 20
859.8463928644
 30
0.0
 11
1432.6316940887
 21
827.4427822177
 31
0.0
  0
LINE
  5
447
330
1F
100
AcDbEntity
  8
0
  6
CONTINUOUS
 62
     7
100
AcDbLine
 10
1433.3956552027
 20
827.4427822177
 30
0.0
 11
1432.6316940887
 21
827.4427822177
 31
0.0
  0
LINE
  5
448
330
1F
100
AcDbEntity
  8
0
  6
CONTINUOUS
 62
     7
100
AcDbLine
 10
1432.6316940887
 20
676.6427850668
 30
0.0
 11
1432.6316940887
 21
644.2391744201
 31
0.0
  0
LINE
  5
449
330
1F
100
AcDbEntity
  8
0
  6
CONTINUOUS
 62
     7
100
AcDbLine
 10
1433.3956552027
 20
676.6427850668
 30
0.0
 11
1432.6316940887
 21
676.6427850668
 31
0.0
  0
LINE
  5
44A
330
1F
100
AcDbEntity
  8
0
  6
CONTINUOUS
 62
     7
100
AcDbLine
 10
1432.6316940887
 20
811.6427829806
 30
0.0
 11
1432.6316940887
 21
782.4427836892
 31
0.0
  0
LINE
  5
44B
330
1F
100
AcDbEntity
  8
0
  6
CONTINUOUS
 62
     7
100
AcDbLine
 10
1433.3956552027
 20
782.4427836892
 30
0.0
 11
1432.6316940887
 21
782.4427836892
 31
0.0
  0
LINE
  5
44C
330
1F
100
AcDbEntity
  8
0
  6
CONTINUOUS
 62
     7
100
AcDbLine
 10
1433.3956552027
 20
811.6427829806
 30
0.0
 11
1432.6316940887
 21
811.6427829806
 31
0.0
  0
LINE
  5
44D
330
1F
100
AcDbEntity
  8
0
  6
CONTINUOUS
 62
     7
100
AcDbLine
 10
1432.6316940887
 20
766.6427830551
 30
0.0
 11
1432.6316940887
 21
737.4427823667
 31
0.0
  0
LINE
  5
44E
330
1F
100
AcDbEntity
  8
0
  6
CONTINUOUS
 62
     7
100
AcDbLine
 10
1433.3956552027
 20
737.4427823667
 30
0.0
 11
1432.6316940887
 21
737.4427823667
 31
0.0
  0
LINE
  5
44F
330
1F
100
AcDbEntity
  8
0
  6
CONTINUOUS
 62
     7
100
AcDbLine
 10
1433.3956552027
 20
766.6427830551
 30
0.0
 11
1432.6316940887
 21
766.6427830551
 31
0.0
  0
LINE
  5
450
330
1F
100
AcDbEntity
  8
0
  6
CONTINUOUS
 62
     7
100
AcDbLine
 10
1432.6316940887
 20
721.6427831296
 30
0.0
 11
1432.6316940887
 21
692.4427843039
 31
0.0
  0
LINE
  5
451
330
1F
100
AcDbEntity
  8
0
  6
CONTINUOUS
 62
     7
100
AcDbLine
 10
1433.3956552027
 20
692.4427843039
 30
0.0
 11
1432.6316940887
 21
692.4427843039
 31
0.0
  0
LINE
  5
452
330
1F
100
AcDbEntity
  8
0
  6
CONTINUOUS
 62
     7
100
AcDbLine
 10
1433.3956552027
 20
721.6427831296
 30
0.0
 11
1432.6316940887
 21
721.6427831296
 31
0.0
  0
LINE
  5
453
330
1F
100
AcDbEntity
  8
0
  6
CONTINUOUS
 62
     7
100
AcDbLine
 10
1432.6316940887
 20
638.742076451
 30
0.0
 11
1432.6755640386
 21
638.8768723552
 31
0.0
  0
LINE
  5
454
330
1F
100
AcDbEntity
  8
0
  6
CONTINUOUS
 62
     7
100
AcDbLine
 10
1432.6316940887
 20
638.742076451
 30
0.0
 11
1431.4278804986
 21
644.4040110652
 31
0.0
  0
ARC
  5
455
330
1F
100
AcDbEntity
  8
0
  6
CONTINUOUS
 62
     7
100
AcDbCircle
 10
1399.073802606
 20
648.9651229392
 30
0.0
 40
32.7332100943651
100
AcDbArc
 50
351.9893040708
 51
358.5991089914
  0
LINE
  5
456
330
1F
100
AcDbEntity
  8
0
  6
CONTINUOUS
 62
     7
100
AcDbLine
 10
1431.7972290618
 20
648.1648704354
 30
0.0
 11
1432.6316940887
 21
644.2391744201
 31
0.0
  0
ARC
  5
457
330
1F
100
AcDbEntity
  8
0
  6
CONTINUOUS
 62
     7
100
AcDbCircle
 10
1399.0739365074
 20
855.1204569528
 30
0.0
 40
32.73307574260448
100
AcDbArc
 50
1.4008616397
 51
8.0107067393
  0
LINE
  5
458
330
1F
100
AcDbEntity
  8
0
  6
CONTINUOUS
 62
     7
100
AcDbLine
 10
1432.6316940887
 20
865.3434908335
 30
0.0
 11
1431.4278804986
 21
859.6815562193
 31
0.0
  0
LINE
  5
459
330
1F
100
AcDbEntity
  8
0
  6
CONTINUOUS
 62
     7
100
AcDbLine
 10
1432.6316940887
 20
865.3434908335
 30
0.0
 11
1432.6760548456
 21
865.2118763272
 31
0.0
  0
LINE
  5
45A
330
1F
100
AcDbEntity
  8
0
  6
CONTINUOUS
 62
     7
100
AcDbLine
 10
1431.7972290618
 20
855.9206893985
 30
0.0
 11
1432.6316940887
 21
859.8463928644
 31
0.0
  0
LINE
  5
45B
330
1F
100
AcDbEntity
  8
0
  6
CONTINUOUS
 62
     7
100
AcDbLine
 10
1431.3245698167
 20
827.4427822177
 30
0.0
 11
1431.3245698167
 21
831.600414807
 31
0.0
  0
LINE
  5
45C
330
1F
100
AcDbEntity
  8
0
  6
CONTINUOUS
 62
     7
100
AcDbLine
 10
1431.8570963396
 20
833.7983137314
 30
0.0
 11
1431.3245698167
 21
831.600414807
 31
0.0
  0
LINE
  5
45D
330
1F
100
AcDbEntity
  8
0
  6
CONTINUOUS
 62
     7
100
AcDbLine
 10
1431.8570963396
 20
833.7983137314
 30
0.0
 11
1431.8570963396
 21
854.1855087821
 31
0.0
  0
ELLIPSE
  5
45E
330
1F
100
AcDbEntity
  8
0
  6
CONTINUOUS
 62
     7
100
AcDbEllipse
 10
1430.6854948542
 20
854.1748690223
 30
0.0
 11
0.002374878144564718
 21
5.500219689613801
 31
0.0
210
0.0
220
0.0
230
1.0
 40
0.2130095649
 41
4.714416017003402
 42
5.035477291093146
  0
LINE
  5
45F
330
1F
100
AcDbEntity
  8
0
  6
CONTINUOUS
 62
     7
100
AcDbLine
 10
1432.6316940887
 20
827.4427822177
 30
0.0
 11
1431.3245698167
 21
827.4427822177
 31
0.0
  0
ELLIPSE
  5
460
330
1F
100
AcDbEntity
  8
0
  6
CONTINUOUS
 62
     7
100
AcDbEllipse
 10
1430.6854948542
 20
649.910697988
 30
0.0
 11
-0.002374878144564718
 21
5.500219689613801
 31
0.0
210
0.0
220
0.0
230
1.0
 40
0.2130095649
 41
4.389300669676251
 42
4.710361943765982
  0
LINE
  5
461
330
1F
100
AcDbEntity
  8
0
  6
CONTINUOUS
 62
     7
100
AcDbLine
 10
1431.8570963396
 20
670.2872535531
 30
0.0
 11
1431.8570963396
 21
649.9000510518
 31
0.0
  0
LINE
  5
462
330
1F
100
AcDbEntity
  8
0
  6
CONTINUOUS
 62
     7
100
AcDbLine
 10
1431.8570963396
 20
670.2872535531
 30
0.0
 11
1431.3245698167
 21
672.4851524775
 31
0.0
  0
LINE
  5
463
330
1F
100
AcDbEntity
  8
0
  6
CONTINUOUS
 62
     7
100
AcDbLine
 10
1431.3245698167
 20
672.4851524775
 30
0.0
 11
1431.3245698167
 21
676.6427850668
 31
0.0
  0
LINE
  5
464
330
1F
100
AcDbEntity
  8
0
  6
CONTINUOUS
 62
     7
100
AcDbLine
 10
1432.6316940887
 20
676.6427850668
 30
0.0
 11
1431.3245698167
 21
676.6427850668
 31
0.0
  0
LINE
  5
465
330
1F
100
AcDbEntity
  8
0
  6
CONTINUOUS
 62
     7
100
AcDbLine
 10
1431.3245698167
 20
782.4427836892
 30
0.0
 11
1431.3245698167
 21
811.6427829806
 31
0.0
  0
LINE
  5
466
330
1F
100
AcDbEntity
  8
0
  6
CONTINUOUS
 62
     7
100
AcDbLine
 10
1432.6316940887
 20
782.4427836892
 30
0.0
 11
1431.3245698167
 21
782.4427836892
 31
0.0
  0
LINE
  5
467
330
1F
100
AcDbEntity
  8
0
  6
CONTINUOUS
 62
     7
100
AcDbLine
 10
1432.6316940887
 20
811.6427829806
 30
0.0
 11
1431.3245698167
 21
811.6427829806
 31
0.0
  0
LINE
  5
468
330
1F
100
AcDbEntity
  8
0
  6
CONTINUOUS
 62
     7
100
AcDbLine
 10
1431.3245698167
 20
737.4427823667
 30
0.0
 11
1431.3245698167
 21
766.6427830551
 31
0.0
  0
LINE
  5
469
330
1F
100
AcDbEntity
  8
0
  6
CONTINUOUS
 62
     7
100
AcDbLine
 10
1432.6316940887
 20
737.4427823667
 30
0.0
 11
1431.3245698167
 21
737.4427823667
 31
0.0
  0
LINE
  5
46A
330
1F
100
AcDbEntity
  8
0
  6
CONTINUOUS
 62
     7
100
AcDbLine
 10
1432.6316940887
 20
766.6427830551
 30
0.0
 11
1431.3245698167
 21
766.6427830551
 31
0.0
  0
LINE
  5
46B
330
1F
100
AcDbEntity
  8
0
  6
CONTINUOUS
 62
     7
100
AcDbLine
 10
1431.3245698167
 20
692.4427843039
 30
0.0
 11
1431.3245698167
 21
721.6427831296
 31
0.0
  0
LINE
  5
46C
330
1F
100
AcDbEntity
  8
0
  6
CONTINUOUS
 62
     7
100
AcDbLine
 10
1432.6316940887
 20
692.4427843039
 30
0.0
 11
1431.3245698167
 21
692.4427843039
 31
0.0
  0
LINE
  5
46D
330
1F
100
AcDbEntity
  8
0
  6
CONTINUOUS
 62
     7
100
AcDbLine
 10
1432.6316940887
 20
721.6427831296
 30
0.0
 11
1431.3245698167
 21
721.6427831296
 31
0.0
  0
ARC
  5
46E
330
1F
100
AcDbEntity
  8
0
  6
CONTINUOUS
 62
     7
100
AcDbCircle
 10
1435.0770342608
 20
639.2619890968
 30
0.0
 40
2.500000000000123
100
AcDbArc
 50
192.0032126248
 51
268.0
  0
LWPOLYLINE
  5
46F
330
1F
100
AcDbEntity
  8
0
  6
CONTINUOUS
 62
     7
100
AcDbPolyline
 90
        3
 70
   128
 43
0.0
 10
1434.9897851525
 20
636.7635151689
 10
1435.0130980192
 20
636.762695605
 10
1435.0553148715
 20
636.76122039
  0
ARC
  5
470
330
1F
100
AcDbEntity
  8
0
  6
CONTINUOUS
 62
     7
100
AcDbCircle
 10
1435.0770342608
 20
864.8235779135
 30
0.0
 40
2.500000000000155
100
AcDbArc
 50
92.0000000013
 51
167.9967874683
  0
LWPOLYLINE
  5
471
330
1F
100
AcDbEntity
  8
0
  6
CONTINUOUS
 62
     7
100
AcDbPolyline
 90
        3
 70
   128
 43
0.0
 10
1434.9897851525
 20
867.3220521156
 10
1435.0130980192
 20
867.3228716795
 10
1435.0553148715
 20
867.3243468945
  0
LINE
  5
472
330
1F
100
AcDbEntity
  8
0
  6
CONTINUOUS
 62
     7
100
AcDbLine
 10
1352.1878703786
 20
853.4902504031
 30
0.0
 11
1352.1878703786
 21
858.9900380318
 31
0.0
  0
LINE
  5
473
330
1F
100
AcDbEntity
  8
0
  6
CONTINUOUS
 62
     7
100
AcDbLine
 10
1352.1878703786
 20
858.9900380318
 30
0.0
 11
1431.4876043527
 21
859.6820777599
 31
0.0
  0
LINE
  5
474
330
1F
100
AcDbEntity
  8
0
  6
CONTINUOUS
 62
     7
100
AcDbLine
 10
1352.1878703786
 20
853.4902504031
 30
0.0
 11
1431.8570963396
 21
854.1855087821
 31
0.0
  0
LINE
  5
475
330
1F
100
AcDbEntity
  8
0
  6
CONTINUOUS
 62
     7
100
AcDbLine
 10
1431.8570963396
 20
833.7983137314
 30
0.0
 11
1354.1878744317
 21
834.1047300343
 31
0.0
  0
LINE
  5
476
330
1F
100
AcDbEntity
  8
0
  6
CONTINUOUS
 62
     7
100
AcDbLine
 10
1354.1878744317
 20
834.1047300343
 30
0.0
 11
1354.1878744317
 21
834.7468918507
 31
0.0
  0
LINE
  5
477
330
1F
100
AcDbEntity
  8
0
  6
CONTINUOUS
 62
     7
100
AcDbLine
 10
1352.1878703786
 20
834.7628845219
 30
0.0
 11
1354.1878744317
 21
834.7468918507
 31
0.0
  0
LINE
  5
478
330
1F
100
AcDbEntity
  8
0
  6
CONTINUOUS
 62
     7
100
AcDbLine
 10
1352.1878703786
 20
834.7628845219
 30
0.0
 11
1352.1878703786
 21
853.4902504031
 31
0.0
  0
LINE
  5
479
330
1F
100
AcDbEntity
  8
0
  6
CONTINUOUS
 62
     7
100
AcDbLine
 10
1431.3245698167
 20
831.600414807
 30
0.0
 11
1354.1878744317
 21
831.9047300462
 31
0.0
  0
LINE
  5
47A
330
1F
100
AcDbEntity
  8
0
  6
CONTINUOUS
 62
     7
100
AcDbLine
 10
1354.1878744317
 20
834.1047300343
 30
0.0
 11
1354.1878744317
 21
831.9047300462
 31
0.0
  0
LINE
  5
47B
330
1F
100
AcDbEntity
  8
0
  6
CONTINUOUS
 62
     7
100
AcDbLine
 10
1352.1878703786
 20
669.3226790373
 30
0.0
 11
1352.1878703786
 21
650.595324332
 31
0.0
  0
LINE
  5
47C
330
1F
100
AcDbEntity
  8
0
  6
CONTINUOUS
 62
     7
100
AcDbLine
 10
1352.1878703786
 20
669.3226790373
 30
0.0
 11
1354.1878744317
 21
669.3386754338
 31
0.0
  0
LINE
  5
47D
330
1F
100
AcDbEntity
  8
0
  6
CONTINUOUS
 62
     7
100
AcDbLine
 10
1354.1878744317
 20
669.9808409755
 30
0.0
 11
1354.1878744317
 21
669.3386754338
 31
0.0
  0
LINE
  5
47E
330
1F
100
AcDbEntity
  8
0
  6
CONTINUOUS
 62
     7
100
AcDbLine
 10
1431.8570963396
 20
670.2872535531
 30
0.0
 11
1354.1878744317
 21
669.9808409755
 31
0.0
  0
LINE
  5
47F
330
1F
100
AcDbEntity
  8
0
  6
CONTINUOUS
 62
     7
100
AcDbLine
 10
1352.1878703786
 20
650.595324332
 30
0.0
 11
1431.8570963396
 21
649.9000510518
 31
0.0
  0
LINE
  5
480
330
1F
100
AcDbEntity
  8
0
  6
CONTINUOUS
 62
     7
100
AcDbLine
 10
1431.3245698167
 20
672.4851524775
 30
0.0
 11
1354.1878744317
 21
672.1808409636
 31
0.0
  0
LINE
  5
481
330
1F
100
AcDbEntity
  8
0
  6
CONTINUOUS
 62
     7
100
AcDbLine
 10
1354.1878744317
 20
669.9808409755
 30
0.0
 11
1354.1878744317
 21
672.1808409636
 31
0.0
  0
LINE
  5
482
330
1F
100
AcDbEntity
  8
0
  6
CONTINUOUS
 62
     7
100
AcDbLine
 10
1352.1878703786
 20
645.0955292527
 30
0.0
 11
1431.4876043527
 21
644.4034895246
 31
0.0
  0
LINE
  5
483
330
1F
100
AcDbEntity
  8
0
  6
CONTINUOUS
 62
     7
100
AcDbLine
 10
1352.1878703786
 20
650.595324332
 30
0.0
 11
1352.1878703786
 21
645.0955292527
 31
0.0
  0
LINE
  5
484
330
1F
100
AcDbEntity
  8
0
  6
CONTINUOUS
 62
     7
100
AcDbLine
 10
1352.1878703786
 20
834.5121128802
 30
0.0
 11
1354.1878744317
 21
834.4930654709
 31
0.0
  0
LINE
  5
485
330
1F
100
AcDbEntity
  8
0
  6
CONTINUOUS
 62
     7
100
AcDbLine
 10
1352.1878703786
 20
834.7628845219
 30
0.0
 11
1352.1878703786
 21
834.5121128802
 31
0.0
  0
LINE
  5
486
330
1F
100
AcDbEntity
  8
0
  6
CONTINUOUS
 62
     7
100
AcDbLine
 10
1352.1878703786
 20
669.5734581296
 30
0.0
 11
1354.1878744317
 21
669.5925018136
 31
0.0
  0
LINE
  5
487
330
1F
100
AcDbEntity
  8
0
  6
CONTINUOUS
 62
     7
100
AcDbLine
 10
1352.1878703786
 20
669.3226790373
 30
0.0
 11
1352.1878703786
 21
669.5734581296
 31
0.0
  0
LINE
  5
488
330
1F
100
AcDbEntity
  8
0
  6
CONTINUOUS
 62
     7
100
AcDbLine
 10
1443.4378741598
 20
853.9427837674
 30
0.0
 11
1443.4378741598
 21
851.8562933747
 31
0.0
  0
LINE
  5
489
330
1F
100
AcDbEntity
  8
0
  6
CONTINUOUS
 62
     7
100
AcDbLine
 10
1443.4378741598
 20
851.8562933747
 30
0.0
 11
1443.4378741598
 21
830.4427845721
 31
0.0
  0
LINE
  5
48A
330
1F
100
AcDbEntity
  8
0
  6
CONTINUOUS
 62
     7
100
AcDbLine
 10
1443.4378741598
 20
808.6427843515
 30
0.0
 11
1443.4378741598
 21
785.4427837153
 31
0.0
  0
LINE
  5
48B
330
1F
100
AcDbEntity
  8
0
  6
CONTINUOUS
 62
     7
100
AcDbLine
 10
1443.4378741598
 20
763.6427834947
 30
0.0
 11
1443.4378741598
 21
740.4427847211
 31
0.0
  0
LINE
  5
48C
330
1F
100
AcDbEntity
  8
0
  6
CONTINUOUS
 62
     7
100
AcDbLine
 10
1443.4378741598
 20
718.6427845006
 30
0.0
 11
1443.4378741598
 21
695.442782933
 31
0.0
  0
LINE
  5
48D
330
1F
100
AcDbEntity
  8
0
  6
CONTINUOUS
 62
     7
100
AcDbLine
 10
1443.4378741598
 20
673.6427864377
 30
0.0
 11
1443.4378741598
 21
652.2292664592
 31
0.0
  0
LINE
  5
48E
330
1F
100
AcDbEntity
  8
0
  6
CONTINUOUS
 62
     7
100
AcDbLine
 10
1443.4378741598
 20
650.1427760665
 30
0.0
 11
1443.4378741598
 21
652.2292664592
 31
0.0
  0
LINE
  5
48F
330
1F
100
AcDbEntity
  8
0
  6
CONTINUOUS
 62
     7
100
AcDbLine
 10
1354.1878744317
 20
831.9047300462
 30
0.0
 11
1354.1878744317
 21
672.1808409636
 31
0.0
  0
LINE
  5
490
330
1F
100
AcDbEntity
  8
0
  6
CONTINUOUS
 62
     7
100
AcDbLine
 10
1444.2178740455
 20
853.9427837674
 30
0.0
 11
1444.2178740455
 21
830.4427845721
 31
0.0
  0
LINE
  5
491
330
1F
100
AcDbEntity
  8
0
  6
CONTINUOUS
 62
     7
100
AcDbLine
 10
1444.2178740455
 20
808.6427843515
 30
0.0
 11
1444.2178740455
 21
785.4427837153
 31
0.0
  0
LINE
  5
492
330
1F
100
AcDbEntity
  8
0
  6
CONTINUOUS
 62
     7
100
AcDbLine
 10
1444.2178740455
 20
763.6427834947
 30
0.0
 11
1444.2178740455
 21
740.4427847211
 31
0.0
  0
LINE
  5
493
330
1F
100
AcDbEntity
  8
0
  6
CONTINUOUS
 62
     7
100
AcDbLine
 10
1444.2178740455
 20
718.6427845006
 30
0.0
 11
1444.2178740455
 21
695.442782933
 31
0.0
  0
LINE
  5
494
330
1F
100
AcDbEntity
  8
0
  6
CONTINUOUS
 62
     7
100
AcDbLine
 10
1444.2178740455
 20
673.6427864377
 30
0.0
 11
1444.2178740455
 21
650.1427760665
 31
0.0
  0
LINE
  5
495
330
1F
100
AcDbEntity
  8
0
  6
CONTINUOUS
 62
     7
100
AcDbLine
 10
1447.0378740979
 20
853.9427837674
 30
0.0
 11
1447.0378740979
 21
830.4427845721
 31
0.0
  0
LINE
  5
496
330
1F
100
AcDbEntity
  8
0
  6
CONTINUOUS
 62
     7
100
AcDbLine
 10
1447.0378740979
 20
808.6427843515
 30
0.0
 11
1447.0378740979
 21
785.4427837153
 31
0.0
  0
LINE
  5
497
330
1F
100
AcDbEntity
  8
0
  6
CONTINUOUS
 62
     7
100
AcDbLine
 10
1447.0378740979
 20
763.6427834947
 30
0.0
 11
1447.0378740979
 21
740.4427847211
 31
0.0
  0
LINE
  5
498
330
1F
100
AcDbEntity
  8
0
  6
CONTINUOUS
 62
     7
100
AcDbLine
 10
1447.0378740979
 20
718.6427845006
 30
0.0
 11
1447.0378740979
 21
695.442782933
 31
0.0
  0
LINE
  5
499
330
1F
100
AcDbEntity
  8
0
  6
CONTINUOUS
 62
     7
100
AcDbLine
 10
1447.0378740979
 20
673.6427864377
 30
0.0
 11
1447.0378740979
 21
650.1427760665
 31
0.0
  0
LINE
  5
49A
330
1F
100
AcDbEntity
  8
0
  6
CONTINUOUS
 62
     8
100
AcDbLine
 10
1440.1978741689
 20
851.9665172641
 30
0.0
 11
1443.4378741598
 21
851.8562933747
 31
0.0
  0
LINE
  5
49B
330
1F
100
AcDbEntity
  8
0
  6
CONTINUOUS
 62
     8
100
AcDbLine
 10
1440.1978741689
 20
652.119057471
 30
0.0
 11
1443.4378741598
 21
652.2292664592
 31
0.0
  0
LINE
  5
49C
330
1F
100
AcDbEntity
  8
0
  6
CONTINUOUS
 62
     7
100
AcDbLine
 10
1201.1323304243
 20
459.085932794
 30
0.0
 11
1200.8084387846
 21
459.085932794
 31
0.0
  0
LINE
  5
49D
330
1F
100
AcDbEntity
  8
0
  6
CONTINUOUS
 62
     7
100
AcDbLine
 10
1206.3651562995
 20
423.3766448227
 30
0.0
 11
1206.783595807
 21
411.3940846649
 31
0.0
  0
LINE
  5
49E
330
1F
100
AcDbEntity
  8
0
  6
CONTINUOUS
 62
     7
100
AcDbLine
 10
1201.2869448728
 20
411.3940846649
 30
0.0
 11
1206.783595807
 21
411.3940846649
 31
0.0
  0
LINE
  5
49F
330
1F
100
AcDbEntity
  8
0
  6
CONTINUOUS
 62
     7
100
AcDbLine
 10
1200.8685053653
 20
423.3766438914
 30
0.0
 11
1201.2869448728
 21
411.3940846649
 31
0.0
  0
ARC
  5
4A0
330
1F
100
AcDbEntity
  8
0
  6
CONTINUOUS
 62
     7
100
AcDbCircle
 10
1203.6167924672
 20
536.592168974
 30
0.0
 40
113.2488902994333
100
AcDbArc
 50
268.6094282139
 51
271.3906106177
  0
LINE
  5
4A1
330
1F
100
AcDbEntity
  8
0
  6
CONTINUOUS
 62
     7
100
AcDbLine
 10
984.6986861295
 20
423.3766438914
 30
0.0
 11
984.280246622
 21
411.3940846649
 31
0.0
  0
LWPOLYLINE
  5
4A2
330
1F
100
AcDbEntity
  8
0
  6
CONTINUOUS
 62
     7
100
AcDbPolyline
 90
        3
 70
   128
 43
0.0
 10
986.6799892253
 20
423.4421736104
 10
985.5700166292
 20
423.4188607437
 10
984.6986861295
 20
423.3766438914
  0
LINE
  5
4A3
330
1F
100
AcDbEntity
  8
0
  6
CONTINUOUS
 62
     7
100
AcDbLine
 10
1198.8872022695
 20
423.4421736104
 30
0.0
 11
986.6799892253
 21
423.4421736104
 31
0.0
  0
LWPOLYLINE
  5
4A4
330
1F
100
AcDbEntity
  8
0
  6
CONTINUOUS
 62
     7
100
AcDbPolyline
 90
        3
 70
   128
 43
0.0
 10
1198.8872022695
 20
423.4421736104
 10
1199.9971748657
 20
423.4188607437
 10
1200.8685053653
 20
423.3766438914
  0
LINE
  5
4A5
330
1F
100
AcDbEntity
  8
0
  6
CONTINUOUS
 62
     7
100
AcDbLine
 10
1201.2869448728
 20
411.3940846649
 30
0.0
 11
984.280246622
 21
411.3940846649
 31
0.0
  0
LINE
  5
4A6
330
1F
100
AcDbEntity
  8
0
  6
CONTINUOUS
 62
     7
100
AcDbLine
 10
984.280246622
 20
411.3940846649
 30
0.0
 11
978.7835956878
 21
411.3940846649
 31
0.0
  0
LINE
  5
4A7
330
1F
100
AcDbEntity
  8
0
  6
CONTINUOUS
 62
     7
100
AcDbLine
 10
979.2020351953
 20
423.3766448227
 30
0.0
 11
978.7835956878
 21
411.3940846649
 31
0.0
  0
ARC
  5
4A8
330
1F
100
AcDbEntity
  8
0
  6
CONTINUOUS
 62
     7
100
AcDbCircle
 10
981.9503990357
 20
536.6158254717
 30
0.0
 40
113.2725398314371
100
AcDbArc
 50
268.609679773
 51
271.3902813955
  0
LINE
  5
4A9
330
1F
100
AcDbEntity
  8
0
  6
CONTINUOUS
 62
     7
100
AcDbLine
 10
1198.8872022695
 20
423.4421736104
 30
0.0
 11
1198.8872022695
 21
425.8002646742
 31
0.0
  0
LINE
  5
4AA
330
1F
100
AcDbEntity
  8
0
  6
CONTINUOUS
 62
     7
100
AcDbLine
 10
1198.8872022695
 20
425.8002646742
 30
0.0
 11
1201.000395543
 21
425.7563947243
 31
0.0
  0
ARC
  5
4AB
330
1F
100
AcDbEntity
  8
0
  6
CONTINUOUS
 62
     7
100
AcDbCircle
 10
1610.7427339411
 20
400.1109067023
 30
0.0
 40
410.5340153720688
100
AcDbArc
 50
176.4186295028
 51
176.751199462
  0
ARC
  5
4AC
330
1F
100
AcDbEntity
  8
0
  6
CONTINUOUS
 62
     7
100
AcDbCircle
 10
574.931086183
 20
400.1171154876
 30
0.0
 40
410.4272060356419
100
AcDbArc
 50
3.2487782465
 51
3.581432807
  0
LINE
  5
4AD
330
1F
100
AcDbEntity
  8
0
  6
CONTINUOUS
 62
     7
100
AcDbLine
 10
986.6799892253
 20
425.8002646742
 30
0.0
 11
984.5666841931
 21
425.7559039173
 31
0.0
  0
LINE
  5
4AE
330
1F
100
AcDbEntity
  8
0
  6
CONTINUOUS
 62
     7
100
AcDbLine
 10
986.6799892253
 20
423.4421736104
 30
0.0
 11
986.6799892253
 21
425.8002646742
 31
0.0
  0
ARC
  5
4AF
330
1F
100
AcDbEntity
  8
0
  6
CONTINUOUS
 62
     7
100
AcDbCircle
 10
1202.6313244852
 20
444.705957828
 30
0.0
 40
19.01976593784504
100
AcDbArc
 50
265.1113053949
 51
274.8888262877
  0
LINE
  5
4B0
330
1F
100
AcDbEntity
  8
0
  6
CONTINUOUS
 62
     7
100
AcDbLine
 10
1206.3650445408
 20
423.3766410974
 30
0.0
 11
1206.2833936281
 21
423.7744443593
 31
0.0
  0
ARC
  5
4B1
330
1F
100
AcDbEntity
  8
0
  6
CONTINUOUS
 62
     7
100
AcDbCircle
 10
981.697397287
 20
423.2879255997
 30
0.0
 40
2.496938706535367
100
AcDbArc
 50
98.8211345069
 51
177.9638051137
  0
ARC
  5
4B2
330
1F
100
AcDbEntity
  8
0
  6
CONTINUOUS
 62
     7
100
AcDbCircle
 10
982.9358670097
 20
444.705957828
 30
0.0
 40
19.01976593784532
100
AcDbArc
 50
265.1111737123
 51
274.8886946051
  0
LINE
  5
4B3
330
1F
100
AcDbEntity
  8
0
  6
CONTINUOUS
 62
     7
100
AcDbLine
 10
986.6799892253
 20
425.8002646742
 30
0.0
 11
1198.8872022695
 21
425.8002646742
 31
0.0
  0
LINE
  5
4B4
330
1F
100
AcDbEntity
  8
0
  6
CONTINUOUS
 62
     7
100
AcDbLine
 10
1204.2526857323
 20
425.7558955354
 30
0.0
 11
1204.3843076891
 21
425.8002646742
 31
0.0
  0
LINE
  5
4B5
330
1F
100
AcDbEntity
  8
0
  6
CONTINUOUS
 62
     7
100
AcDbLine
 10
1198.8872022695
 20
425.8002646742
 30
0.0
 11
1193.2239191002
 21
427.0040782643
 31
0.0
  0
LINE
  5
4B6
330
1F
100
AcDbEntity
  8
0
  6
CONTINUOUS
 62
     7
100
AcDbLine
 10
1195.2381016082
 20
426.9443544102
 30
0.0
 11
1193.2239191002
 21
427.0040782643
 31
0.0
  0
ARC
  5
4B7
330
1F
100
AcDbEntity
  8
0
  6
CONTINUOUS
 62
     7
100
AcDbCircle
 10
1193.0984849419
 20
346.6810994123
 30
0.0
 40
80.29176833485344
100
AcDbArc
 50
84.7398071033
 51
88.4730001477
  0
LINE
  5
4B8
330
1F
100
AcDbEntity
  8
0
  6
CONTINUOUS
 62
     7
100
AcDbLine
 10
1200.4595355458
 20
426.634729701
 30
0.0
 11
1204.3843076891
 21
425.8002646742
 31
0.0
  0
ARC
  5
4B9
330
1F
100
AcDbEntity
  8
0
  6
CONTINUOUS
 62
     7
100
AcDbCircle
 10
992.4687065529
 20
346.6810994124
 30
0.0
 40
80.29176833477271
100
AcDbArc
 50
91.5269998523
 51
95.2601928967
  0
LINE
  5
4BA
330
1F
100
AcDbEntity
  8
0
  6
CONTINUOUS
 62
     7
100
AcDbLine
 10
990.3290898866
 20
426.9443544102
 30
0.0
 11
992.3432723946
 21
427.0040782643
 31
0.0
  0
LINE
  5
4BB
330
1F
100
AcDbEntity
  8
0
  6
CONTINUOUS
 62
     7
100
AcDbLine
 10
986.6799892253
 20
425.8002646742
 30
0.0
 11
992.3432723946
 21
427.0040782643
 31
0.0
  0
LINE
  5
4BC
330
1F
100
AcDbEntity
  8
0
  6
CONTINUOUS
 62
     7
100
AcDbLine
 10
981.3176871604
 20
425.7564077628
 30
0.0
 11
981.1828838057
 21
425.8002646742
 31
0.0
  0
LINE
  5
4BD
330
1F
100
AcDbEntity
  8
0
  6
CONTINUOUS
 62
     7
100
AcDbLine
 10
985.1076559491
 20
426.634729701
 30
0.0
 11
981.1828838057
 21
425.8002646742
 31
0.0
  0
LINE
  5
4BE
330
1F
100
AcDbEntity
  8
0
  6
CONTINUOUS
 62
     7
100
AcDbLine
 10
1193.2239191002
 20
427.0040782643
 30
0.0
 11
992.3432723946
 21
427.0040782643
 31
0.0
  0
ARC
  5
4BF
330
1F
100
AcDbEntity
  8
0
  6
CONTINUOUS
 62
     7
100
AcDbCircle
 10
1203.8643852363
 20
423.3549191023
 30
0.0
 40
2.500006864590318
100
AcDbArc
 50
2.0001267416
 51
77.9966776039
  0
LWPOLYLINE
  5
4C0
330
1F
100
AcDbEntity
  8
0
  6
CONTINUOUS
 62
     7
100
AcDbPolyline
 90
        3
 70
   128
 43
0.0
 10
1206.3635693259
 20
423.422034691
 10
1206.3633905119
 20
423.4271672097
 10
1206.3628689713
 20
423.4421736104
  0
ARC
  5
4C1
330
1F
100
AcDbEntity
  8
0
  6
CONTINUOUS
 62
     7
100
AcDbCircle
 10
981.7028062585
 20
423.3549191023
 30
0.0
 40
2.500006864590006
100
AcDbArc
 50
102.0033223961
 51
177.9998732584
  0
LWPOLYLINE
  5
4C2
330
1F
100
AcDbEntity
  8
0
  6
CONTINUOUS
 62
     7
100
AcDbPolyline
 90
        3
 70
   128
 43
0.0
 10
979.203622169
 20
423.422034691
 10
979.2038009829
 20
423.4271672097
 10
979.2043225235
 20
423.4421736104
  0
LINE
  5
4C3
330
1F
100
AcDbEntity
  8
0
  6
CONTINUOUS
 62
     7
100
AcDbLine
 10
1194.5460618801
 20
506.2440883843
 30
0.0
 11
1195.2381016082
 21
426.9443544102
 31
0.0
  0
LINE
  5
4C4
330
1F
100
AcDbEntity
  8
0
  6
CONTINUOUS
 62
     7
100
AcDbLine
 10
1200.0458495087
 20
506.2440883843
 30
0.0
 11
1194.5460618801
 21
506.2440883843
 31
0.0
  0
LINE
  5
4C5
330
1F
100
AcDbEntity
  8
0
  6
CONTINUOUS
 62
     7
100
AcDbLine
 10
1200.0458495087
 20
506.2440883843
 30
0.0
 11
1200.7411153383
 21
426.5748624233
 31
0.0
  0
LINE
  5
4C6
330
1F
100
AcDbEntity
  8
0
  6
CONTINUOUS
 62
     7
100
AcDbLine
 10
985.5213419861
 20
506.2440883843
 30
0.0
 11
991.0211296148
 21
506.2440883843
 31
0.0
  0
LINE
  5
4C7
330
1F
100
AcDbEntity
  8
0
  6
CONTINUOUS
 62
     7
100
AcDbLine
 10
991.0211296148
 20
506.2440883843
 30
0.0
 11
990.3290898866
 21
426.9443544102
 31
0.0
  0
LINE
  5
4C8
330
1F
100
AcDbEntity
  8
0
  6
CONTINUOUS
 62
     7
100
AcDbLine
 10
985.5213419861
 20
506.2440883843
 30
0.0
 11
984.8260761566
 21
426.5748624233
 31
0.0
  0
LINE
  5
4C9
330
1F
100
AcDbEntity
  8
0
  6
CONTINUOUS
 62
     7
100
AcDbLine
 10
991.0211296148
 20
506.2440883843
 30
0.0
 11
1009.7484917707
 21
506.2440883843
 31
0.0
  0
LINE
  5
4CA
330
1F
100
AcDbEntity
  8
0
  6
CONTINUOUS
 62
     7
100
AcDbLine
 10
1009.7484917707
 20
506.2440883843
 30
0.0
 11
1009.7644881672
 21
504.2440843312
 31
0.0
  0
LINE
  5
4CB
330
1F
100
AcDbEntity
  8
0
  6
CONTINUOUS
 62
     7
100
AcDbLine
 10
1009.7644881672
 20
504.2440843312
 30
0.0
 11
1175.8027033276
 21
504.2440843312
 31
0.0
  0
LINE
  5
4CC
330
1F
100
AcDbEntity
  8
0
  6
CONTINUOUS
 62
     7
100
AcDbLine
 10
1175.8186997241
 20
506.2440883843
 30
0.0
 11
1175.8027033276
 21
504.2440843312
 31
0.0
  0
LINE
  5
4CD
330
1F
100
AcDbEntity
  8
0
  6
CONTINUOUS
 62
     7
100
AcDbLine
 10
1194.5460618801
 20
506.2440883843
 30
0.0
 11
1175.8186997241
 21
506.2440883843
 31
0.0
  0
LINE
  5
4CE
330
1F
100
AcDbEntity
  8
0
  6
CONTINUOUS
 62
     7
100
AcDbLine
 10
1175.5679280824
 20
506.2440883843
 30
0.0
 11
1175.5488769478
 21
504.2440843312
 31
0.0
  0
LINE
  5
4CF
330
1F
100
AcDbEntity
  8
0
  6
CONTINUOUS
 62
     7
100
AcDbLine
 10
1175.5679280824
 20
506.2440883843
 30
0.0
 11
1175.8186997241
 21
506.2440883843
 31
0.0
  0
LINE
  5
4D0
330
1F
100
AcDbEntity
  8
0
  6
CONTINUOUS
 62
     7
100
AcDbLine
 10
1009.9992634124
 20
506.2440883843
 30
0.0
 11
1010.018314547
 21
504.2440843312
 31
0.0
  0
LINE
  5
4D1
330
1F
100
AcDbEntity
  8
0
  6
CONTINUOUS
 62
     7
100
AcDbLine
 10
1009.9992634124
 20
506.2440883843
 30
0.0
 11
1009.7484917707
 21
506.2440883843
 31
0.0
  0
ARC
  5
4D2
330
1F
100
AcDbEntity
  8
0
  6
CONTINUOUS
 62
     7
100
AcDbCircle
 10
972.7235957474
 20
418.4940846649
 30
0.0
 40
4.90000000000004
100
AcDbArc
 50
102.117060138
 51
245.1997945461
  0
LINE
  5
4D3
330
1F
100
AcDbEntity
  8
0
  6
CONTINUOUS
 62
     7
100
AcDbLine
 10
979.8526720471
 20
425.0363035602
 30
0.0
 11
971.6950388021
 21
423.2849160684
 31
0.0
  0
LINE
  5
4D4
330
1F
100
AcDbEntity
  8
0
  6
CONTINUOUS
 62
     7
100
AcDbLine
 10
974.8270244665
 20
412.6685801669
 30
0.0
 11
978.7835956878
 21
411.3940846649
 31
0.0
  0
LINE
  5
4D5
330
1F
100
AcDbEntity
  8
0
  6
CONTINUOUS
 62
     7
100
AcDbLine
 10
974.8270244665
 20
412.6685801669
 30
0.0
 11
974.6235938138
 21
418.4940847111
 31
0.0
  0
ARC
  5
4D6
330
1F
100
AcDbEntity
  8
0
  6
CONTINUOUS
 62
     7
100
AcDbCircle
 10
972.7235951788
 20
418.4940866286
 30
0.0
 40
1.899998635054716
100
AcDbArc
 50
359.9999421781
 51
180.0000578219
  0
LINE
  5
4D7
330
1F
100
AcDbEntity
  8
0
  6
CONTINUOUS
 62
     7
100
AcDbLine
 10
970.8235965437
 20
418.4940847111
 30
0.0
 11
970.6682668395
 21
414.0459823897
 31
0.0
  0
LINE
  5
4D8
330
1F
100
AcDbEntity
  8
0
  6
CONTINUOUS
 62
     7
100
AcDbLine
 10
971.221219129
 20
413.8300869157
 30
0.0
 11
974.8270244665
 21
412.6685801669
 31
0.0
  0
LWPOLYLINE
  5
4D9
330
1F
100
AcDbEntity
  8
0
  6
CONTINUOUS
 62
     7
100
AcDbPolyline
 90
        3
 70
   128
 43
0.0
 10
970.6682668395
 20
414.0459823897
 10
970.9746943182
 20
413.9168212199
 10
971.221219129
 20
413.8300869157
  0
ARC
  5
4DA
330
1F
100
AcDbEntity
  8
0
  6
CONTINUOUS
 62
     7
100
AcDbCircle
 10
972.723596647
 20
418.4940791637
 30
0.0
 40
1.899997166867619
100
AcDbArc
 50
181.9495258579
 51
0.0001672855
  0
LINE
  5
4DB
330
1F
100
AcDbEntity
  8
0
  6
CONTINUOUS
 62
     7
100
AcDbLine
 10
1201.585832364
 20
426.3952624527
 30
0.0
 11
1200.9286613531
 21
451.4916118709
 31
0.0
  0
LWPOLYLINE
  5
4DC
330
1F
100
AcDbEntity
  8
0
  6
CONTINUOUS
 62
     7
100
AcDbPolyline
 90
        5
 70
   128
 43
0.0
 10
1200.8778334922
 20
458.602811071
 10
1200.9037242598
 20
456.185093942
 10
1200.9170011944
 20
454.6206471053
 10
1200.9261728591
 20
453.0561518399
 10
1200.9286613531
 20
451.4916118709
  0
ARC
  5
4DD
330
1F
100
AcDbEntity
  8
0
  6
CONTINUOUS
 62
     7
100
AcDbCircle
 10
1201.2386061852
 20
450.1802418233
 30
0.0
 40
8.432399922860789
100
AcDbArc
 50
87.9364544485
 51
92.4522491965
  0
LINE
  5
4DE
330
1F
100
AcDbEntity
  8
0
  6
CONTINUOUS
 62
     7
100
AcDbLine
 10
1202.390219397
 20
426.2242371691
 30
0.0
 11
1201.542239017
 21
458.607173386
 31
0.0
  0
LINE
  5
4DF
330
1F
100
AcDbEntity
  8
0
  6
CONTINUOUS
 62
     7
100
AcDbLine
 10
1200.8886442847
 20
426.5434945477
 30
0.0
 11
1200.9286613531
 21
451.4916118709
 31
0.0
  0
LINE
  5
4E0
330
1F
100
AcDbEntity
  8
0
  6
CONTINUOUS
 62
     7
100
AcDbLine
 10
1200.8585588402
 20
459.0940837292
 30
0.0
 11
1200.4573227233
 21
459.0940837292
 31
0.0
  0
ARC
  5
4E1
330
1F
100
AcDbEntity
  8
0
  6
CONTINUOUS
 62
     7
100
AcDbCircle
 10
1199.1521309333
 20
458.7823355454
 30
0.0
 40
1.735015377091011
100
AcDbArc
 50
354.0608953416
 51
10.3511421096
  0
LINE
  5
4E2
330
1F
100
AcDbEntity
  8
0
  6
CONTINUOUS
 62
     7
100
AcDbLine
 10
1200.8585588402
 20
459.0940837292
 30
0.0
 11
1201.0424168176
 21
459.0940837292
 31
0.0
  0
ARC
  5
4E3
330
1F
100
AcDbEntity
  8
0
  6
CONTINUOUS
 62
     7
100
AcDbCircle
 10
1201.0424224046
 20
458.594096067
 30
0.0
 40
0.4999876621433905
100
AcDbArc
 50
1.4987582604
 51
90.0006402332
  0
LINE
  5
4E4
330
1F
100
AcDbEntity
  8
0
  6
CONTINUOUS
 62
     7
100
AcDbLine
 10
1200.8589090175
 20
459.0940837292
 30
0.0
 11
1200.8585588402
 21
459.0940837292
 31
0.0
  0
ARC
  5
4E5
330
1F
100
AcDbEntity
  8
0
  6
CONTINUOUS
 62
     8
100
AcDbCircle
 10
1203.9614766847
 20
423.4254459892
 30
0.0
 40
2.347998755118596
100
AcDbArc
 50
8.5479193185
 51
82.8752161346
  0
LINE
  5
4E6
330
1F
100
AcDbEntity
  8
0
  6
CONTINUOUS
 62
     8
100
AcDbLine
 10
1200.8778334922
 20
458.602811071
 30
0.0
 11
1200.4616142578
 21
458.602811071
 31
0.0
  0
LINE
  5
4E7
330
1F
100
AcDbEntity
  8
0
  6
CONTINUOUS
 62
     8
100
AcDbLine
 10
1206.3651562995
 20
423.3766438914
 30
0.0
 11
1206.2834904856
 21
423.7744676424
 31
0.0
  0
LINE
  5
4E8
330
1F
100
AcDbEntity
  8
0
  6
CONTINUOUS
 62
     7
100
AcDbLine
 10
667.1825876524
 20
673.6427864377
 30
0.0
 11
667.1825876524
 21
695.442782933
 31
0.0
  0
LINE
  5
4E9
330
1F
100
AcDbEntity
  8
0
  6
CONTINUOUS
 62
     7
100
AcDbLine
 10
667.1825876524
 20
718.6427845006
 30
0.0
 11
667.1825876524
 21
740.4427847211
 31
0.0
  0
LINE
  5
4EA
330
1F
100
AcDbEntity
  8
0
  6
CONTINUOUS
 62
     7
100
AcDbLine
 10
667.1825876524
 20
763.6427834947
 30
0.0
 11
667.1825876524
 21
785.4427837153
 31
0.0
  0
LINE
  5
4EB
330
1F
100
AcDbEntity
  8
0
  6
CONTINUOUS
 62
     7
100
AcDbLine
 10
667.1825876524
 20
808.6427843515
 30
0.0
 11
667.1825876524
 21
830.4427845721
 31
0.0
  0
LINE
  5
4EC
330
1F
100
AcDbEntity
  8
0
  6
CONTINUOUS
 62
     7
100
AcDbLine
 10
643.9850559522
 20
645.0955292527
 30
0.0
 11
625.2576937963
 21
645.0955292527
 31
0.0
  0
LINE
  5
4ED
330
1F
100
AcDbEntity
  8
0
  6
CONTINUOUS
 62
     7
100
AcDbLine
 10
625.0069221546
 20
647.9618868176
 30
0.0
 11
625.2576937963
 21
645.0955292527
 31
0.0
  0
LINE
  5
4EE
330
1F
100
AcDbEntity
  8
0
  6
CONTINUOUS
 62
     7
100
AcDbLine
 10
642.7625870396
 20
647.9618868176
 30
0.0
 11
625.0069221546
 21
647.9618868176
 31
0.0
  0
ARC
  5
4EF
330
1F
100
AcDbEntity
  8
0
  6
CONTINUOUS
 62
     7
100
AcDbCircle
 10
642.7625898196
 20
651.8177835052
 30
0.0
 40
3.855901478271448
100
AcDbArc
 50
270.0
 51
0.0000000006
  0
LINE
  5
4F0
330
1F
100
AcDbEntity
  8
0
  6
CONTINUOUS
 62
     7
100
AcDbLine
 10
646.6184934665
 20
669.5734581296
 30
0.0
 11
646.6184934665
 21
651.817785794
 31
0.0
  0
LINE
  5
4F1
330
1F
100
AcDbEntity
  8
0
  6
CONTINUOUS
 62
     7
100
AcDbLine
 10
649.4848435809
 20
669.3226790373
 30
0.0
 11
646.6184934665
 21
669.5734581296
 31
0.0
  0
LINE
  5
4F2
330
1F
100
AcDbEntity
  8
0
  6
CONTINUOUS
 62
     7
100
AcDbLine
 10
649.4848435809
 20
669.3226790373
 30
0.0
 11
649.4848435809
 21
650.595324332
 31
0.0
  0
ELLIPSE
  5
4F3
330
1F
100
AcDbEntity
  8
0
  6
CONTINUOUS
 62
     7
100
AcDbEllipse
 10
643.9846369785
 20
650.5957363462
 30
0.0
 11
-3.889383471219958
 21
3.889383471220071
 31
0.0
210
0.0
220
0.0
230
0.9999999999999998
 40
0.9999238505
 41
2.356232566403242
 42
3.926952740776366
  0
LINE
  5
4F4
330
1F
100
AcDbEntity
  8
0
  6
CONTINUOUS
 62
     7
100
AcDbLine
 10
646.6010367562
 20
651.817785794
 30
0.0
 11
646.6184934665
 21
651.817785794
 31
0.0
  0
LINE
  5
4F5
330
1F
100
AcDbEntity
  8
0
  6
CONTINUOUS
 62
     7
100
AcDbLine
 10
642.7625870396
 20
647.9618868176
 30
0.0
 11
642.7625870396
 21
647.9793360774
 31
0.0
  0
ARC
  5
4F6
330
1F
100
AcDbEntity
  8
0
  6
CONTINUOUS
 62
     7
100
AcDbCircle
 10
642.7625898196
 20
651.8177835052
 30
0.0
 40
3.838447742689823
100
AcDbArc
 50
270.0
 51
0.0000000001
  0
LINE
  5
4F7
330
1F
100
AcDbEntity
  8
0
  6
CONTINUOUS
 62
     7
100
AcDbLine
 10
646.6184934665
 20
669.5734581296
 30
0.0
 11
646.6010367562
 21
669.5925018136
 31
0.0
  0
LINE
  5
4F8
330
1F
100
AcDbEntity
  8
0
  6
CONTINUOUS
 62
     7
100
AcDbLine
 10
646.6010367562
 20
669.5925018136
 30
0.0
 11
646.6010367562
 21
651.817785794
 31
0.0
  0
LINE
  5
4F9
330
1F
100
AcDbEntity
  8
0
  6
CONTINUOUS
 62
     7
100
AcDbLine
 10
625.0069221546
 20
647.9618868176
 30
0.0
 11
624.98787102
 21
647.9793360774
 31
0.0
  0
LINE
  5
4FA
330
1F
100
AcDbEntity
  8
0
  6
CONTINUOUS
 62
     7
100
AcDbLine
 10
642.7625870396
 20
647.9793360774
 30
0.0
 11
624.98787102
 21
647.9793360774
 31
0.0
  0
LINE
  5
4FB
330
1F
100
AcDbEntity
  8
0
  6
CONTINUOUS
 62
     7
100
AcDbLine
 10
440.4601236869
 20
858.9900380318
 30
0.0
 11
459.1874858429
 21
858.9900380318
 31
0.0
  0
LINE
  5
4FC
330
1F
100
AcDbEntity
  8
0
  6
CONTINUOUS
 62
     7
100
AcDbLine
 10
459.4382574846
 20
856.1236879174
 30
0.0
 11
459.1874858429
 21
858.9900380318
 31
0.0
  0
LINE
  5
4FD
330
1F
100
AcDbEntity
  8
0
  6
CONTINUOUS
 62
     7
100
AcDbLine
 10
441.6825925995
 20
856.1236879174
 30
0.0
 11
459.4382574846
 21
856.1236879174
 31
0.0
  0
ARC
  5
4FE
330
1F
100
AcDbEntity
  8
0
  6
CONTINUOUS
 62
     7
100
AcDbCircle
 10
441.6825898196
 20
852.2677835052
 30
0.0
 40
3.855901478271448
100
AcDbArc
 50
90.0
 51
179.9999999994
  0
LINE
  5
4FF
330
1F
100
AcDbEntity
  8
0
  6
CONTINUOUS
 62
     7
100
AcDbLine
 10
437.8266861726
 20
834.5121128802
 30
0.0
 11
437.8266861726
 21
852.2677814905
 31
0.0
  0
LINE
  5
500
330
1F
100
AcDbEntity
  8
0
  6
CONTINUOUS
 62
     7
100
AcDbLine
 10
434.9603360583
 20
834.7628845219
 30
0.0
 11
437.8266861726
 21
834.5121128802
 31
0.0
  0
LINE
  5
501
330
1F
100
AcDbEntity
  8
0
  6
CONTINUOUS
 62
     7
100
AcDbLine
 10
434.9603360583
 20
834.7628845219
 30
0.0
 11
434.9603360583
 21
853.4902504031
 31
0.0
  0
ELLIPSE
  5
502
330
1F
100
AcDbEntity
  8
0
  6
CONTINUOUS
 62
     7
100
AcDbEllipse
 10
440.4605426607
 20
853.4898306641
 30
0.0
 11
3.889383471219787
 21
-3.889383471220071
 31
0.0
210
0.0
220
0.0
230
0.9999999999999998
 40
0.9999238505
 41
2.356232566403317
 42
3.926952740776346
  0
LINE
  5
503
330
1F
100
AcDbEntity
  8
0
  6
CONTINUOUS
 62
     7
100
AcDbLine
 10
441.6825925995
 20
856.1236879174
 30
0.0
 11
441.6825925995
 21
856.1062312071
 31
0.0
  0
LINE
  5
504
330
1F
100
AcDbEntity
  8
0
  6
CONTINUOUS
 62
     7
100
AcDbLine
 10
459.4382574846
 20
856.1236879174
 30
0.0
 11
459.4573086192
 21
856.1062312071
 31
0.0
  0
LINE
  5
505
330
1F
100
AcDbEntity
  8
0
  6
CONTINUOUS
 62
     7
100
AcDbLine
 10
441.6825925995
 20
856.1062312071
 30
0.0
 11
459.4573086192
 21
856.1062312071
 31
0.0
  0
LINE
  5
506
330
1F
100
AcDbEntity
  8
0
  6
CONTINUOUS
 62
     7
100
AcDbLine
 10
437.8266861726
 20
834.5121128802
 30
0.0
 11
437.844142883
 21
834.4930654709
 31
0.0
  0
LINE
  5
507
330
1F
100
AcDbEntity
  8
0
  6
CONTINUOUS
 62
     7
100
AcDbLine
 10
437.844142883
 20
852.2677814905
 30
0.0
 11
437.8266861726
 21
852.2677814905
 31
0.0
  0
LINE
  5
508
330
1F
100
AcDbEntity
  8
0
  6
CONTINUOUS
 62
     7
100
AcDbLine
 10
437.844142883
 20
834.4930654709
 30
0.0
 11
437.844142883
 21
852.2677814905
 31
0.0
  0
ARC
  5
509
330
1F
100
AcDbEntity
  8
0
  6
CONTINUOUS
 62
     7
100
AcDbCircle
 10
441.6825898196
 20
852.2677835052
 30
0.0
 40
3.838447742689823
100
AcDbArc
 50
90.0
 51
179.9999999999
  0
LINE
  5
50A
330
1F
100
AcDbEntity
  8
0
  6
CONTINUOUS
 62
     7
100
AcDbLine
 10
649.4848435809
 20
834.7628845219
 30
0.0
 11
649.4848435809
 21
853.4902504031
 31
0.0
  0
LINE
  5
50B
330
1F
100
AcDbEntity
  8
0
  6
CONTINUOUS
 62
     7
100
AcDbLine
 10
649.4848435809
 20
834.7628845219
 30
0.0
 11
646.6184934665
 21
834.5121128802
 31
0.0
  0
LINE
  5
50C
330
1F
100
AcDbEntity
  8
0
  6
CONTINUOUS
 62
     7
100
AcDbLine
 10
646.6184934665
 20
834.5121128802
 30
0.0
 11
646.6184934665
 21
852.2677814905
 31
0.0
  0
ARC
  5
50D
330
1F
100
AcDbEntity
  8
0
  6
CONTINUOUS
 62
     7
100
AcDbCircle
 10
642.7625898196
 20
852.2677835052
 30
0.0
 40
3.855901478271335
100
AcDbArc
 50
0.0000000003
 51
90.0
  0
LINE
  5
50E
330
1F
100
AcDbEntity
  8
0
  6
CONTINUOUS
 62
     7
100
AcDbLine
 10
642.7625870396
 20
856.1236879174
 30
0.0
 11
625.0069221546
 21
856.1236879174
 31
0.0
  0
LINE
  5
50F
330
1F
100
AcDbEntity
  8
0
  6
CONTINUOUS
 62
     7
100
AcDbLine
 10
625.0069221546
 20
856.1236879174
 30
0.0
 11
625.2576937963
 21
858.9900380318
 31
0.0
  0
LINE
  5
510
330
1F
100
AcDbEntity
  8
0
  6
CONTINUOUS
 62
     7
100
AcDbLine
 10
643.9850559522
 20
858.9900380318
 30
0.0
 11
625.2576937963
 21
858.9900380318
 31
0.0
  0
ELLIPSE
  5
511
330
1F
100
AcDbEntity
  8
0
  6
CONTINUOUS
 62
     7
100
AcDbEllipse
 10
643.9846369785
 20
853.4898306641
 30
0.0
 11
3.88938347121973
 21
3.889383471219844
 31
0.0
210
0.0
220
0.0
230
0.9999999999999998
 40
0.9999238505
 41
5.497825219993105
 42
7.068545394366108
  0
LINE
  5
512
330
1F
100
AcDbEntity
  8
0
  6
CONTINUOUS
 62
     7
100
AcDbLine
 10
646.6010367562
 20
852.2677814905
 30
0.0
 11
646.6184934665
 21
852.2677814905
 31
0.0
  0
LINE
  5
513
330
1F
100
AcDbEntity
  8
0
  6
CONTINUOUS
 62
     7
100
AcDbLine
 10
646.6184934665
 20
834.5121128802
 30
0.0
 11
646.6010367562
 21
834.4930654709
 31
0.0
  0
LINE
  5
514
330
1F
100
AcDbEntity
  8
0
  6
CONTINUOUS
 62
     7
100
AcDbLine
 10
646.6010367562
 20
852.2677814905
 30
0.0
 11
646.6010367562
 21
834.4930654709
 31
0.0
  0
LINE
  5
515
330
1F
100
AcDbEntity
  8
0
  6
CONTINUOUS
 62
     7
100
AcDbLine
 10
642.7625870396
 20
856.1236879174
 30
0.0
 11
642.7625870396
 21
856.1062312071
 31
0.0
  0
ARC
  5
516
330
1F
100
AcDbEntity
  8
0
  6
CONTINUOUS
 62
     7
100
AcDbCircle
 10
642.7625898196
 20
852.2677835052
 30
0.0
 40
3.838447742689823
100
AcDbArc
 50
0.0000000001
 51
90.0
  0
LINE
  5
517
330
1F
100
AcDbEntity
  8
0
  6
CONTINUOUS
 62
     7
100
AcDbLine
 10
625.0069221546
 20
856.1236879174
 30
0.0
 11
624.98787102
 21
856.1062312071
 31
0.0
  0
LINE
  5
518
330
1F
100
AcDbEntity
  8
0
  6
CONTINUOUS
 62
     7
100
AcDbLine
 10
624.98787102
 20
856.1062312071
 30
0.0
 11
642.7625870396
 21
856.1062312071
 31
0.0
  0
LINE
  5
519
330
1F
100
AcDbEntity
  8
0
  6
CONTINUOUS
 62
     7
100
AcDbLine
 10
434.9603360583
 20
669.3226790373
 30
0.0
 11
434.9603360583
 21
650.595324332
 31
0.0
  0
LINE
  5
51A
330
1F
100
AcDbEntity
  8
0
  6
CONTINUOUS
 62
     7
100
AcDbLine
 10
434.9603360583
 20
669.3226790373
 30
0.0
 11
437.8266861726
 21
669.5734581296
 31
0.0
  0
LINE
  5
51B
330
1F
100
AcDbEntity
  8
0
  6
CONTINUOUS
 62
     7
100
AcDbLine
 10
437.8266861726
 20
669.5734581296
 30
0.0
 11
437.8266861726
 21
651.817785794
 31
0.0
  0
ARC
  5
51C
330
1F
100
AcDbEntity
  8
0
  6
CONTINUOUS
 62
     7
100
AcDbCircle
 10
441.6825898196
 20
651.8177835052
 30
0.0
 40
3.855901478271392
100
AcDbArc
 50
179.9999999997
 51
270.0
  0
LINE
  5
51D
330
1F
100
AcDbEntity
  8
0
  6
CONTINUOUS
 62
     7
100
AcDbLine
 10
441.6825925995
 20
647.9618868176
 30
0.0
 11
459.4382574846
 21
647.9618868176
 31
0.0
  0
LINE
  5
51E
330
1F
100
AcDbEntity
  8
0
  6
CONTINUOUS
 62
     7
100
AcDbLine
 10
459.4382574846
 20
647.9618868176
 30
0.0
 11
459.1874858429
 21
645.0955292527
 31
0.0
  0
LINE
  5
51F
330
1F
100
AcDbEntity
  8
0
  6
CONTINUOUS
 62
     7
100
AcDbLine
 10
440.4601236869
 20
645.0955292527
 30
0.0
 11
459.1874858429
 21
645.0955292527
 31
0.0
  0
ELLIPSE
  5
520
330
1F
100
AcDbEntity
  8
0
  6
CONTINUOUS
 62
     7
100
AcDbEllipse
 10
440.4605426607
 20
650.5957363462
 30
0.0
 11
-3.889383471219844
 21
-3.889383471219844
 31
0.0
210
0.0
220
0.0
230
0.9999999999999998
 40
0.9999238505
 41
5.497825219993077
 42
7.068545394366113
  0
LINE
  5
521
330
1F
100
AcDbEntity
  8
0
  6
CONTINUOUS
 62
     7
100
AcDbLine
 10
459.4382574846
 20
647.9618868176
 30
0.0
 11
459.4573086192
 21
647.9793360774
 31
0.0
  0
LINE
  5
522
330
1F
100
AcDbEntity
  8
0
  6
CONTINUOUS
 62
     7
100
AcDbLine
 10
441.6825925995
 20
647.9793360774
 30
0.0
 11
441.6825925995
 21
647.9618868176
 31
0.0
  0
LINE
  5
523
330
1F
100
AcDbEntity
  8
0
  6
CONTINUOUS
 62
     7
100
AcDbLine
 10
459.4573086192
 20
647.9793360774
 30
0.0
 11
441.6825925995
 21
647.9793360774
 31
0.0
  0
LINE
  5
524
330
1F
100
AcDbEntity
  8
0
  6
CONTINUOUS
 62
     7
100
AcDbLine
 10
437.8266861726
 20
651.817785794
 30
0.0
 11
437.844142883
 21
651.817785794
 31
0.0
  0
ARC
  5
525
330
1F
100
AcDbEntity
  8
0
  6
CONTINUOUS
 62
     7
100
AcDbCircle
 10
441.6825898196
 20
651.8177835052
 30
0.0
 40
3.838447742689823
100
AcDbArc
 50
179.9999999999
 51
270.0
  0
LINE
  5
526
330
1F
100
AcDbEntity
  8
0
  6
CONTINUOUS
 62
     7
100
AcDbLine
 10
437.8266861726
 20
669.5734581296
 30
0.0
 11
437.844142883
 21
669.5925018136
 31
0.0
  0
LINE
  5
527
330
1F
100
AcDbEntity
  8
0
  6
CONTINUOUS
 62
     7
100
AcDbLine
 10
437.844142883
 20
651.817785794
 30
0.0
 11
437.844142883
 21
669.5925018136
 31
0.0
  0
ELLIPSE
  5
528
330
1F
100
AcDbEntity
  8
0
  6
CONTINUOUS
 62
     7
100
AcDbEllipse
 10
644.6696753367
 20
649.910697988
 30
0.0
 11
5.070604674228775
 21
-2.163069228687846
 31
0.0
210
0.0
220
0.0
230
0.9999999999999998
 40
0.9973227904
 41
0.0811887089735019
 42
0.4022499830632425
  0
ARC
  5
529
330
1F
100
AcDbEntity
  8
0
  6
CONTINUOUS
 62
     7
100
AcDbCircle
 10
644.6798179912
 20
649.9045183979
 30
0.0
 40
5.501029546956298
100
AcDbArc
 50
269.9716458665
 51
341.5642861895
  0
LINE
  5
52A
330
1F
100
AcDbEntity
  8
0
  6
CONTINUOUS
 62
     7
100
AcDbLine
 10
643.9850559522
 20
645.0955292527
 30
0.0
 11
644.6770956804
 21
644.4034895246
 31
0.0
  0
LINE
  5
52B
330
1F
100
AcDbEntity
  8
0
  6
CONTINUOUS
 62
     7
100
AcDbLine
 10
649.4848435809
 20
650.595324332
 30
0.0
 11
650.1801094104
 21
649.9000510518
 31
0.0
  0
LINE
  5
52C
330
1F
100
AcDbEntity
  8
0
  6
CONTINUOUS
 62
     7
100
AcDbLine
 10
649.4848435809
 20
669.3226790373
 30
0.0
 11
649.5023002912
 21
669.3386754338
 31
0.0
  0
LINE
  5
52D
330
1F
100
AcDbEntity
  8
0
  6
CONTINUOUS
 62
     7
100
AcDbLine
 10
649.5023002912
 20
669.9808409755
 30
0.0
 11
649.5023002912
 21
669.3386754338
 31
0.0
  0
LINE
  5
52E
330
1F
100
AcDbEntity
  8
0
  6
CONTINUOUS
 62
     7
100
AcDbLine
 10
650.1801094104
 20
670.2872535531
 30
0.0
 11
649.5023002912
 21
669.9808409755
 31
0.0
  0
LINE
  5
52F
330
1F
100
AcDbEntity
  8
0
  6
CONTINUOUS
 62
     7
100
AcDbLine
 10
650.1801094104
 20
670.2872535531
 30
0.0
 11
650.1801094104
 21
649.9000510518
 31
0.0
  0
LINE
  5
530
330
1F
100
AcDbEntity
  8
0
  6
CONTINUOUS
 62
     7
100
AcDbLine
 10
625.2576937963
 20
645.0955292527
 30
0.0
 11
625.2416973998
 21
645.078079993
 31
0.0
  0
LINE
  5
531
330
1F
100
AcDbEntity
  8
0
  6
CONTINUOUS
 62
     7
100
AcDbLine
 10
644.6770956804
 20
644.4034895246
 30
0.0
 11
642.6629131724
 21
644.4040110652
 31
0.0
  0
LINE
  5
532
330
1F
100
AcDbEntity
  8
0
  6
CONTINUOUS
 62
     7
100
AcDbLine
 10
642.6629131724
 20
644.4040110652
 30
0.0
 11
441.7822664668
 21
644.4040110652
 31
0.0
  0
LINE
  5
533
330
1F
100
AcDbEntity
  8
0
  6
CONTINUOUS
 62
     7
100
AcDbLine
 10
439.7680839588
 20
644.4034895246
 30
0.0
 11
441.7822664668
 21
644.4040110652
 31
0.0
  0
LINE
  5
534
330
1F
100
AcDbEntity
  8
0
  6
CONTINUOUS
 62
     7
100
AcDbLine
 10
440.4601236869
 20
645.0955292527
 30
0.0
 11
439.7680839588
 21
644.4034895246
 31
0.0
  0
LINE
  5
535
330
1F
100
AcDbEntity
  8
0
  6
CONTINUOUS
 62
     7
100
AcDbLine
 10
459.1874858429
 20
645.0955292527
 30
0.0
 11
459.2034822394
 21
645.078079993
 31
0.0
  0
LINE
  5
536
330
1F
100
AcDbEntity
  8
0
  6
CONTINUOUS
 62
     7
100
AcDbLine
 10
459.2034822394
 20
645.078079993
 30
0.0
 11
625.2416973998
 21
645.078079993
 31
0.0
  0
LINE
  5
537
330
1F
100
AcDbEntity
  8
0
  6
CONTINUOUS
 62
     7
100
AcDbLine
 10
649.5023002912
 20
669.3386754338
 30
0.0
 11
646.6010367562
 21
669.5925018136
 31
0.0
  0
LINE
  5
538
330
1F
100
AcDbEntity
  8
0
  6
CONTINUOUS
 62
     7
100
AcDbLine
 10
624.98787102
 20
647.9793360774
 30
0.0
 11
625.2416973998
 21
645.078079993
 31
0.0
  0
LINE
  5
539
330
1F
100
AcDbEntity
  8
0
  6
CONTINUOUS
 62
     7
100
AcDbLine
 10
650.1801094104
 20
833.7983137314
 30
0.0
 11
650.1801094104
 21
854.1855087821
 31
0.0
  0
LINE
  5
53A
330
1F
100
AcDbEntity
  8
0
  6
CONTINUOUS
 62
     7
100
AcDbLine
 10
650.1801094104
 20
833.7983137314
 30
0.0
 11
649.5023002912
 21
834.1047300343
 31
0.0
  0
LINE
  5
53B
330
1F
100
AcDbEntity
  8
0
  6
CONTINUOUS
 62
     7
100
AcDbLine
 10
649.5023002912
 20
834.1047300343
 30
0.0
 11
649.5023002912
 21
834.7468918507
 31
0.0
  0
LINE
  5
53C
330
1F
100
AcDbEntity
  8
0
  6
CONTINUOUS
 62
     7
100
AcDbLine
 10
649.4848435809
 20
834.7628845219
 30
0.0
 11
649.5023002912
 21
834.7468918507
 31
0.0
  0
LINE
  5
53D
330
1F
100
AcDbEntity
  8
0
  6
CONTINUOUS
 62
     7
100
AcDbLine
 10
649.4848435809
 20
853.4902504031
 30
0.0
 11
650.1801094104
 21
854.1855087821
 31
0.0
  0
LINE
  5
53E
330
1F
100
AcDbEntity
  8
0
  6
CONTINUOUS
 62
     7
100
AcDbLine
 10
649.5023002912
 20
834.7468918507
 30
0.0
 11
646.6010367562
 21
834.4930654709
 31
0.0
  0
LINE
  5
53F
330
1F
100
AcDbEntity
  8
0
  6
CONTINUOUS
 62
     7
100
AcDbLine
 10
643.9850559522
 20
858.9900380318
 30
0.0
 11
644.6770956804
 21
859.6820777599
 31
0.0
  0
ARC
  5
540
330
1F
100
AcDbEntity
  8
0
  6
CONTINUOUS
 62
     7
100
AcDbCircle
 10
644.679812527
 20
854.1810447472
 30
0.0
 40
5.501033683586522
100
AcDbArc
 50
18.4356630944
 51
90.0282971999
  0
ELLIPSE
  5
541
330
1F
100
AcDbEntity
  8
0
  6
CONTINUOUS
 62
     7
100
AcDbEllipse
 10
644.6696753367
 20
854.1748690223
 30
0.0
 11
5.070604674228775
 21
2.163069228687732
 31
0.0
210
0.0
220
0.0
230
1.0
 40
0.9973227904
 41
5.88093532411638
 42
6.201996598206118
  0
LINE
  5
542
330
1F
100
AcDbEntity
  8
0
  6
CONTINUOUS
 62
     7
100
AcDbLine
 10
644.6770956804
 20
859.6820777599
 30
0.0
 11
642.6629131724
 21
859.6815562193
 31
0.0
  0
LINE
  5
543
330
1F
100
AcDbEntity
  8
0
  6
CONTINUOUS
 62
     7
100
AcDbLine
 10
625.2576937963
 20
858.9900380318
 30
0.0
 11
625.2416973998
 21
859.0074947421
 31
0.0
  0
LINE
  5
544
330
1F
100
AcDbEntity
  8
0
  6
CONTINUOUS
 62
     7
100
AcDbLine
 10
625.2416973998
 20
859.0074947421
 30
0.0
 11
459.2034822394
 21
859.0074947421
 31
0.0
  0
LINE
  5
545
330
1F
100
AcDbEntity
  8
0
  6
CONTINUOUS
 62
     7
100
AcDbLine
 10
459.1874858429
 20
858.9900380318
 30
0.0
 11
459.2034822394
 21
859.0074947421
 31
0.0
  0
LINE
  5
546
330
1F
100
AcDbEntity
  8
0
  6
CONTINUOUS
 62
     7
100
AcDbLine
 10
440.4601236869
 20
858.9900380318
 30
0.0
 11
439.7680839588
 21
859.6820777599
 31
0.0
  0
LINE
  5
547
330
1F
100
AcDbEntity
  8
0
  6
CONTINUOUS
 62
     7
100
AcDbLine
 10
439.7680839588
 20
859.6820777599
 30
0.0
 11
441.7822664668
 21
859.6815562193
 31
0.0
  0
LINE
  5
548
330
1F
100
AcDbEntity
  8
0
  6
CONTINUOUS
 62
     7
100
AcDbLine
 10
441.7822664668
 20
859.6815562193
 30
0.0
 11
642.6629131724
 21
859.6815562193
 31
0.0
  0
LINE
  5
549
330
1F
100
AcDbEntity
  8
0
  6
CONTINUOUS
 62
     7
100
AcDbLine
 10
624.98787102
 20
856.1062312071
 30
0.0
 11
625.2416973998
 21
859.0074947421
 31
0.0
  0
LINE
  5
54A
330
1F
100
AcDbEntity
  8
0
  6
CONTINUOUS
 62
     7
100
AcDbLine
 10
459.4573086192
 20
647.9793360774
 30
0.0
 11
459.2034822394
 21
645.078079993
 31
0.0
  0
ARC
  5
54B
330
1F
100
AcDbEntity
  8
0
  6
CONTINUOUS
 62
     7
100
AcDbCircle
 10
439.765361648
 20
649.9045183979
 30
0.0
 40
5.501029546956514
100
AcDbArc
 50
198.4357138105
 51
270.0283541335
  0
ELLIPSE
  5
54C
330
1F
100
AcDbEntity
  8
0
  6
CONTINUOUS
 62
     7
100
AcDbEllipse
 10
439.7755043024
 20
649.910697988
 30
0.0
 11
5.070604674228832
 21
2.163069228687618
 31
0.0
210
0.0
220
0.0
230
1.0
 40
0.9973227904
 41
2.739342670526602
 42
3.060403944616335
  0
LINE
  5
54D
330
1F
100
AcDbEntity
  8
0
  6
CONTINUOUS
 62
     7
100
AcDbLine
 10
434.9603360583
 20
650.595324332
 30
0.0
 11
434.2650702287
 21
649.9000510518
 31
0.0
  0
LINE
  5
54E
330
1F
100
AcDbEntity
  8
0
  6
CONTINUOUS
 62
     7
100
AcDbLine
 10
434.2650702287
 20
670.2872535531
 30
0.0
 11
434.2650702287
 21
649.9000510518
 31
0.0
  0
LINE
  5
54F
330
1F
100
AcDbEntity
  8
0
  6
CONTINUOUS
 62
     7
100
AcDbLine
 10
434.2650702287
 20
670.2872535531
 30
0.0
 11
434.942879348
 21
669.9808409755
 31
0.0
  0
LINE
  5
550
330
1F
100
AcDbEntity
  8
0
  6
CONTINUOUS
 62
     7
100
AcDbLine
 10
434.942879348
 20
669.9808409755
 30
0.0
 11
434.942879348
 21
669.3386754338
 31
0.0
  0
LINE
  5
551
330
1F
100
AcDbEntity
  8
0
  6
CONTINUOUS
 62
     7
100
AcDbLine
 10
434.9603360583
 20
669.3226790373
 30
0.0
 11
434.942879348
 21
669.3386754338
 31
0.0
  0
LINE
  5
552
330
1F
100
AcDbEntity
  8
0
  6
CONTINUOUS
 62
     7
100
AcDbLine
 10
434.942879348
 20
669.3386754338
 30
0.0
 11
437.844142883
 21
669.5925018136
 31
0.0
  0
LINE
  5
553
330
1F
100
AcDbEntity
  8
0
  6
CONTINUOUS
 62
     7
100
AcDbLine
 10
459.4573086192
 20
856.1062312071
 30
0.0
 11
459.2034822394
 21
859.0074947421
 31
0.0
  0
LINE
  5
554
330
1F
100
AcDbEntity
  8
0
  6
CONTINUOUS
 62
     7
100
AcDbLine
 10
434.942879348
 20
834.7468918507
 30
0.0
 11
437.844142883
 21
834.4930654709
 31
0.0
  0
LINE
  5
555
330
1F
100
AcDbEntity
  8
0
  6
CONTINUOUS
 62
     7
100
AcDbLine
 10
434.9603360583
 20
834.7628845219
 30
0.0
 11
434.942879348
 21
834.7468918507
 31
0.0
  0
LINE
  5
556
330
1F
100
AcDbEntity
  8
0
  6
CONTINUOUS
 62
     7
100
AcDbLine
 10
434.942879348
 20
834.1047300343
 30
0.0
 11
434.942879348
 21
834.7468918507
 31
0.0
  0
LINE
  5
557
330
1F
100
AcDbEntity
  8
0
  6
CONTINUOUS
 62
     7
100
AcDbLine
 10
434.2650702287
 20
833.7983137314
 30
0.0
 11
434.942879348
 21
834.1047300343
 31
0.0
  0
LINE
  5
558
330
1F
100
AcDbEntity
  8
0
  6
CONTINUOUS
 62
     7
100
AcDbLine
 10
434.2650702287
 20
833.7983137314
 30
0.0
 11
434.2650702287
 21
854.1855087821
 31
0.0
  0
LINE
  5
559
330
1F
100
AcDbEntity
  8
0
  6
CONTINUOUS
 62
     7
100
AcDbLine
 10
434.9603360583
 20
853.4902504031
 30
0.0
 11
434.2650702287
 21
854.1855087821
 31
0.0
  0
ELLIPSE
  5
55A
330
1F
100
AcDbEntity
  8
0
  6
CONTINUOUS
 62
     7
100
AcDbEllipse
 10
439.7755043024
 20
854.1748690223
 30
0.0
 11
5.070604674228775
 21
-2.163069228687846
 31
0.0
210
0.0
220
0.0
230
1.0
 40
0.9973227904
 41
3.22278136256331
 42
3.543842636653054
  0
ARC
  5
55B
330
1F
100
AcDbEntity
  8
0
  6
CONTINUOUS
 62
     7
100
AcDbCircle
 10
439.7653671122
 20
854.1810447472
 30
0.0
 40
5.501033683586612
100
AcDbArc
 50
89.9717028001
 51
161.5643369056
  0
LINE
  5
55C
330
1F
100
AcDbEntity
  8
0
  6
CONTINUOUS
 62
     7
100
AcDbLine
 10
649.5023002912
 20
834.1047300343
 30
0.0
 11
647.0023026754
 21
831.9047300462
 31
0.0
  0
LINE
  5
55D
330
1F
100
AcDbEntity
  8
0
  6
CONTINUOUS
 62
     7
100
AcDbLine
 10
647.0023026754
 20
831.9047300462
 30
0.0
 11
647.0023026754
 21
672.1808409636
 31
0.0
  0
LINE
  5
55E
330
1F
100
AcDbEntity
  8
0
  6
CONTINUOUS
 62
     7
100
AcDbLine
 10
649.5023002912
 20
669.9808409755
 30
0.0
 11
647.0023026754
 21
672.1808409636
 31
0.0
  0
LINE
  5
55F
330
1F
100
AcDbEntity
  8
0
  6
CONTINUOUS
 62
     7
100
AcDbLine
 10
434.942879348
 20
669.9808409755
 30
0.0
 11
437.4428769638
 21
672.1808409636
 31
0.0
  0
LINE
  5
560
330
1F
100
AcDbEntity
  8
0
  6
CONTINUOUS
 62
     7
100
AcDbLine
 10
437.4428769638
 20
831.9047300462
 30
0.0
 11
437.4428769638
 21
672.1808409636
 31
0.0
  0
LINE
  5
561
330
1F
100
AcDbEntity
  8
0
  6
CONTINUOUS
 62
     7
100
AcDbLine
 10
434.942879348
 20
834.1047300343
 30
0.0
 11
437.4428769638
 21
831.9047300462
 31
0.0
  0
ELLIPSE
  5
562
330
1F
100
AcDbEntity
  8
0
  6
CONTINUOUS
 62
     7
100
AcDbEllipse
 10
622.2222850474
 20
847.742478733
 30
0.0
 11
-0.3539842722996128
 21
-0.3539842722997264
 31
0.0
210
0.0
220
0.0
230
1.0
 40
0.998782766
 41
2.356803477777441
 42
3.926381829401611
  0
LINE
  5
563
330
1F
100
AcDbEntity
  8
0
  6
CONTINUOUS
 62
     7
100
AcDbLine
 10
622.2228935053
 20
848.242784137
 30
0.0
 11
614.2222886969
 21
848.242784137
 31
0.0
  0
ELLIPSE
  5
564
330
1F
100
AcDbEntity
  8
0
  6
CONTINUOUS
 62
     7
100
AcDbEllipse
 10
614.2228945917
 20
847.742478733
 30
0.0
 11
0.353984272299499
 21
-0.3539842722997263
 31
0.0
210
0.0
220
0.0
230
1.0
 40
0.998782766
 41
2.356803477778538
 42
3.92638182940216
  0
LINE
  5
565
330
1F
100
AcDbEntity
  8
0
  6
CONTINUOUS
 62
     7
100
AcDbLine
 10
613.7225931574
 20
847.7430885975
 30
0.0
 11
613.7225931574
 21
844.7424790208
 31
0.0
  0
ELLIPSE
  5
566
330
1F
100
AcDbEntity
  8
0
  6
CONTINUOUS
 62
     7
100
AcDbEllipse
 10
614.2228945917
 20
844.7430882773
 30
0.0
 11
0.353984272299499
 21
0.353984272299499
 31
0.0
210
0.0
220
0.0
230
0.9999999999999998
 40
0.998782766
 41
2.356803477778378
 42
3.926381829401223
  0
LINE
  5
567
330
1F
100
AcDbEntity
  8
0
  6
CONTINUOUS
 62
     7
100
AcDbLine
 10
614.2222886969
 20
844.2427834813
 30
0.0
 11
622.2228935053
 21
844.2427834813
 31
0.0
  0
ELLIPSE
  5
568
330
1F
100
AcDbEntity
  8
0
  6
CONTINUOUS
 62
     7
100
AcDbEllipse
 10
622.2222850474
 20
844.7430882773
 30
0.0
 11
-0.3539842722996127
 21
0.353984272299499
 31
0.0
210
0.0
220
0.0
230
0.9999999999999998
 40
0.998782766
 41
2.356803477777749
 42
3.926381829401304
  0
LINE
  5
569
330
1F
100
AcDbEntity
  8
0
  6
CONTINUOUS
 62
     7
100
AcDbLine
 10
622.7225890447
 20
844.7424790208
 30
0.0
 11
622.7225890447
 21
847.7430885975
 31
0.0
  0
CIRCLE
  5
56A
330
1F
100
AcDbEntity
  8
0
  6
CONTINUOUS
 62
     7
100
AcDbCircle
 10
618.2225898196
 20
838.0427835052
 30
0.0
 40
3.500065549616806
  0
CIRCLE
  5
56B
330
1F
100
AcDbEntity
  8
0
  6
CONTINUOUS
 62
     7
100
AcDbCircle
 10
618.2225898196
 20
666.0427835052
 30
0.0
 40
3.500065549616693
  0
ELLIPSE
  5
56C
330
1F
100
AcDbEntity
  8
0
  6
CONTINUOUS
 62
     7
100
AcDbEllipse
 10
622.2222850474
 20
659.342478733
 30
0.0
 11
0.3539842722996127
 21
0.3539842722996127
 31
0.0
210
0.0
220
0.0
230
0.9999999999999998
 40
0.998782766
 41
5.498396131368024
 42
7.067974482991404
  0
LINE
  5
56D
330
1F
100
AcDbEntity
  8
0
  6
CONTINUOUS
 62
     7
100
AcDbLine
 10
614.2222886969
 20
659.8427838032
 30
0.0
 11
622.2228935053
 21
659.8427838032
 31
0.0
  0
ELLIPSE
  5
56E
330
1F
100
AcDbEntity
  8
0
  6
CONTINUOUS
 62
     7
100
AcDbEllipse
 10
614.2228945917
 20
659.342478733
 30
0.0
 11
-0.3539842722997264
 21
0.3539842722996128
 31
0.0
210
0.0
220
0.0
230
1.0
 40
0.998782766
 41
5.498396131367703
 42
7.067974482991177
  0
LINE
  5
56F
330
1F
100
AcDbEntity
  8
0
  6
CONTINUOUS
 62
     7
100
AcDbLine
 10
613.7225931574
 20
656.342478687
 30
0.0
 11
613.7225931574
 21
659.3430882637
 31
0.0
  0
ELLIPSE
  5
570
330
1F
100
AcDbEntity
  8
0
  6
CONTINUOUS
 62
     7
100
AcDbEllipse
 10
614.2228945917
 20
656.3430882773
 30
0.0
 11
-0.3539842722997264
 21
-0.3539842722996128
 31
0.0
210
0.0
220
0.0
230
1.0
 40
0.998782766
 41
5.498396131367796
 42
7.067974482991498
  0
LINE
  5
571
330
1F
100
AcDbEntity
  8
0
  6
CONTINUOUS
 62
     7
100
AcDbLine
 10
622.2228935053
 20
655.8427831475
 30
0.0
 11
614.2222886969
 21
655.8427831475
 31
0.0
  0
ELLIPSE
  5
572
330
1F
100
AcDbEntity
  8
0
  6
CONTINUOUS
 62
     7
100
AcDbEllipse
 10
622.2222850474
 20
656.3430882773
 30
0.0
 11
0.3539842722996127
 21
-0.3539842722996127
 31
0.0
210
0.0
220
0.0
230
0.9999999999999998
 40
0.998782766
 41
5.498396131367716
 42
7.067974482991484
  0
LINE
  5
573
330
1F
100
AcDbEntity
  8
0
  6
CONTINUOUS
 62
     7
100
AcDbLine
 10
622.7225890447
 20
659.3430882637
 30
0.0
 11
622.7225890447
 21
656.342478687
 31
0.0
  0
ELLIPSE
  5
574
330
1F
100
AcDbEntity
  8
0
  6
CONTINUOUS
 62
     7
100
AcDbEllipse
 10
462.2228945917
 20
844.7430882773
 30
0.0
 11
-0.3539842722995558
 21
-0.3539842722997263
 31
0.0
210
0.0
220
0.0
230
1.0
 40
0.998782766
 41
5.498396131367823
 42
7.067974482991122
  0
LINE
  5
575
330
1F
100
AcDbEntity
  8
0
  6
CONTINUOUS
 62
     7
100
AcDbLine
 10
470.2228909423
 20
844.2427834813
 30
0.0
 11
462.2222861339
 21
844.2427834813
 31
0.0
  0
ELLIPSE
  5
576
330
1F
100
AcDbEntity
  8
0
  6
CONTINUOUS
 62
     7
100
AcDbEllipse
 10
470.2222850474
 20
844.7430882773
 30
0.0
 11
0.3539842722996696
 21
-0.3539842722997264
 31
0.0
210
0.0
220
0.0
230
1.0
 40
0.998782766
 41
5.498396131367635
 42
7.067974482991498
  0
LINE
  5
577
330
1F
100
AcDbEntity
  8
0
  6
CONTINUOUS
 62
     7
100
AcDbLine
 10
470.7225864817
 20
847.7430885975
 30
0.0
 11
470.7225864817
 21
844.7424790208
 31
0.0
  0
ELLIPSE
  5
578
330
1F
100
AcDbEntity
  8
0
  6
CONTINUOUS
 62
     7
100
AcDbEllipse
 10
470.2222850474
 20
847.742478733
 30
0.0
 11
0.3539842722996696
 21
0.3539842722994991
 31
0.0
210
0.0
220
0.0
230
1.0
 40
0.998782766
 41
5.49839613136769
 42
7.067974482991766
  0
LINE
  5
579
330
1F
100
AcDbEntity
  8
0
  6
CONTINUOUS
 62
     7
100
AcDbLine
 10
462.2222861339
 20
848.242784137
 30
0.0
 11
470.2228909423
 21
848.242784137
 31
0.0
  0
ELLIPSE
  5
57A
330
1F
100
AcDbEntity
  8
0
  6
CONTINUOUS
 62
     7
100
AcDbEllipse
 10
462.2228945917
 20
847.742478733
 30
0.0
 11
-0.3539842722995558
 21
0.353984272299499
 31
0.0
210
0.0
220
0.0
230
1.0
 40
0.998782766
 41
5.498396131367756
 42
7.067974482991511
  0
LINE
  5
57B
330
1F
100
AcDbEntity
  8
0
  6
CONTINUOUS
 62
     7
100
AcDbLine
 10
461.7225905944
 20
844.7424790208
 30
0.0
 11
461.7225905944
 21
847.7430885975
 31
0.0
  0
CIRCLE
  5
57C
330
1F
100
AcDbEntity
  8
0
  6
CONTINUOUS
 62
     7
100
AcDbCircle
 10
466.2225898196
 20
838.0427835052
 30
0.0
 40
3.500065549616806
  0
CIRCLE
  5
57D
330
1F
100
AcDbEntity
  8
0
  6
CONTINUOUS
 62
     7
100
AcDbCircle
 10
466.2225898196
 20
666.0427835052
 30
0.0
 40
3.500065549616693
  0
ELLIPSE
  5
57E
330
1F
100
AcDbEntity
  8
0
  6
CONTINUOUS
 62
     7
100
AcDbEllipse
 10
462.2228945917
 20
656.3430882773
 30
0.0
 11
0.3539842722996127
 21
0.3539842722996127
 31
0.0
210
0.0
220
0.0
230
0.9999999999999998
 40
0.998782766
 41
2.35680347777799
 42
3.926381829401611
  0
LINE
  5
57F
330
1F
100
AcDbEntity
  8
0
  6
CONTINUOUS
 62
     7
100
AcDbLine
 10
462.2222861339
 20
655.8427831475
 30
0.0
 11
470.2228909423
 21
655.8427831475
 31
0.0
  0
ELLIPSE
  5
580
330
1F
100
AcDbEntity
  8
0
  6
CONTINUOUS
 62
     7
100
AcDbEllipse
 10
470.2222850474
 20
656.3430882773
 30
0.0
 11
-0.3539842722996127
 21
0.3539842722996127
 31
0.0
210
0.0
220
0.0
230
0.9999999999999998
 40
0.998782766
 41
2.356803477777949
 42
3.926381829401651
  0
LINE
  5
581
330
1F
100
AcDbEntity
  8
0
  6
CONTINUOUS
 62
     7
100
AcDbLine
 10
470.7225864817
 20
656.342478687
 30
0.0
 11
470.7225864817
 21
659.3430882637
 31
0.0
  0
ELLIPSE
  5
582
330
1F
100
AcDbEntity
  8
0
  6
CONTINUOUS
 62
     7
100
AcDbEllipse
 10
470.2222850474
 20
659.342478733
 30
0.0
 11
-0.3539842722996127
 21
-0.353984272299499
 31
0.0
210
0.0
220
0.0
230
0.9999999999999998
 40
0.998782766
 41
2.356803477778378
 42
3.926381829401771
  0
LINE
  5
583
330
1F
100
AcDbEntity
  8
0
  6
CONTINUOUS
 62
     7
100
AcDbLine
 10
470.2228909423
 20
659.8427838032
 30
0.0
 11
462.2222861339
 21
659.8427838032
 31
0.0
  0
ELLIPSE
  5
584
330
1F
100
AcDbEntity
  8
0
  6
CONTINUOUS
 62
     7
100
AcDbEllipse
 10
462.2228945917
 20
659.342478733
 30
0.0
 11
0.3539842722996127
 21
-0.353984272299499
 31
0.0
210
0.0
220
0.0
230
0.9999999999999998
 40
0.998782766
 41
2.356803477777749
 42
3.926381829401303
  0
LINE
  5
585
330
1F
100
AcDbEntity
  8
0
  6
CONTINUOUS
 62
     7
100
AcDbLine
 10
461.7225905944
 20
659.3430882637
 30
0.0
 11
461.7225905944
 21
656.342478687
 31
0.0
  0
LINE
  5
586
330
1F
100
AcDbEntity
  8
0
  6
CONTINUOUS
 62
     7
100
AcDbLine
 10
647.6754626323
 20
672.4851524775
 30
0.0
 11
647.0023026754
 21
672.1808409636
 31
0.0
  0
LINE
  5
587
330
1F
100
AcDbEntity
  8
0
  6
CONTINUOUS
 62
     7
100
AcDbLine
 10
650.1801094104
 20
670.2872535531
 30
0.0
 11
647.6754626323
 21
672.4851524775
 31
0.0
  0
LINE
  5
588
330
1F
100
AcDbEntity
  8
0
  6
CONTINUOUS
 62
     7
100
AcDbLine
 10
647.7232655574
 20
766.6427830551
 30
0.0
 11
647.7232655574
 21
782.4427836892
 31
0.0
  0
LINE
  5
589
330
1F
100
AcDbEntity
  8
0
  6
CONTINUOUS
 62
     7
100
AcDbLine
 10
647.6754626323
 20
737.4427823667
 30
0.0
 11
647.6754626323
 21
766.6427830551
 31
0.0
  0
LINE
  5
58A
330
1F
100
AcDbEntity
  8
0
  6
CONTINUOUS
 62
     7
100
AcDbLine
 10
647.7232655574
 20
737.4427823667
 30
0.0
 11
647.7232655574
 21
721.6427831296
 31
0.0
  0
LINE
  5
58B
330
1F
100
AcDbEntity
  8
0
  6
CONTINUOUS
 62
     7
100
AcDbLine
 10
647.6754626323
 20
692.4427843039
 30
0.0
 11
647.6754626323
 21
721.6427831296
 31
0.0
  0
LINE
  5
58C
330
1F
100
AcDbEntity
  8
0
  6
CONTINUOUS
 62
     7
100
AcDbLine
 10
647.7232655574
 20
692.4427843039
 30
0.0
 11
647.7232655574
 21
676.6427850668
 31
0.0
  0
LINE
  5
58D
330
1F
100
AcDbEntity
  8
0
  6
CONTINUOUS
 62
     7
100
AcDbLine
 10
647.6754626323
 20
672.4851524775
 30
0.0
 11
647.6754626323
 21
676.6427850668
 31
0.0
  0
LINE
  5
58E
330
1F
100
AcDbEntity
  8
0
  6
CONTINUOUS
 62
     7
100
AcDbLine
 10
647.6754626323
 20
831.600414807
 30
0.0
 11
647.0023026754
 21
831.9047300462
 31
0.0
  0
LINE
  5
58F
330
1F
100
AcDbEntity
  8
0
  6
CONTINUOUS
 62
     7
100
AcDbLine
 10
647.6754626323
 20
827.4427822177
 30
0.0
 11
647.6754626323
 21
831.600414807
 31
0.0
  0
LINE
  5
590
330
1F
100
AcDbEntity
  8
0
  6
CONTINUOUS
 62
     7
100
AcDbLine
 10
647.7232655574
 20
827.4427822177
 30
0.0
 11
647.7232655574
 21
811.6427829806
 31
0.0
  0
LINE
  5
591
330
1F
100
AcDbEntity
  8
0
  6
CONTINUOUS
 62
     7
100
AcDbLine
 10
647.6754626323
 20
782.4427836892
 30
0.0
 11
647.6754626323
 21
811.6427829806
 31
0.0
  0
LINE
  5
592
330
1F
100
AcDbEntity
  8
0
  6
CONTINUOUS
 62
     7
100
AcDbLine
 10
622.6457661082
 20
659.2662653272
 30
0.0
 11
622.6457661082
 21
656.4193016235
 31
0.0
  0
LINE
  5
593
330
1F
100
AcDbEntity
  8
0
  6
CONTINUOUS
 62
     7
100
AcDbLine
 10
622.7225890447
 20
659.3430882637
 30
0.0
 11
622.6457661082
 21
659.2662653272
 31
0.0
  0
LINE
  5
594
330
1F
100
AcDbEntity
  8
0
  6
CONTINUOUS
 62
     7
100
AcDbLine
 10
622.7225890447
 20
656.342478687
 30
0.0
 11
622.6457661082
 21
656.4193016235
 31
0.0
  0
ELLIPSE
  5
595
330
1F
100
AcDbEntity
  8
0
  6
CONTINUOUS
 62
     7
100
AcDbEllipse
 10
622.1454593546
 20
656.4199139702
 30
0.0
 11
0.3539842722996127
 21
-0.3539842722996127
 31
0.0
210
0.0
220
0.0
230
0.9999999999999998
 40
0.998782766
 41
5.49839613136757
 42
7.067974482991404
  0
LINE
  5
596
330
1F
100
AcDbEntity
  8
0
  6
CONTINUOUS
 62
     7
100
AcDbLine
 10
622.2228935053
 20
655.8427831475
 30
0.0
 11
622.1460705687
 21
655.9196060841
 31
0.0
  0
LINE
  5
597
330
1F
100
AcDbEntity
  8
0
  6
CONTINUOUS
 62
     7
100
AcDbLine
 10
622.1460705687
 20
655.9196060841
 30
0.0
 11
614.2991116335
 21
655.9196060841
 31
0.0
  0
LINE
  5
598
330
1F
100
AcDbEntity
  8
0
  6
CONTINUOUS
 62
     7
100
AcDbLine
 10
614.2222886969
 20
655.8427831475
 30
0.0
 11
614.2991116335
 21
655.9196060841
 31
0.0
  0
ELLIPSE
  5
599
330
1F
100
AcDbEntity
  8
0
  6
CONTINUOUS
 62
     7
100
AcDbEllipse
 10
622.1454593546
 20
659.2656530401
 30
0.0
 11
0.3539842722996127
 21
0.3539842722996127
 31
0.0
210
0.0
220
0.0
230
0.9999999999999998
 40
0.998782766
 41
5.498396131367862
 42
7.067974482991792
  0
LINE
  5
59A
330
1F
100
AcDbEntity
  8
0
  6
CONTINUOUS
 62
     7
100
AcDbLine
 10
622.2228935053
 20
659.8427838032
 30
0.0
 11
622.1460705687
 21
659.7659608666
 31
0.0
  0
LINE
  5
59B
330
1F
100
AcDbEntity
  8
0
  6
CONTINUOUS
 62
     7
100
AcDbLine
 10
614.2991116335
 20
659.7659608666
 30
0.0
 11
622.1460705687
 21
659.7659608666
 31
0.0
  0
LINE
  5
59C
330
1F
100
AcDbEntity
  8
0
  6
CONTINUOUS
 62
     7
100
AcDbLine
 10
614.2222886969
 20
659.8427838032
 30
0.0
 11
614.2991116335
 21
659.7659608666
 31
0.0
  0
ELLIPSE
  5
59D
330
1F
100
AcDbEntity
  8
0
  6
CONTINUOUS
 62
     7
100
AcDbEllipse
 10
614.2997202846
 20
656.4199139702
 30
0.0
 11
-0.3539842722996127
 21
-0.3539842722996127
 31
0.0
210
0.0
220
0.0
230
0.9999999999999998
 40
0.998782766
 41
5.498396131367797
 42
7.067974482991177
  0
LINE
  5
59E
330
1F
100
AcDbEntity
  8
0
  6
CONTINUOUS
 62
     7
100
AcDbLine
 10
613.7225931574
 20
656.342478687
 30
0.0
 11
613.799416094
 21
656.4193016235
 31
0.0
  0
LINE
  5
59F
330
1F
100
AcDbEntity
  8
0
  6
CONTINUOUS
 62
     7
100
AcDbLine
 10
613.7225931574
 20
659.3430882637
 30
0.0
 11
613.799416094
 21
659.2662653272
 31
0.0
  0
LINE
  5
5A0
330
1F
100
AcDbEntity
  8
0
  6
CONTINUOUS
 62
     7
100
AcDbLine
 10
613.799416094
 20
656.4193016235
 30
0.0
 11
613.799416094
 21
659.2662653272
 31
0.0
  0
ELLIPSE
  5
5A1
330
1F
100
AcDbEntity
  8
0
  6
CONTINUOUS
 62
     7
100
AcDbEllipse
 10
614.2997202846
 20
659.2656530401
 30
0.0
 11
-0.3539842722996127
 21
0.3539842722996127
 31
0.0
210
0.0
220
0.0
230
0.9999999999999998
 40
0.998782766
 41
5.498396131367862
 42
7.067974482991338
  0
LINE
  5
5A2
330
1F
100
AcDbEntity
  8
0
  6
CONTINUOUS
 62
     7
100
AcDbLine
 10
650.1801094104
 20
833.7983137314
 30
0.0
 11
647.6754626323
 21
831.600414807
 31
0.0
  0
LINE
  5
5A3
330
1F
100
AcDbEntity
  8
0
  6
CONTINUOUS
 62
     7
100
AcDbLine
 10
622.7225890447
 20
844.7424790208
 30
0.0
 11
622.6457661082
 21
844.8193019573
 31
0.0
  0
LINE
  5
5A4
330
1F
100
AcDbEntity
  8
0
  6
CONTINUOUS
 62
     7
100
AcDbLine
 10
622.6457661082
 20
844.8193019573
 30
0.0
 11
622.6457661082
 21
847.666265661
 31
0.0
  0
LINE
  5
5A5
330
1F
100
AcDbEntity
  8
0
  6
CONTINUOUS
 62
     7
100
AcDbLine
 10
622.7225890447
 20
847.7430885975
 30
0.0
 11
622.6457661082
 21
847.666265661
 31
0.0
  0
LINE
  5
5A6
330
1F
100
AcDbEntity
  8
0
  6
CONTINUOUS
 62
     7
100
AcDbLine
 10
622.2228935053
 20
844.2427834813
 30
0.0
 11
622.1460705687
 21
844.3196064178
 31
0.0
  0
ELLIPSE
  5
5A7
330
1F
100
AcDbEntity
  8
0
  6
CONTINUOUS
 62
     7
100
AcDbEllipse
 10
622.1454593546
 20
844.8199139702
 30
0.0
 11
-0.3539842722997263
 21
0.353984272299499
 31
0.0
210
0.0
220
0.0
230
1.0
 40
0.998782766
 41
2.356803477777441
 42
3.926381829401063
  0
ELLIPSE
  5
5A8
330
1F
100
AcDbEntity
  8
0
  6
CONTINUOUS
 62
     7
100
AcDbEllipse
 10
622.1454593546
 20
847.6656530401
 30
0.0
 11
-0.3539842722997264
 21
-0.3539842722997264
 31
0.0
210
0.0
220
0.0
230
0.9999999999999998
 40
0.998782766
 41
2.356803477777521
 42
3.926381829402079
  0
LINE
  5
5A9
330
1F
100
AcDbEntity
  8
0
  6
CONTINUOUS
 62
     7
100
AcDbLine
 10
622.2228935053
 20
848.242784137
 30
0.0
 11
622.1460705687
 21
848.1659612004
 31
0.0
  0
LINE
  5
5AA
330
1F
100
AcDbEntity
  8
0
  6
CONTINUOUS
 62
     7
100
AcDbLine
 10
614.2222886969
 20
844.2427834813
 30
0.0
 11
614.2991116335
 21
844.3196064178
 31
0.0
  0
LINE
  5
5AB
330
1F
100
AcDbEntity
  8
0
  6
CONTINUOUS
 62
     7
100
AcDbLine
 10
614.2991116335
 20
844.3196064178
 30
0.0
 11
622.1460705687
 21
844.3196064178
 31
0.0
  0
LINE
  5
5AC
330
1F
100
AcDbEntity
  8
0
  6
CONTINUOUS
 62
     7
100
AcDbLine
 10
622.1460705687
 20
848.1659612004
 30
0.0
 11
614.2991116335
 21
848.1659612004
 31
0.0
  0
LINE
  5
5AD
330
1F
100
AcDbEntity
  8
0
  6
CONTINUOUS
 62
     7
100
AcDbLine
 10
614.2222886969
 20
848.242784137
 30
0.0
 11
614.2991116335
 21
848.1659612004
 31
0.0
  0
ELLIPSE
  5
5AE
330
1F
100
AcDbEntity
  8
0
  6
CONTINUOUS
 62
     7
100
AcDbEllipse
 10
614.2997202846
 20
847.6656530401
 30
0.0
 11
0.353984272299499
 21
-0.3539842722997263
 31
0.0
210
0.0
220
0.0
230
1.0
 40
0.998782766
 41
2.356803477778377
 42
3.92638182940232
  0
LINE
  5
5AF
330
1F
100
AcDbEntity
  8
0
  6
CONTINUOUS
 62
     7
100
AcDbLine
 10
613.7225931574
 20
847.7430885975
 30
0.0
 11
613.799416094
 21
847.666265661
 31
0.0
  0
LINE
  5
5B0
330
1F
100
AcDbEntity
  8
0
  6
CONTINUOUS
 62
     7
100
AcDbLine
 10
613.799416094
 20
847.666265661
 30
0.0
 11
613.799416094
 21
844.8193019573
 31
0.0
  0
LINE
  5
5B1
330
1F
100
AcDbEntity
  8
0
  6
CONTINUOUS
 62
     7
100
AcDbLine
 10
613.7225931574
 20
844.7424790208
 30
0.0
 11
613.799416094
 21
844.8193019573
 31
0.0
  0
ELLIPSE
  5
5B2
330
1F
100
AcDbEntity
  8
0
  6
CONTINUOUS
 62
     7
100
AcDbEllipse
 10
614.2997202846
 20
844.8199139702
 30
0.0
 11
0.353984272299499
 21
0.353984272299499
 31
0.0
210
0.0
220
0.0
230
0.9999999999999998
 40
0.998782766
 41
2.356803477778297
 42
3.926381829401303
  0
LINE
  5
5B3
330
1F
100
AcDbEntity
  8
0
  6
CONTINUOUS
 62
     7
100
AcDbLine
 10
470.2228909423
 20
655.8427831475
 30
0.0
 11
470.1460680057
 21
655.9196060841
 31
0.0
  0
ELLIPSE
  5
5B4
330
1F
100
AcDbEntity
  8
0
  6
CONTINUOUS
 62
     7
100
AcDbEllipse
 10
470.1454593546
 20
656.4199139702
 30
0.0
 11
-0.3539842722996127
 21
0.3539842722996127
 31
0.0
210
0.0
220
0.0
230
0.9999999999999998
 40
0.998782766
 41
2.356803477777989
 42
3.926381829401611
  0
LINE
  5
5B5
330
1F
100
AcDbEntity
  8
0
  6
CONTINUOUS
 62
     7
100
AcDbLine
 10
470.7225864817
 20
656.342478687
 30
0.0
 11
470.6457635452
 21
656.4193016235
 31
0.0
  0
LINE
  5
5B6
330
1F
100
AcDbEntity
  8
0
  6
CONTINUOUS
 62
     7
100
AcDbLine
 10
470.6457635452
 20
656.4193016235
 30
0.0
 11
470.6457635452
 21
659.2662653272
 31
0.0
  0
LINE
  5
5B7
330
1F
100
AcDbEntity
  8
0
  6
CONTINUOUS
 62
     7
100
AcDbLine
 10
470.7225864817
 20
659.3430882637
 30
0.0
 11
470.6457635452
 21
659.2662653272
 31
0.0
  0
ELLIPSE
  5
5B8
330
1F
100
AcDbEntity
  8
0
  6
CONTINUOUS
 62
     7
100
AcDbEllipse
 10
470.1454593546
 20
659.2656530401
 30
0.0
 11
-0.3539842722996127
 21
-0.353984272299499
 31
0.0
210
0.0
220
0.0
230
0.9999999999999998
 40
0.998782766
 41
2.356803477778297
 42
3.926381829401852
  0
LINE
  5
5B9
330
1F
100
AcDbEntity
  8
0
  6
CONTINUOUS
 62
     7
100
AcDbLine
 10
470.2228909423
 20
659.8427838032
 30
0.0
 11
470.1460680057
 21
659.7659608666
 31
0.0
  0
LINE
  5
5BA
330
1F
100
AcDbEntity
  8
0
  6
CONTINUOUS
 62
     7
100
AcDbLine
 10
462.2222861339
 20
655.8427831475
 30
0.0
 11
462.2991090705
 21
655.9196060841
 31
0.0
  0
LINE
  5
5BB
330
1F
100
AcDbEntity
  8
0
  6
CONTINUOUS
 62
     7
100
AcDbLine
 10
462.2991090705
 20
655.9196060841
 30
0.0
 11
470.1460680057
 21
655.9196060841
 31
0.0
  0
LINE
  5
5BC
330
1F
100
AcDbEntity
  8
0
  6
CONTINUOUS
 62
     7
100
AcDbLine
 10
470.1460680057
 20
659.7659608666
 30
0.0
 11
462.2991090705
 21
659.7659608666
 31
0.0
  0
LINE
  5
5BD
330
1F
100
AcDbEntity
  8
0
  6
CONTINUOUS
 62
     7
100
AcDbLine
 10
462.2222861339
 20
659.8427838032
 30
0.0
 11
462.2991090705
 21
659.7659608666
 31
0.0
  0
LINE
  5
5BE
330
1F
100
AcDbEntity
  8
0
  6
CONTINUOUS
 62
     7
100
AcDbLine
 10
461.7225905944
 20
659.3430882637
 30
0.0
 11
461.799413531
 21
659.2662653272
 31
0.0
  0
LINE
  5
5BF
330
1F
100
AcDbEntity
  8
0
  6
CONTINUOUS
 62
     7
100
AcDbLine
 10
461.799413531
 20
659.2662653272
 30
0.0
 11
461.799413531
 21
656.4193016235
 31
0.0
  0
LINE
  5
5C0
330
1F
100
AcDbEntity
  8
0
  6
CONTINUOUS
 62
     7
100
AcDbLine
 10
461.7225905944
 20
656.342478687
 30
0.0
 11
461.799413531
 21
656.4193016235
 31
0.0
  0
ELLIPSE
  5
5C1
330
1F
100
AcDbEntity
  8
0
  6
CONTINUOUS
 62
     7
100
AcDbEllipse
 10
462.2997202846
 20
656.4199139702
 30
0.0
 11
0.3539842722996695
 21
0.3539842722996127
 31
0.0
210
0.0
220
0.0
230
0.9999999999999998
 40
0.998782766
 41
2.356803477777949
 42
3.926381829401925
  0
ELLIPSE
  5
5C2
330
1F
100
AcDbEntity
  8
0
  6
CONTINUOUS
 62
     7
100
AcDbEllipse
 10
462.2997202846
 20
659.2656530401
 30
0.0
 11
0.3539842722996696
 21
-0.3539842722994991
 31
0.0
210
0.0
220
0.0
230
1.0
 40
0.998782766
 41
2.356803477777595
 42
3.926381829401183
  0
LINE
  5
5C3
330
1F
100
AcDbEntity
  8
0
  6
CONTINUOUS
 62
     7
100
AcDbLine
 10
437.0314111997
 20
757.4045474027
 30
0.0
 11
437.0314111997
 21
753.5810193364
 31
0.0
  0
LINE
  5
5C4
330
1F
100
AcDbEntity
  8
0
  6
CONTINUOUS
 62
     7
100
AcDbLine
 10
436.7697170068
 20
757.9279674534
 30
0.0
 11
437.0314111997
 21
757.4045474027
 31
0.0
  0
LINE
  5
5C5
330
1F
100
AcDbEntity
  8
0
  6
CONTINUOUS
 62
     7
100
AcDbLine
 10
436.7697170068
 20
831.600414807
 30
0.0
 11
436.7697170068
 21
757.9279674534
 31
0.0
  0
LINE
  5
5C6
330
1F
100
AcDbEntity
  8
0
  6
CONTINUOUS
 62
     7
100
AcDbLine
 10
436.7697170068
 20
831.600414807
 30
0.0
 11
437.4428769638
 21
831.9047300462
 31
0.0
  0
LINE
  5
5C7
330
1F
100
AcDbEntity
  8
0
  6
CONTINUOUS
 62
     7
100
AcDbLine
 10
436.7697170068
 20
672.4851524775
 30
0.0
 11
437.4428769638
 21
672.1808409636
 31
0.0
  0
LINE
  5
5C8
330
1F
100
AcDbEntity
  8
0
  6
CONTINUOUS
 62
     7
100
AcDbLine
 10
436.7697170068
 20
746.1575998311
 30
0.0
 11
436.7697170068
 21
672.4851524775
 31
0.0
  0
LINE
  5
5C9
330
1F
100
AcDbEntity
  8
0
  6
CONTINUOUS
 62
     7
100
AcDbLine
 10
436.7697170068
 20
746.1575998311
 30
0.0
 11
437.0314111997
 21
746.6810198818
 31
0.0
  0
LINE
  5
5CA
330
1F
100
AcDbEntity
  8
0
  6
CONTINUOUS
 62
     7
100
AcDbLine
 10
437.0314111997
 20
750.5045479481
 30
0.0
 11
437.0314111997
 21
746.6810198818
 31
0.0
  0
LINE
  5
5CB
330
1F
100
AcDbEntity
  8
0
  6
CONTINUOUS
 62
     7
100
AcDbLine
 10
436.7697170068
 20
751.0279679988
 30
0.0
 11
437.0314111997
 21
750.5045479481
 31
0.0
  0
LINE
  5
5CC
330
1F
100
AcDbEntity
  8
0
  6
CONTINUOUS
 62
     7
100
AcDbLine
 10
436.7697170068
 20
751.0279679988
 30
0.0
 11
436.7697170068
 21
753.0575992857
 31
0.0
  0
LINE
  5
5CD
330
1F
100
AcDbEntity
  8
0
  6
CONTINUOUS
 62
     7
100
AcDbLine
 10
436.7697170068
 20
753.0575992857
 30
0.0
 11
437.0314111997
 21
753.5810193364
 31
0.0
  0
LINE
  5
5CE
330
1F
100
AcDbEntity
  8
0
  6
CONTINUOUS
 62
     7
100
AcDbLine
 10
434.2650702287
 20
670.2872535531
 30
0.0
 11
436.7697170068
 21
672.4851524775
 31
0.0
  0
LINE
  5
5CF
330
1F
100
AcDbEntity
  8
0
  6
CONTINUOUS
 62
     7
100
AcDbLine
 10
470.7225864817
 20
844.7424790208
 30
0.0
 11
470.6457635452
 21
844.8193019573
 31
0.0
  0
LINE
  5
5D0
330
1F
100
AcDbEntity
  8
0
  6
CONTINUOUS
 62
     7
100
AcDbLine
 10
470.6457635452
 20
847.666265661
 30
0.0
 11
470.6457635452
 21
844.8193019573
 31
0.0
  0
LINE
  5
5D1
330
1F
100
AcDbEntity
  8
0
  6
CONTINUOUS
 62
     7
100
AcDbLine
 10
470.7225864817
 20
847.7430885975
 30
0.0
 11
470.6457635452
 21
847.666265661
 31
0.0
  0
ELLIPSE
  5
5D2
330
1F
100
AcDbEntity
  8
0
  6
CONTINUOUS
 62
     7
100
AcDbEllipse
 10
470.1454593546
 20
844.8199139702
 30
0.0
 11
0.3539842722995558
 21
-0.3539842722997263
 31
0.0
210
0.0
220
0.0
230
1.0
 40
0.998782766
 41
5.498396131367997
 42
7.067974482991458
  0
LINE
  5
5D3
330
1F
100
AcDbEntity
  8
0
  6
CONTINUOUS
 62
     7
100
AcDbLine
 10
470.2228909423
 20
844.2427834813
 30
0.0
 11
470.1460680057
 21
844.3196064178
 31
0.0
  0
LINE
  5
5D4
330
1F
100
AcDbEntity
  8
0
  6
CONTINUOUS
 62
     7
100
AcDbLine
 10
470.1460680057
 20
844.3196064178
 30
0.0
 11
462.2991090705
 21
844.3196064178
 31
0.0
  0
LINE
  5
5D5
330
1F
100
AcDbEntity
  8
0
  6
CONTINUOUS
 62
     7
100
AcDbLine
 10
462.2222861339
 20
844.2427834813
 30
0.0
 11
462.2991090705
 21
844.3196064178
 31
0.0
  0
LINE
  5
5D6
330
1F
100
AcDbEntity
  8
0
  6
CONTINUOUS
 62
     7
100
AcDbLine
 10
462.2991090705
 20
848.1659612004
 30
0.0
 11
470.1460680057
 21
848.1659612004
 31
0.0
  0
LINE
  5
5D7
330
1F
100
AcDbEntity
  8
0
  6
CONTINUOUS
 62
     7
100
AcDbLine
 10
462.2222861339
 20
848.242784137
 30
0.0
 11
462.2991090705
 21
848.1659612004
 31
0.0
  0
LINE
  5
5D8
330
1F
100
AcDbEntity
  8
0
  6
CONTINUOUS
 62
     7
100
AcDbLine
 10
470.2228909423
 20
848.242784137
 30
0.0
 11
470.1460680057
 21
848.1659612004
 31
0.0
  0
ELLIPSE
  5
5D9
330
1F
100
AcDbEntity
  8
0
  6
CONTINUOUS
 62
     7
100
AcDbEllipse
 10
470.1454593546
 20
847.6656530401
 30
0.0
 11
0.3539842722995558
 21
0.353984272299499
 31
0.0
210
0.0
220
0.0
230
1.0
 40
0.998782766
 41
5.49839613136769
 42
7.067974482991445
  0
LINE
  5
5DA
330
1F
100
AcDbEntity
  8
0
  6
CONTINUOUS
 62
     7
100
AcDbLine
 10
461.799413531
 20
844.8193019573
 30
0.0
 11
461.799413531
 21
847.666265661
 31
0.0
  0
LINE
  5
5DB
330
1F
100
AcDbEntity
  8
0
  6
CONTINUOUS
 62
     7
100
AcDbLine
 10
461.7225905944
 20
844.7424790208
 30
0.0
 11
461.799413531
 21
844.8193019573
 31
0.0
  0
LINE
  5
5DC
330
1F
100
AcDbEntity
  8
0
  6
CONTINUOUS
 62
     7
100
AcDbLine
 10
461.7225905944
 20
847.7430885975
 30
0.0
 11
461.799413531
 21
847.666265661
 31
0.0
  0
ELLIPSE
  5
5DD
330
1F
100
AcDbEntity
  8
0
  6
CONTINUOUS
 62
     7
100
AcDbEllipse
 10
462.2997202846
 20
844.8199139702
 30
0.0
 11
-0.3539842722995558
 21
-0.3539842722997263
 31
0.0
210
0.0
220
0.0
230
1.0
 40
0.998782766
 41
5.498396131367581
 42
7.067974482991477
  0
ELLIPSE
  5
5DE
330
1F
100
AcDbEntity
  8
0
  6
CONTINUOUS
 62
     7
100
AcDbEllipse
 10
462.2997202846
 20
847.6656530401
 30
0.0
 11
-0.3539842722995558
 21
0.353984272299499
 31
0.0
210
0.0
220
0.0
230
1.0
 40
0.998782766
 41
5.498396131367643
 42
7.067974482991511
  0
LINE
  5
5DF
330
1F
100
AcDbEntity
  8
0
  6
CONTINUOUS
 62
     7
100
AcDbLine
 10
434.2650702287
 20
833.7983137314
 30
0.0
 11
436.7697170068
 21
831.600414807
 31
0.0
  0
CIRCLE
  5
5E0
330
1F
100
AcDbEntity
  8
0
  6
CONTINUOUS
 62
     7
100
AcDbCircle
 10
618.2225898196
 20
838.0427835052
 30
0.0
 40
2.800797430183479
  0
CIRCLE
  5
5E1
330
1F
100
AcDbEntity
  8
0
  6
CONTINUOUS
 62
     7
100
AcDbCircle
 10
466.2225898196
 20
666.0427835052
 30
0.0
 40
2.800797430183479
  0
CIRCLE
  5
5E2
330
1F
100
AcDbEntity
  8
0
  6
CONTINUOUS
 62
     7
100
AcDbCircle
 10
618.2225898196
 20
666.0427835052
 30
0.0
 40
2.800797430183479
  0
CIRCLE
  5
5E3
330
1F
100
AcDbEntity
  8
0
  6
CONTINUOUS
 62
     7
100
AcDbCircle
 10
466.2225898196
 20
838.0427835052
 30
0.0
 40
2.800797430183479
  0
LINE
  5
5E4
330
1F
100
AcDbEntity
  8
0
  6
CONTINUOUS
 62
     7
100
AcDbLine
 10
433.9637687494
 20
753.6159290318
 30
0.0
 11
435.0445350696
 21
753.6159290318
 31
0.0
  0
LINE
  5
5E5
330
1F
100
AcDbEntity
  8
0
  6
CONTINUOUS
 62
     7
100
AcDbLine
 10
433.9637687494
 20
756.874922881
 30
0.0
 11
433.9637687494
 21
753.6159290318
 31
0.0
  0
ARC
  5
5E6
330
1F
100
AcDbEntity
  8
0
  6
CONTINUOUS
 62
     7
100
AcDbCircle
 10
434.2633441245
 20
756.8748870116
 30
0.0
 40
0.2995753772917374
100
AcDbArc
 50
112.7226924864
 51
179.9931397416
  0
LINE
  5
5E7
330
1F
100
AcDbEntity
  8
0
  6
CONTINUOUS
 62
     7
100
AcDbLine
 10
434.1476267268
 20
757.1512108986
 30
0.0
 11
435.0445350696
 21
756.9849791322
 31
0.0
  0
LINE
  5
5E8
330
1F
100
AcDbEntity
  8
0
  6
CONTINUOUS
 62
     7
100
AcDbLine
 10
435.0445350696
 20
756.9849791322
 30
0.0
 11
435.0445350696
 21
753.6159290318
 31
0.0
  0
ARC
  5
5E9
330
1F
100
AcDbEntity
  8
0
  6
CONTINUOUS
 62
     7
100
AcDbCircle
 10
440.4409576061
 20
757.640249602
 30
0.0
 40
6.312647331873898
100
AcDbArc
 50
179.791491828
 51
184.4425434821
  0
LINE
  5
5EA
330
1F
100
AcDbEntity
  8
0
  6
CONTINUOUS
 62
     7
100
AcDbLine
 10
434.1283520748
 20
757.6632222478
 30
0.0
 11
435.0531106879
 21
757.4918272291
 31
0.0
  0
ELLIPSE
  5
5EB
330
1F
100
AcDbEntity
  8
0
  6
CONTINUOUS
 62
     7
100
AcDbEllipse
 10
435.0532605756
 20
756.9833617618
 30
0.0
 11
-2.776973462914611E-5
 21
0.5085177055619852
 31
0.0
210
0.0
220
0.0
230
1.0
 40
0.0171626045
 41
0.0142714330867586
 42
1.567614467358065
  0
ARC
  5
5EC
330
1F
100
AcDbEntity
  8
0
  6
CONTINUOUS
 62
     7
100
AcDbCircle
 10
434.2642230151
 20
747.2110498748
 30
0.0
 40
0.8002765677297532
100
AcDbArc
 50
180.0290297024
 51
260.2265969188
  0
LINE
  5
5ED
330
1F
100
AcDbEntity
  8
0
  6
CONTINUOUS
 62
     7
100
AcDbLine
 10
433.46394655
 20
747.2106444035
 30
0.0
 11
433.9637687494
 21
747.2106444035
 31
0.0
  0
ARC
  5
5EE
330
1F
100
AcDbEntity
  8
0
  6
CONTINUOUS
 62
     7
100
AcDbCircle
 10
434.2632669095
 20
747.2106288896
 30
0.0
 40
0.2994981605414577
100
AcDbArc
 50
179.9970320931
 51
247.2871356789
  0
ARC
  5
5EF
330
1F
100
AcDbEntity
  8
0
  6
CONTINUOUS
 62
     7
100
AcDbCircle
 10
440.0477827407
 20
746.4601998574
 30
0.0
 40
5.91952159441801
100
AcDbArc
 50
175.4062916182
 51
180.3659352176
  0
LINE
  5
5F0
330
1F
100
AcDbEntity
  8
0
  6
CONTINUOUS
 62
     7
100
AcDbLine
 10
433.46394655
 20
756.874922881
 30
0.0
 11
433.9637687494
 21
756.874922881
 31
0.0
  0
ARC
  5
5F1
330
1F
100
AcDbEntity
  8
0
  6
CONTINUOUS
 62
     7
100
AcDbCircle
 10
434.2642230151
 20
756.8745174097
 30
0.0
 40
0.8002765677296965
100
AcDbArc
 50
99.7734030812
 51
179.9709702975
  0
LINE
  5
5F2
330
1F
100
AcDbEntity
  8
0
  6
CONTINUOUS
 62
     7
100
AcDbLine
 10
435.0531106879
 20
746.5937400554
 30
0.0
 11
434.1283520748
 21
746.4223450367
 31
0.0
  0
LINE
  5
5F3
330
1F
100
AcDbEntity
  8
0
  6
CONTINUOUS
 62
     7
100
AcDbLine
 10
435.0445350696
 20
747.1005881522
 30
0.0
 11
434.1476267268
 21
746.9343563859
 31
0.0
  0
ELLIPSE
  5
5F4
330
1F
100
AcDbEntity
  8
0
  6
CONTINUOUS
 62
     7
100
AcDbEllipse
 10
435.0532605756
 20
747.1022052486
 30
0.0
 11
2.776973474283295E-5
 21
0.5085177055618715
 31
0.0
210
0.0
220
0.0
230
1.0
 40
0.0171626045
 41
1.57397818623218
 42
3.127321220516056
  0
LINE
  5
5F5
330
1F
100
AcDbEntity
  8
0
  6
CONTINUOUS
 62
     7
100
AcDbLine
 10
433.9637687494
 20
750.4696382527
 30
0.0
 11
433.9637687494
 21
747.2106444035
 31
0.0
  0
LINE
  5
5F6
330
1F
100
AcDbEntity
  8
0
  6
CONTINUOUS
 62
     7
100
AcDbLine
 10
433.9637687494
 20
750.4696382527
 30
0.0
 11
435.0445350696
 21
750.4696382527
 31
0.0
  0
LINE
  5
5F7
330
1F
100
AcDbEntity
  8
0
  6
CONTINUOUS
 62
     7
100
AcDbLine
 10
435.0445350696
 20
747.1005881522
 30
0.0
 11
435.0445350696
 21
750.4696382527
 31
0.0
  0
ELLIPSE
  5
5F8
330
1F
100
AcDbEntity
  8
0
  6
CONTINUOUS
 62
     7
100
AcDbEllipse
 10
433.9637718977
 20
750.4783652197
 30
0.0
 11
0.5
 21
0.0
 31
0.0
210
0.0
220
0.0
230
1.0
 40
0.0174550649
 41
3.167772592377076
 42
4.71238898038469
  0
LINE
  5
5F9
330
1F
100
AcDbEntity
  8
0
  6
CONTINUOUS
 62
     7
100
AcDbLine
 10
433.46394655
 20
750.4781375025
 30
0.0
 11
433.46394655
 21
747.2106444035
 31
0.0
  0
ELLIPSE
  5
5FA
330
1F
100
AcDbEntity
  8
0
  6
CONTINUOUS
 62
     7
100
AcDbEllipse
 10
433.9637718977
 20
753.6072017906
 30
0.0
 11
0.5
 21
0.0
 31
0.0
210
0.0
220
0.0
230
1.0
 40
0.0174550649
 41
1.570796326794897
 42
3.115412714802969
  0
LINE
  5
5FB
330
1F
100
AcDbEntity
  8
0
  6
CONTINUOUS
 62
     7
100
AcDbLine
 10
433.46394655
 20
756.874922881
 30
0.0
 11
433.46394655
 21
753.607429782
 31
0.0
  0
LINE
  5
5FC
330
1F
100
AcDbEntity
  8
0
  6
CONTINUOUS
 62
     7
100
AcDbLine
 10
435.0445350696
 20
750.4696382527
 30
0.0
 11
435.0794410397
 21
750.5045479481
 31
0.0
  0
LINE
  5
5FD
330
1F
100
AcDbEntity
  8
0
  6
CONTINUOUS
 62
     7
100
AcDbLine
 10
435.0794410397
 20
750.5045479481
 30
0.0
 11
435.0794410397
 21
746.5718372111
 31
0.0
  0
LINE
  5
5FE
330
1F
100
AcDbEntity
  8
0
  6
CONTINUOUS
 62
     7
100
AcDbLine
 10
435.0531106879
 20
746.5937400554
 30
0.0
 11
435.0794410397
 21
746.5718372111
 31
0.0
  0
LINE
  5
5FF
330
1F
100
AcDbEntity
  8
0
  6
CONTINUOUS
 62
     7
100
AcDbLine
 10
432.61596617
 20
751.0433832501
 30
0.0
 11
433.46394655
 21
750.4781375025
 31
0.0
  0
LINE
  5
600
330
1F
100
AcDbEntity
  8
0
  6
CONTINUOUS
 62
     7
100
AcDbLine
 10
436.7697170068
 20
751.0279679988
 30
0.0
 11
432.61596617
 21
751.0433832501
 31
0.0
  0
LINE
  5
601
330
1F
100
AcDbEntity
  8
0
  6
CONTINUOUS
 62
     7
100
AcDbLine
 10
437.0314111997
 20
750.5045479481
 30
0.0
 11
435.0794410397
 21
750.5045479481
 31
0.0
  0
LINE
  5
602
330
1F
100
AcDbEntity
  8
0
  6
CONTINUOUS
 62
     7
100
AcDbLine
 10
436.7697170068
 20
753.0575992857
 30
0.0
 11
432.61596617
 21
753.0421840344
 31
0.0
  0
LINE
  5
603
330
1F
100
AcDbEntity
  8
0
  6
CONTINUOUS
 62
     7
100
AcDbLine
 10
432.61596617
 20
753.0421840344
 30
0.0
 11
433.46394655
 21
753.607429782
 31
0.0
  0
LINE
  5
604
330
1F
100
AcDbEntity
  8
0
  6
CONTINUOUS
 62
     7
100
AcDbLine
 10
435.0445350696
 20
753.6159290318
 30
0.0
 11
435.0794410397
 21
753.5810193364
 31
0.0
  0
LINE
  5
605
330
1F
100
AcDbEntity
  8
0
  6
CONTINUOUS
 62
     7
100
AcDbLine
 10
437.0314111997
 20
753.5810193364
 30
0.0
 11
435.0794410397
 21
753.5810193364
 31
0.0
  0
LINE
  5
606
330
1F
100
AcDbEntity
  8
0
  6
CONTINUOUS
 62
     7
100
AcDbLine
 10
435.0531106879
 20
757.4918272291
 30
0.0
 11
435.0794410397
 21
757.5137300734
 31
0.0
  0
LINE
  5
607
330
1F
100
AcDbEntity
  8
0
  6
CONTINUOUS
 62
     7
100
AcDbLine
 10
435.0794410397
 20
757.5137300734
 30
0.0
 11
435.0794410397
 21
753.5810193364
 31
0.0
  0
LINE
  5
608
330
1F
100
AcDbEntity
  8
0
  6
CONTINUOUS
 62
     7
100
AcDbLine
 10
433.46394655
 20
747.2106444035
 30
0.0
 11
432.61596617
 21
746.6455737446
 31
0.0
  0
ELLIPSE
  5
609
330
1F
100
AcDbEntity
  8
0
  6
CONTINUOUS
 62
     7
100
AcDbEllipse
 10
438.1454560029
 20
749.7981735274
 30
0.0
 11
4.059273920933323
 21
3.533773646897203
 31
0.0
210
0.0
220
0.0
230
1.0
 40
0.0761939035
 41
2.916713042714508
 42
3.086713266928385
  0
LINE
  5
60A
330
1F
100
AcDbEntity
  8
0
  6
CONTINUOUS
 62
     7
100
AcDbLine
 10
434.0775242139
 20
746.2866848652
 30
0.0
 11
433.420353203
 21
745.848627979
 31
0.0
  0
ELLIPSE
  5
60B
330
1F
100
AcDbEntity
  8
0
  6
CONTINUOUS
 62
     7
100
AcDbEllipse
 10
433.4207209484
 20
746.6487500127
 30
0.0
 11
0.7658695557635725
 21
0.2488989763323843
 31
0.0
210
0.0
220
0.0
230
0.9999999999999998
 40
0.9928989273
 41
2.829021817595358
 42
4.399799146933175
  0
LINE
  5
60C
330
1F
100
AcDbEntity
  8
0
  6
CONTINUOUS
 62
     7
100
AcDbLine
 10
433.420353203
 20
758.2369393055
 30
0.0
 11
434.0775242139
 21
757.7988824193
 31
0.0
  0
ARC
  5
60D
330
1F
100
AcDbEntity
  8
0
  6
CONTINUOUS
 62
     7
100
AcDbCircle
 10
434.3515236576
 20
757.8241899858
 30
0.0
 40
0.2751657101623387
100
AcDbArc
 50
185.2770703771
 51
215.8019110831
  0
LINE
  5
60E
330
1F
100
AcDbEntity
  8
0
  6
CONTINUOUS
 62
     7
100
AcDbLine
 10
432.61596617
 20
757.4398184512
 30
0.0
 11
433.46394655
 21
756.874922881
 31
0.0
  0
ELLIPSE
  5
60F
330
1F
100
AcDbEntity
  8
0
  6
CONTINUOUS
 62
     7
100
AcDbEllipse
 10
433.4207209484
 20
757.4368169976
 30
0.0
 11
0.7658695557635724
 21
-0.2488989763322706
 31
0.0
210
0.0
220
0.0
230
1.0
 40
0.9928989273
 41
1.883386160246265
 42
3.454163489942695
  0
LINE
  5
610
330
1F
100
AcDbEntity
  8
0
  6
CONTINUOUS
 62
     7
100
AcDbLine
 10
432.5486650755
 20
746.6906106417
 30
0.0
 11
432.61596617
 21
746.6457488333
 31
0.0
  0
LINE
  5
611
330
1F
100
AcDbEntity
  8
0
  6
CONTINUOUS
 62
     7
100
AcDbLine
 10
432.5486650755
 20
757.3949566428
 30
0.0
 11
432.5486650755
 21
746.6906106417
 31
0.0
  0
LINE
  5
612
330
1F
100
AcDbEntity
  8
0
  6
CONTINUOUS
 62
     7
100
AcDbLine
 10
432.5486650755
 20
757.3949566428
 30
0.0
 11
432.61596617
 21
757.4398184512
 31
0.0
  0
LINE
  5
613
330
1F
100
AcDbEntity
  8
0
  6
CONTINUOUS
 62
     7
100
AcDbLine
 10
432.61596617
 20
751.0433832501
 30
0.0
 11
432.61596617
 21
753.0421840344
 31
0.0
  0
LINE
  5
614
330
1F
100
AcDbEntity
  8
0
  6
CONTINUOUS
 62
     7
100
AcDbLine
 10
435.716994672
 20
746.1536920015
 30
0.0
 11
435.6685360958
 21
746.6810198818
 31
0.0
  0
LINE
  5
615
330
1F
100
AcDbEntity
  8
0
  6
CONTINUOUS
 62
     7
100
AcDbLine
 10
435.716994672
 20
746.1536920015
 30
0.0
 11
434.1175412823
 21
745.8512133305
 31
0.0
  0
LINE
  5
616
330
1F
100
AcDbEntity
  8
0
  6
CONTINUOUS
 62
     7
100
AcDbLine
 10
434.1175412823
 20
745.8512133305
 30
0.0
 11
434.0775242139
 21
746.2866848652
 31
0.0
  0
LINE
  5
617
330
1F
100
AcDbEntity
  8
0
  6
CONTINUOUS
 62
     7
100
AcDbLine
 10
435.6685360958
 20
746.6810198818
 30
0.0
 11
435.0794410397
 21
746.5718372111
 31
0.0
  0
LINE
  5
618
330
1F
100
AcDbEntity
  8
0
  6
CONTINUOUS
 62
     7
100
AcDbLine
 10
434.1175412823
 20
758.2343520914
 30
0.0
 11
434.0775242139
 21
757.7988824193
 31
0.0
  0
LINE
  5
619
330
1F
100
AcDbEntity
  8
0
  6
CONTINUOUS
 62
     7
100
AcDbLine
 10
435.716994672
 20
757.931875283
 30
0.0
 11
434.1175412823
 21
758.2343520914
 31
0.0
  0
LINE
  5
61A
330
1F
100
AcDbEntity
  8
0
  6
CONTINUOUS
 62
     7
100
AcDbLine
 10
435.716994672
 20
757.931875283
 30
0.0
 11
435.6685360958
 21
757.4045474027
 31
0.0
  0
LINE
  5
61B
330
1F
100
AcDbEntity
  8
0
  6
CONTINUOUS
 62
     7
100
AcDbLine
 10
435.6685360958
 20
757.4045474027
 30
0.0
 11
435.0794410397
 21
757.5137300734
 31
0.0
  0
LINE
  5
61C
330
1F
100
AcDbEntity
  8
0
  6
CONTINUOUS
 62
     7
100
AcDbLine
 10
435.6685360958
 20
746.6810198818
 30
0.0
 11
437.0314111997
 21
746.6810198818
 31
0.0
  0
LINE
  5
61D
330
1F
100
AcDbEntity
  8
0
  6
CONTINUOUS
 62
     7
100
AcDbLine
 10
436.7697170068
 20
746.1575998311
 30
0.0
 11
435.716994672
 21
746.1536920015
 31
0.0
  0
LINE
  5
61E
330
1F
100
AcDbEntity
  8
0
  6
CONTINUOUS
 62
     7
100
AcDbLine
 10
435.6685360958
 20
757.4045474027
 30
0.0
 11
437.0314111997
 21
757.4045474027
 31
0.0
  0
LINE
  5
61F
330
1F
100
AcDbEntity
  8
0
  6
CONTINUOUS
 62
     7
100
AcDbLine
 10
436.7697170068
 20
757.9279674534
 30
0.0
 11
435.716994672
 21
757.931875283
 31
0.0
  0
LINE
  5
620
330
1F
100
AcDbEntity
  8
0
  6
CONTINUOUS
 62
     7
100
AcDbLine
 10
434.1175412823
 20
745.8512133305
 30
0.0
 11
433.420353203
 21
745.848627979
 31
0.0
  0
LINE
  5
621
330
1F
100
AcDbEntity
  8
0
  6
CONTINUOUS
 62
     7
100
AcDbLine
 10
434.1175412823
 20
758.2343520914
 30
0.0
 11
433.420353203
 21
758.2369393055
 31
0.0
  0
LINE
  5
622
330
1F
100
AcDbEntity
  8
0
  6
CONTINUOUS
 62
     7
100
AcDbLine
 10
653.8233017613
 20
676.6427850668
 30
0.0
 11
653.8233017613
 21
644.2391744201
 31
0.0
  0
LINE
  5
623
330
1F
100
AcDbEntity
  8
0
  6
CONTINUOUS
 62
     7
100
AcDbLine
 10
649.8985296179
 20
648.1648704354
 30
0.0
 11
653.8233017613
 21
644.2391744201
 31
0.0
  0
LINE
  5
624
330
1F
100
AcDbEntity
  8
0
  6
CONTINUOUS
 62
     7
100
AcDbLine
 10
653.8233017613
 20
676.6427850668
 30
0.0
 11
647.6754626323
 21
676.6427850668
 31
0.0
  0
LINE
  5
625
330
1F
100
AcDbEntity
  8
0
  6
CONTINUOUS
 62
     7
100
AcDbLine
 10
653.8233017613
 20
721.6427831296
 30
0.0
 11
653.8233017613
 21
692.4427843039
 31
0.0
  0
LINE
  5
626
330
1F
100
AcDbEntity
  8
0
  6
CONTINUOUS
 62
     7
100
AcDbLine
 10
653.8233017613
 20
721.6427831296
 30
0.0
 11
647.6754626323
 21
721.6427831296
 31
0.0
  0
LINE
  5
627
330
1F
100
AcDbEntity
  8
0
  6
CONTINUOUS
 62
     7
100
AcDbLine
 10
653.8233017613
 20
692.4427843039
 30
0.0
 11
647.6754626323
 21
692.4427843039
 31
0.0
  0
LINE
  5
628
330
1F
100
AcDbEntity
  8
0
  6
CONTINUOUS
 62
     7
100
AcDbLine
 10
653.8233017613
 20
766.6427830551
 30
0.0
 11
653.8233017613
 21
737.4427823667
 31
0.0
  0
LINE
  5
629
330
1F
100
AcDbEntity
  8
0
  6
CONTINUOUS
 62
     7
100
AcDbLine
 10
653.8233017613
 20
766.6427830551
 30
0.0
 11
647.6754626323
 21
766.6427830551
 31
0.0
  0
LINE
  5
62A
330
1F
100
AcDbEntity
  8
0
  6
CONTINUOUS
 62
     7
100
AcDbLine
 10
653.8233017613
 20
737.4427823667
 30
0.0
 11
647.6754626323
 21
737.4427823667
 31
0.0
  0
LINE
  5
62B
330
1F
100
AcDbEntity
  8
0
  6
CONTINUOUS
 62
     7
100
AcDbLine
 10
653.8233017613
 20
811.6427829806
 30
0.0
 11
647.6754626323
 21
811.6427829806
 31
0.0
  0
LINE
  5
62C
330
1F
100
AcDbEntity
  8
0
  6
CONTINUOUS
 62
     7
100
AcDbLine
 10
653.8233017613
 20
811.6427829806
 30
0.0
 11
653.8233017613
 21
782.4427836892
 31
0.0
  0
LINE
  5
62D
330
1F
100
AcDbEntity
  8
0
  6
CONTINUOUS
 62
     7
100
AcDbLine
 10
653.8233017613
 20
782.4427836892
 30
0.0
 11
647.6754626323
 21
782.4427836892
 31
0.0
  0
LINE
  5
62E
330
1F
100
AcDbEntity
  8
0
  6
CONTINUOUS
 62
     7
100
AcDbLine
 10
649.8985296179
 20
855.9206893985
 30
0.0
 11
653.8233017613
 21
859.8463928644
 31
0.0
  0
LINE
  5
62F
330
1F
100
AcDbEntity
  8
0
  6
CONTINUOUS
 62
     7
100
AcDbLine
 10
653.8233017613
 20
859.8463928644
 30
0.0
 11
653.8233017613
 21
827.4427822177
 31
0.0
  0
LINE
  5
630
330
1F
100
AcDbEntity
  8
0
  6
CONTINUOUS
 62
     7
100
AcDbLine
 10
653.8233017613
 20
827.4427822177
 30
0.0
 11
647.6754626323
 21
827.4427822177
 31
0.0
  0
LINE
  5
631
330
1F
100
AcDbEntity
  8
0
  6
CONTINUOUS
 62
     7
100
AcDbLine
 10
430.6218778779
 20
746.6531491224
 30
0.0
 11
432.61596617
 21
746.6457488333
 31
0.0
  0
LINE
  5
632
330
1F
100
AcDbEntity
  8
0
  6
CONTINUOUS
 62
     7
100
AcDbLine
 10
434.5466500212
 20
648.1648704354
 30
0.0
 11
430.6218778779
 21
644.2391744201
 31
0.0
  0
LINE
  5
633
330
1F
100
AcDbEntity
  8
0
  6
CONTINUOUS
 62
     7
100
AcDbLine
 10
430.6218778779
 20
644.2391744201
 30
0.0
 11
430.6218778779
 21
746.6531491224
 31
0.0
  0
LINE
  5
634
330
1F
100
AcDbEntity
  8
0
  6
CONTINUOUS
 62
     7
100
AcDbLine
 10
435.6720900227
 20
745.7922866885
 30
0.0
 11
435.6720900227
 21
740.9932820444
 31
0.0
  0
LINE
  5
635
330
1F
100
AcDbEntity
  8
0
  6
CONTINUOUS
 62
     7
100
AcDbLine
 10
431.5040340711
 20
745.761340702
 30
0.0
 11
435.6720900227
 21
745.7922866885
 31
0.0
  0
LINE
  5
636
330
1F
100
AcDbEntity
  8
0
  6
CONTINUOUS
 62
     7
100
AcDbLine
 10
431.5040340711
 20
741.0242280309
 30
0.0
 11
431.5040340711
 21
745.761340702
 31
0.0
  0
LINE
  5
637
330
1F
100
AcDbEntity
  8
0
  6
CONTINUOUS
 62
     7
100
AcDbLine
 10
435.6720900227
 20
740.9932820444
 30
0.0
 11
431.5040340711
 21
741.0242280309
 31
0.0
  0
LINE
  5
638
330
1F
100
AcDbEntity
  8
0
  6
CONTINUOUS
 62
     7
100
AcDbLine
 10
434.5466500212
 20
855.9206893985
 30
0.0
 11
430.6218778779
 21
859.8463928644
 31
0.0
  0
LINE
  5
639
330
1F
100
AcDbEntity
  8
0
  6
CONTINUOUS
 62
     7
100
AcDbLine
 10
430.6218778779
 20
757.4324181621
 30
0.0
 11
432.61596617
 21
757.4398184512
 31
0.0
  0
LINE
  5
63A
330
1F
100
AcDbEntity
  8
0
  6
CONTINUOUS
 62
     7
100
AcDbLine
 10
430.6218778779
 20
757.4324181621
 30
0.0
 11
430.6218778779
 21
859.8463928644
 31
0.0
  0
LINE
  5
63B
330
1F
100
AcDbEntity
  8
0
  6
CONTINUOUS
 62
     7
100
AcDbLine
 10
435.6720900227
 20
763.1922869329
 30
0.0
 11
435.6720900227
 21
758.3932804261
 31
0.0
  0
LINE
  5
63C
330
1F
100
AcDbEntity
  8
0
  6
CONTINUOUS
 62
     7
100
AcDbLine
 10
431.5040340711
 20
763.1613400151
 30
0.0
 11
435.6720900227
 21
763.1922869329
 31
0.0
  0
LINE
  5
63D
330
1F
100
AcDbEntity
  8
0
  6
CONTINUOUS
 62
     7
100
AcDbLine
 10
431.5040340711
 20
758.4242264126
 30
0.0
 11
431.5040340711
 21
763.1613400151
 31
0.0
  0
LINE
  5
63E
330
1F
100
AcDbEntity
  8
0
  6
CONTINUOUS
 62
     7
100
AcDbLine
 10
435.6720900227
 20
758.3932804261
 30
0.0
 11
431.5040340711
 21
758.4242264126
 31
0.0
  0
LINE
  5
63F
330
1F
100
AcDbEntity
  8
0
  6
CONTINUOUS
 62
     7
100
AcDbLine
 10
653.6916798045
 20
642.1258619372
 30
0.0
 11
653.8233017613
 21
644.2391744201
 31
0.0
  0
ARC
  5
640
330
1F
100
AcDbEntity
  8
0
  6
CONTINUOUS
 62
     7
100
AcDbCircle
 10
650.2825437259
 20
642.2828192016
 30
0.0
 40
3.412772389804861
100
AcDbArc
 50
272.8032109277
 51
357.1969207548
  0
LINE
  5
641
330
1F
100
AcDbEntity
  8
0
  6
CONTINUOUS
 62
     7
100
AcDbLine
 10
648.3261963417
 20
638.742076451
 30
0.0
 11
650.4393896152
 21
638.8768723552
 31
0.0
  0
LINE
  5
642
330
1F
100
AcDbEntity
  8
0
  6
CONTINUOUS
 62
     7
100
AcDbLine
 10
648.3261963417
 20
638.742076451
 30
0.0
 11
642.6629131724
 21
644.4040110652
 31
0.0
  0
LINE
  5
643
330
1F
100
AcDbEntity
  8
0
  6
CONTINUOUS
 62
     7
100
AcDbLine
 10
430.7534998347
 20
861.9596978967
 30
0.0
 11
430.6218778779
 21
859.8463928644
 31
0.0
  0
ARC
  5
644
330
1F
100
AcDbEntity
  8
0
  6
CONTINUOUS
 62
     7
100
AcDbCircle
 10
434.1626115038
 20
861.8027642746
 30
0.0
 40
3.412747582085638
100
AcDbArc
 50
92.8028210256
 51
177.1970472916
  0
LINE
  5
645
330
1F
100
AcDbEntity
  8
0
  6
CONTINUOUS
 62
     7
100
AcDbLine
 10
436.1189832975
 20
865.3434908335
 30
0.0
 11
434.005790024
 21
865.2086949293
 31
0.0
  0
LINE
  5
646
330
1F
100
AcDbEntity
  8
0
  6
CONTINUOUS
 62
     7
100
AcDbLine
 10
436.1189832975
 20
865.3434908335
 30
0.0
 11
441.7822664668
 21
859.6815562193
 31
0.0
  0
LINE
  5
647
330
1F
100
AcDbEntity
  8
0
  6
CONTINUOUS
 62
     7
100
AcDbLine
 10
648.3261963417
 20
865.3434908335
 30
0.0
 11
642.6629131724
 21
859.6815562193
 31
0.0
  0
LINE
  5
648
330
1F
100
AcDbEntity
  8
0
  6
CONTINUOUS
 62
     7
100
AcDbLine
 10
648.3261963417
 20
865.3434908335
 30
0.0
 11
650.4395013739
 21
865.2118763272
 31
0.0
  0
ARC
  5
649
330
1F
100
AcDbEntity
  8
0
  6
CONTINUOUS
 62
     7
100
AcDbCircle
 10
650.2825681354
 20
861.8027642746
 30
0.0
 40
3.412747582086073
100
AcDbArc
 50
2.8029527084
 51
87.1971789744
  0
LINE
  5
64A
330
1F
100
AcDbEntity
  8
0
  6
CONTINUOUS
 62
     7
100
AcDbLine
 10
653.6884984066
 20
861.959586138
 30
0.0
 11
653.8233017613
 21
859.8463928644
 31
0.0
  0
LINE
  5
64B
330
1F
100
AcDbEntity
  8
0
  6
CONTINUOUS
 62
     7
100
AcDbLine
 10
436.1189832975
 20
638.742076451
 30
0.0
 11
441.7822664668
 21
644.4040110652
 31
0.0
  0
LINE
  5
64C
330
1F
100
AcDbEntity
  8
0
  6
CONTINUOUS
 62
     7
100
AcDbLine
 10
436.1189832975
 20
638.742076451
 30
0.0
 11
434.0056782653
 21
638.8736835067
 31
0.0
  0
ARC
  5
64D
330
1F
100
AcDbEntity
  8
0
  6
CONTINUOUS
 62
     7
100
AcDbCircle
 10
434.1626359132
 20
642.2828192016
 30
0.0
 40
3.412772389804483
100
AcDbArc
 50
182.8030792452
 51
267.1967890723
  0
LINE
  5
64E
330
1F
100
AcDbEntity
  8
0
  6
CONTINUOUS
 62
     7
100
AcDbLine
 10
430.7566812326
 20
642.1259811465
 30
0.0
 11
430.6218778779
 21
644.2391744201
 31
0.0
  0
LINE
  5
64F
330
1F
100
AcDbEntity
  8
0
  6
CONTINUOUS
 62
     7
100
AcDbLine
 10
436.1189832975
 20
638.742076451
 30
0.0
 11
648.3261963417
 21
638.742076451
 31
0.0
  0
LINE
  5
650
330
1F
100
AcDbEntity
  8
0
  6
CONTINUOUS
 62
     7
100
AcDbLine
 10
648.3261963417
 20
865.3434908335
 30
0.0
 11
436.1189832975
 21
865.3434908335
 31
0.0
  0
LINE
  5
651
330
1F
100
AcDbEntity
  8
0
  6
CONTINUOUS
 62
     7
100
AcDbLine
 10
435.5280926515
 20
741.1372794156
 30
0.0
 11
435.6720900227
 21
740.9932820444
 31
0.0
  0
LINE
  5
652
330
1F
100
AcDbEntity
  8
0
  6
CONTINUOUS
 62
     7
100
AcDbLine
 10
435.5280926515
 20
745.648285592
 30
0.0
 11
435.5280926515
 21
741.1372794156
 31
0.0
  0
LINE
  5
653
330
1F
100
AcDbEntity
  8
0
  6
CONTINUOUS
 62
     7
100
AcDbLine
 10
435.5280926515
 20
745.648285592
 30
0.0
 11
435.6720900227
 21
745.7922866885
 31
0.0
  0
LINE
  5
654
330
1F
100
AcDbEntity
  8
0
  6
CONTINUOUS
 62
     7
100
AcDbLine
 10
431.6199427535
 20
741.1401367132
 30
0.0
 11
431.5040340711
 21
741.0242280309
 31
0.0
  0
LINE
  5
655
330
1F
100
AcDbEntity
  8
0
  6
CONTINUOUS
 62
     7
100
AcDbLine
 10
431.6199427535
 20
741.1662882511
 30
0.0
 11
435.5280926515
 21
741.1372794156
 31
0.0
  0
LINE
  5
656
330
1F
100
AcDbEntity
  8
0
  6
CONTINUOUS
 62
     7
100
AcDbLine
 10
431.6199427535
 20
745.6192767565
 30
0.0
 11
435.5280926515
 21
745.648285592
 31
0.0
  0
LINE
  5
657
330
1F
100
AcDbEntity
  8
0
  6
CONTINUOUS
 62
     7
100
AcDbLine
 10
431.6199427535
 20
745.6454320197
 30
0.0
 11
431.5040340711
 21
745.761340702
 31
0.0
  0
LINE
  5
658
330
1F
100
AcDbEntity
  8
0
  6
CONTINUOUS
 62
     7
100
AcDbLine
 10
435.5280926515
 20
758.5372796599
 30
0.0
 11
435.6720900227
 21
758.3932804261
 31
0.0
  0
LINE
  5
659
330
1F
100
AcDbEntity
  8
0
  6
CONTINUOUS
 62
     7
100
AcDbLine
 10
435.5280926515
 20
763.0482867677
 30
0.0
 11
435.5280926515
 21
758.5372796599
 31
0.0
  0
LINE
  5
65A
330
1F
100
AcDbEntity
  8
0
  6
CONTINUOUS
 62
     7
100
AcDbLine
 10
435.5280926515
 20
763.0482867677
 30
0.0
 11
435.6720900227
 21
763.1922869329
 31
0.0
  0
LINE
  5
65B
330
1F
100
AcDbEntity
  8
0
  6
CONTINUOUS
 62
     7
100
AcDbLine
 10
431.6199427535
 20
758.5401369576
 30
0.0
 11
431.5040340711
 21
758.4242264126
 31
0.0
  0
LINE
  5
65C
330
1F
100
AcDbEntity
  8
0
  6
CONTINUOUS
 62
     7
100
AcDbLine
 10
431.6199427535
 20
758.5662884955
 30
0.0
 11
435.5280926515
 21
758.5372796599
 31
0.0
  0
LINE
  5
65D
330
1F
100
AcDbEntity
  8
0
  6
CONTINUOUS
 62
     7
100
AcDbLine
 10
431.6199427535
 20
763.0192779322
 30
0.0
 11
435.5280926515
 21
763.0482867677
 31
0.0
  0
LINE
  5
65E
330
1F
100
AcDbEntity
  8
0
  6
CONTINUOUS
 62
     7
100
AcDbLine
 10
431.6199427535
 20
763.0454304014
 30
0.0
 11
431.5040340711
 21
763.1613400151
 31
0.0
  0
LINE
  5
65F
330
1F
100
AcDbEntity
  8
0
  6
CONTINUOUS
 62
     7
100
AcDbLine
 10
430.6218778779
 20
746.6531491224
 30
0.0
 11
431.0562616278
 21
746.6961501483
 31
0.0
  0
LINE
  5
660
330
1F
100
AcDbEntity
  8
0
  6
CONTINUOUS
 62
     7
100
AcDbLine
 10
431.0562616278
 20
746.6961501483
 30
0.0
 11
432.5486650755
 21
746.6906106417
 31
0.0
  0
LINE
  5
661
330
1F
100
AcDbEntity
  8
0
  6
CONTINUOUS
 62
     7
100
AcDbLine
 10
432.5486650755
 20
757.3949566428
 30
0.0
 11
431.0562616278
 21
757.3894171361
 31
0.0
  0
LINE
  5
662
330
1F
100
AcDbEntity
  8
0
  6
CONTINUOUS
 62
     7
100
AcDbLine
 10
430.6218778779
 20
757.4324181621
 30
0.0
 11
431.0562616278
 21
757.3894171361
 31
0.0
  0
LINE
  5
663
330
1F
100
AcDbEntity
  8
0
  6
CONTINUOUS
 62
     7
100
AcDbLine
 10
431.6199427535
 20
745.6454320197
 30
0.0
 11
431.6199427535
 21
741.1401367132
 31
0.0
  0
LINE
  5
664
330
1F
100
AcDbEntity
  8
0
  6
CONTINUOUS
 62
     7
100
AcDbLine
 10
431.6199427535
 20
763.0454304014
 30
0.0
 11
431.6199427535
 21
758.5401369576
 31
0.0
  0
LINE
  5
665
330
1F
100
AcDbEntity
  8
0
  6
CONTINUOUS
 62
     7
100
AcDbLine
 10
648.3261963417
 20
636.7635151689
 30
0.0
 11
648.3261963417
 21
638.742076451
 31
0.0
  0
ARC
  5
666
330
1F
100
AcDbEntity
  8
0
  6
CONTINUOUS
 62
     7
100
AcDbCircle
 10
640.9193055918
 20
638.4530645078
 30
0.0
 40
9.539419280194702
100
AcDbArc
 50
349.7843857644
 51
2.5270568286
  0
LWPOLYLINE
  5
667
330
1F
100
AcDbEntity
  8
0
  6
CONTINUOUS
 62
     7
100
AcDbPolyline
 90
        3
 70
   128
 43
0.0
 10
648.3261963417
 20
636.7635151689
 10
649.4361689378
 20
636.762695605
 10
650.3074994375
 20
636.76122039
  0
ARC
  5
668
330
1F
100
AcDbEntity
  8
0
  6
CONTINUOUS
 62
     7
100
AcDbCircle
 10
443.5250584983
 20
638.4531051787
 30
0.0
 40
9.53860273095773
100
AcDbArc
 50
177.4729712403
 51
190.2160187692
  0
LINE
  5
669
330
1F
100
AcDbEntity
  8
0
  6
CONTINUOUS
 62
     7
100
AcDbLine
 10
436.1189832975
 20
636.7635151689
 30
0.0
 11
436.1189832975
 21
638.742076451
 31
0.0
  0
LWPOLYLINE
  5
66A
330
1F
100
AcDbEntity
  8
0
  6
CONTINUOUS
 62
     7
100
AcDbPolyline
 90
        3
 70
   128
 43
0.0
 10
436.1189832975
 20
636.7635151689
 10
435.0090107013
 20
636.762695605
 10
434.1376802017
 20
636.76122039
  0
ARC
  5
66B
330
1F
100
AcDbEntity
  8
0
  6
CONTINUOUS
 62
     7
100
AcDbCircle
 10
654.1122581497
 20
651.6454269595
 30
0.0
 40
9.53877989787941
100
AcDbArc
 50
267.4730181024
 51
280.2159178292
  0
LINE
  5
66C
330
1F
100
AcDbEntity
  8
0
  6
CONTINUOUS
 62
     7
100
AcDbLine
 10
655.8018630435
 20
644.2391744201
 30
0.0
 11
653.8233017613
 21
644.2391744201
 31
0.0
  0
LWPOLYLINE
  5
66D
330
1F
100
AcDbEntity
  8
0
  6
CONTINUOUS
 62
     7
100
AcDbPolyline
 90
        3
 70
   128
 43
0.0
 10
655.8041503717
 20
642.2578713243
 10
655.8023845841
 20
643.3669796531
 10
655.8018630435
 20
644.2391744201
  0
LINE
  5
66E
330
1F
100
AcDbEntity
  8
0
  6
CONTINUOUS
 62
     7
100
AcDbLine
 10
428.6433165957
 20
644.2391744201
 30
0.0
 11
430.6218778779
 21
644.2391744201
 31
0.0
  0
ARC
  5
66F
330
1F
100
AcDbEntity
  8
0
  6
CONTINUOUS
 62
     7
100
AcDbCircle
 10
430.3329140803
 20
651.6466487114
 30
0.0
 40
9.540000788521217
100
AcDbArc
 50
259.7847667923
 51
272.5267028368
  0
LWPOLYLINE
  5
670
330
1F
100
AcDbEntity
  8
0
  6
CONTINUOUS
 62
     7
100
AcDbPolyline
 90
        3
 70
   128
 43
0.0
 10
428.6410292675
 20
642.2578713243
 10
428.6427950551
 20
643.3669796531
 10
428.6433165957
 20
644.2391744201
  0
ARC
  5
671
330
1F
100
AcDbEntity
  8
0
  6
CONTINUOUS
 62
     7
100
AcDbCircle
 10
640.9200060937
 20
865.6324528912
 30
0.0
 40
9.538717588529442
100
AcDbArc
 50
357.4730122944
 51
10.2159506761
  0
LINE
  5
672
330
1F
100
AcDbEntity
  8
0
  6
CONTINUOUS
 62
     7
100
AcDbLine
 10
648.3261963417
 20
867.3220521156
 30
0.0
 11
648.3261963417
 21
865.3434908335
 31
0.0
  0
LWPOLYLINE
  5
673
330
1F
100
AcDbEntity
  8
0
  6
CONTINUOUS
 62
     7
100
AcDbPolyline
 90
        3
 70
   128
 43
0.0
 10
648.3261963417
 20
867.3220521156
 10
649.4361689378
 20
867.3228716795
 10
650.3074994375
 20
867.3243468945
  0
LINE
  5
674
330
1F
100
AcDbEntity
  8
0
  6
CONTINUOUS
 62
     7
100
AcDbLine
 10
436.1189832975
 20
867.3220521156
 30
0.0
 11
436.1189832975
 21
865.3434908335
 31
0.0
  0
ARC
  5
675
330
1F
100
AcDbEntity
  8
0
  6
CONTINUOUS
 62
     7
100
AcDbCircle
 10
443.5259267949
 20
865.6324992323
 30
0.0
 40
9.53947182008037
100
AcDbArc
 50
169.7844210007
 51
182.5270215923
  0
LWPOLYLINE
  5
676
330
1F
100
AcDbEntity
  8
0
  6
CONTINUOUS
 62
     7
100
AcDbPolyline
 90
        3
 70
   128
 43
0.0
 10
436.1189832975
 20
867.3220521156
 10
435.0090107013
 20
867.3228716795
 10
434.1376802017
 20
867.3243468945
  0
LINE
  5
677
330
1F
100
AcDbEntity
  8
0
  6
CONTINUOUS
 62
     7
100
AcDbLine
 10
655.8018630435
 20
859.8463928644
 30
0.0
 11
653.8233017613
 21
859.8463928644
 31
0.0
  0
ARC
  5
678
330
1F
100
AcDbEntity
  8
0
  6
CONTINUOUS
 62
     7
100
AcDbCircle
 10
654.11229704
 20
852.4393870711
 30
0.0
 40
9.539534134037634
100
AcDbArc
 50
79.7844538466
 51
92.5270157824
  0
LWPOLYLINE
  5
679
330
1F
100
AcDbEntity
  8
0
  6
CONTINUOUS
 62
     7
100
AcDbPolyline
 90
        3
 70
   128
 43
0.0
 10
655.8041503717
 20
861.8276959602
 10
655.8023845841
 20
860.718595082
 10
655.8018630435
 20
859.8463928644
  0
ARC
  5
67A
330
1F
100
AcDbEntity
  8
0
  6
CONTINUOUS
 62
     7
100
AcDbCircle
 10
430.3328889566
 20
852.4411171317
 30
0.0
 40
9.537805475804353
100
AcDbArc
 50
87.4725641447
 51
100.2167741529
  0
LINE
  5
67B
330
1F
100
AcDbEntity
  8
0
  6
CONTINUOUS
 62
     7
100
AcDbLine
 10
428.6433165957
 20
859.8463928644
 30
0.0
 11
430.6218778779
 21
859.8463928644
 31
0.0
  0
LWPOLYLINE
  5
67C
330
1F
100
AcDbEntity
  8
0
  6
CONTINUOUS
 62
     7
100
AcDbPolyline
 90
        3
 70
   128
 43
0.0
 10
428.6410292675
 20
861.8276959602
 10
428.6427950551
 20
860.718595082
 10
428.6433165957
 20
859.8463928644
  0
LINE
  5
67D
330
1F
100
AcDbEntity
  8
0
  6
CONTINUOUS
 62
     7
100
AcDbLine
 10
430.6218778779
 20
757.4324181621
 30
0.0
 11
430.6218778779
 21
746.6531491224
 31
0.0
  0
LINE
  5
67E
330
1F
100
AcDbEntity
  8
0
  6
CONTINUOUS
 62
     7
100
AcDbLine
 10
428.6433165957
 20
644.2391744201
 30
0.0
 11
428.6433165957
 21
859.8463928644
 31
0.0
  0
LINE
  5
67F
330
1F
100
AcDbEntity
  8
0
  6
CONTINUOUS
 62
     7
100
AcDbLine
 10
648.3261963417
 20
636.7635151689
 30
0.0
 11
436.1189832975
 21
636.7635151689
 31
0.0
  0
LINE
  5
680
330
1F
100
AcDbEntity
  8
0
  6
CONTINUOUS
 62
     7
100
AcDbLine
 10
436.1189832975
 20
867.3220521156
 30
0.0
 11
648.3261963417
 21
867.3220521156
 31
0.0
  0
LINE
  5
681
330
1F
100
AcDbEntity
  8
0
  6
CONTINUOUS
 62
     7
100
AcDbLine
 10
655.1535135199
 20
676.6427850668
 30
0.0
 11
655.1535135199
 21
673.6427864377
 31
0.0
  0
LINE
  5
682
330
1F
100
AcDbEntity
  8
0
  6
CONTINUOUS
 62
     7
100
AcDbLine
 10
655.8018630435
 20
644.2391744201
 30
0.0
 11
655.8018630435
 21
673.6427864377
 31
0.0
  0
LINE
  5
683
330
1F
100
AcDbEntity
  8
0
  6
CONTINUOUS
 62
     7
100
AcDbLine
 10
655.1535135199
 20
676.6427850668
 30
0.0
 11
653.8233017613
 21
676.6427850668
 31
0.0
  0
LINE
  5
684
330
1F
100
AcDbEntity
  8
0
  6
CONTINUOUS
 62
     7
100
AcDbLine
 10
655.8018630435
 20
830.4427845721
 30
0.0
 11
655.8018630435
 21
859.8463928644
 31
0.0
  0
LINE
  5
685
330
1F
100
AcDbEntity
  8
0
  6
CONTINUOUS
 62
     7
100
AcDbLine
 10
655.1535135199
 20
830.4427845721
 30
0.0
 11
655.1535135199
 21
827.4427822177
 31
0.0
  0
LINE
  5
686
330
1F
100
AcDbEntity
  8
0
  6
CONTINUOUS
 62
     7
100
AcDbLine
 10
655.1535135199
 20
827.4427822177
 30
0.0
 11
653.8233017613
 21
827.4427822177
 31
0.0
  0
ARC
  5
687
330
1F
100
AcDbEntity
  8
0
  6
CONTINUOUS
 62
     7
100
AcDbCircle
 10
650.3117610182
 20
642.2536097436
 30
0.0
 40
5.492391006820259
100
AcDbArc
 50
269.9555438402
 51
0.0444561598
  0
ARC
  5
688
330
1F
100
AcDbEntity
  8
0
  6
CONTINUOUS
 62
     7
100
AcDbCircle
 10
434.1334111424
 20
642.253602265
 30
0.0
 40
5.492383534047146
100
AcDbArc
 50
179.9554657642
 51
270.0445342358
  0
ARC
  5
689
330
1F
100
AcDbEntity
  8
0
  6
CONTINUOUS
 62
     7
100
AcDbCircle
 10
650.3117567868
 20
861.8319533096
 30
0.0
 40
5.492395234874285
100
AcDbArc
 50
359.9555880151
 51
90.0444119849
  0
ARC
  5
68A
330
1F
100
AcDbEntity
  8
0
  6
CONTINUOUS
 62
     7
100
AcDbCircle
 10
434.1334153793
 20
861.8319607826
 30
0.0
 40
5.492387767675759
100
AcDbArc
 50
89.9555099974
 51
180.0444900026
  0
LINE
  5
68B
330
1F
100
AcDbEntity
  8
0
  6
CONTINUOUS
 62
     7
100
AcDbLine
 10
655.1535135199
 20
721.6427831296
 30
0.0
 11
655.1535135199
 21
718.6427845006
 31
0.0
  0
LINE
  5
68C
330
1F
100
AcDbEntity
  8
0
  6
CONTINUOUS
 62
     7
100
AcDbLine
 10
655.8018630435
 20
695.442782933
 30
0.0
 11
655.8018630435
 21
718.6427845006
 31
0.0
  0
LINE
  5
68D
330
1F
100
AcDbEntity
  8
0
  6
CONTINUOUS
 62
     7
100
AcDbLine
 10
655.1535135199
 20
695.442782933
 30
0.0
 11
655.1535135199
 21
692.4427843039
 31
0.0
  0
LINE
  5
68E
330
1F
100
AcDbEntity
  8
0
  6
CONTINUOUS
 62
     7
100
AcDbLine
 10
655.1535135199
 20
721.6427831296
 30
0.0
 11
653.8233017613
 21
721.6427831296
 31
0.0
  0
LINE
  5
68F
330
1F
100
AcDbEntity
  8
0
  6
CONTINUOUS
 62
     7
100
AcDbLine
 10
655.1535135199
 20
692.4427843039
 30
0.0
 11
653.8233017613
 21
692.4427843039
 31
0.0
  0
LINE
  5
690
330
1F
100
AcDbEntity
  8
0
  6
CONTINUOUS
 62
     7
100
AcDbLine
 10
655.1535135199
 20
766.6427830551
 30
0.0
 11
655.1535135199
 21
763.6427834947
 31
0.0
  0
LINE
  5
691
330
1F
100
AcDbEntity
  8
0
  6
CONTINUOUS
 62
     7
100
AcDbLine
 10
655.8018630435
 20
740.4427847211
 30
0.0
 11
655.8018630435
 21
763.6427834947
 31
0.0
  0
LINE
  5
692
330
1F
100
AcDbEntity
  8
0
  6
CONTINUOUS
 62
     7
100
AcDbLine
 10
655.1535135199
 20
740.4427847211
 30
0.0
 11
655.1535135199
 21
737.4427823667
 31
0.0
  0
LINE
  5
693
330
1F
100
AcDbEntity
  8
0
  6
CONTINUOUS
 62
     7
100
AcDbLine
 10
655.1535135199
 20
766.6427830551
 30
0.0
 11
653.8233017613
 21
766.6427830551
 31
0.0
  0
LINE
  5
694
330
1F
100
AcDbEntity
  8
0
  6
CONTINUOUS
 62
     7
100
AcDbLine
 10
655.1535135199
 20
737.4427823667
 30
0.0
 11
653.8233017613
 21
737.4427823667
 31
0.0
  0
LINE
  5
695
330
1F
100
AcDbEntity
  8
0
  6
CONTINUOUS
 62
     7
100
AcDbLine
 10
655.1535135199
 20
811.6427829806
 30
0.0
 11
655.1535135199
 21
808.6427843515
 31
0.0
  0
LINE
  5
696
330
1F
100
AcDbEntity
  8
0
  6
CONTINUOUS
 62
     7
100
AcDbLine
 10
655.8018630435
 20
785.4427837153
 30
0.0
 11
655.8018630435
 21
808.6427843515
 31
0.0
  0
LINE
  5
697
330
1F
100
AcDbEntity
  8
0
  6
CONTINUOUS
 62
     7
100
AcDbLine
 10
655.1535135199
 20
785.4427837153
 30
0.0
 11
655.1535135199
 21
782.4427836892
 31
0.0
  0
LINE
  5
698
330
1F
100
AcDbEntity
  8
0
  6
CONTINUOUS
 62
     7
100
AcDbLine
 10
655.1535135199
 20
811.6427829806
 30
0.0
 11
653.8233017613
 21
811.6427829806
 31
0.0
  0
LINE
  5
699
330
1F
100
AcDbEntity
  8
0
  6
CONTINUOUS
 62
     7
100
AcDbLine
 10
655.1535135199
 20
782.4427836892
 30
0.0
 11
653.8233017613
 21
782.4427836892
 31
0.0
  0
LINE
  5
69A
330
1F
100
AcDbEntity
  8
0
  6
CONTINUOUS
 62
     7
100
AcDbLine
 10
431.0562616278
 20
757.3894171361
 30
0.0
 11
431.0562616278
 21
746.6961501483
 31
0.0
  0
LINE
  5
69B
330
1F
100
AcDbEntity
  8
0
  6
CONTINUOUS
 62
     7
100
AcDbLine
 10
663.3111467649
 20
673.6427864377
 30
0.0
 11
663.3111467649
 21
676.6427850668
 31
0.0
  0
LINE
  5
69C
330
1F
100
AcDbEntity
  8
0
  6
CONTINUOUS
 62
     7
100
AcDbLine
 10
655.1535135199
 20
673.6427864377
 30
0.0
 11
663.3111467649
 21
673.6427864377
 31
0.0
  0
LINE
  5
69D
330
1F
100
AcDbEntity
  8
0
  6
CONTINUOUS
 62
     7
100
AcDbLine
 10
655.1535135199
 20
676.6427850668
 30
0.0
 11
663.3111467649
 21
676.6427850668
 31
0.0
  0
LINE
  5
69E
330
1F
100
AcDbEntity
  8
0
  6
CONTINUOUS
 62
     7
100
AcDbLine
 10
663.3111467649
 20
692.4427843039
 30
0.0
 11
663.3111467649
 21
695.442782933
 31
0.0
  0
LINE
  5
69F
330
1F
100
AcDbEntity
  8
0
  6
CONTINUOUS
 62
     7
100
AcDbLine
 10
655.1535135199
 20
695.442782933
 30
0.0
 11
663.3111467649
 21
695.442782933
 31
0.0
  0
LINE
  5
6A0
330
1F
100
AcDbEntity
  8
0
  6
CONTINUOUS
 62
     7
100
AcDbLine
 10
663.3111467649
 20
692.4427843039
 30
0.0
 11
655.1535135199
 21
692.4427843039
 31
0.0
  0
LINE
  5
6A1
330
1F
100
AcDbEntity
  8
0
  6
CONTINUOUS
 62
     7
100
AcDbLine
 10
663.3111467649
 20
721.6427831296
 30
0.0
 11
663.3111467649
 21
718.6427845006
 31
0.0
  0
LINE
  5
6A2
330
1F
100
AcDbEntity
  8
0
  6
CONTINUOUS
 62
     7
100
AcDbLine
 10
655.1535135199
 20
718.6427845006
 30
0.0
 11
663.3111467649
 21
718.6427845006
 31
0.0
  0
LINE
  5
6A3
330
1F
100
AcDbEntity
  8
0
  6
CONTINUOUS
 62
     7
100
AcDbLine
 10
655.1535135199
 20
721.6427831296
 30
0.0
 11
663.3111467649
 21
721.6427831296
 31
0.0
  0
LINE
  5
6A4
330
1F
100
AcDbEntity
  8
0
  6
CONTINUOUS
 62
     7
100
AcDbLine
 10
663.3111467649
 20
740.4427847211
 30
0.0
 11
663.3111467649
 21
737.4427823667
 31
0.0
  0
LINE
  5
6A5
330
1F
100
AcDbEntity
  8
0
  6
CONTINUOUS
 62
     7
100
AcDbLine
 10
655.1535135199
 20
740.4427847211
 30
0.0
 11
663.3111467649
 21
740.4427847211
 31
0.0
  0
LINE
  5
6A6
330
1F
100
AcDbEntity
  8
0
  6
CONTINUOUS
 62
     7
100
AcDbLine
 10
655.1535135199
 20
737.4427823667
 30
0.0
 11
663.3111467649
 21
737.4427823667
 31
0.0
  0
LINE
  5
6A7
330
1F
100
AcDbEntity
  8
0
  6
CONTINUOUS
 62
     7
100
AcDbLine
 10
663.3111467649
 20
763.6427834947
 30
0.0
 11
663.3111467649
 21
766.6427830551
 31
0.0
  0
LINE
  5
6A8
330
1F
100
AcDbEntity
  8
0
  6
CONTINUOUS
 62
     7
100
AcDbLine
 10
655.1535135199
 20
763.6427834947
 30
0.0
 11
663.3111467649
 21
763.6427834947
 31
0.0
  0
LINE
  5
6A9
330
1F
100
AcDbEntity
  8
0
  6
CONTINUOUS
 62
     7
100
AcDbLine
 10
655.1535135199
 20
766.6427830551
 30
0.0
 11
663.3111467649
 21
766.6427830551
 31
0.0
  0
LINE
  5
6AA
330
1F
100
AcDbEntity
  8
0
  6
CONTINUOUS
 62
     7
100
AcDbLine
 10
663.3111467649
 20
782.4427836892
 30
0.0
 11
663.3111467649
 21
785.4427837153
 31
0.0
  0
LINE
  5
6AB
330
1F
100
AcDbEntity
  8
0
  6
CONTINUOUS
 62
     7
100
AcDbLine
 10
655.1535135199
 20
785.4427837153
 30
0.0
 11
663.3111467649
 21
785.4427837153
 31
0.0
  0
LINE
  5
6AC
330
1F
100
AcDbEntity
  8
0
  6
CONTINUOUS
 62
     7
100
AcDbLine
 10
655.1535135199
 20
782.4427836892
 30
0.0
 11
663.3111467649
 21
782.4427836892
 31
0.0
  0
LINE
  5
6AD
330
1F
100
AcDbEntity
  8
0
  6
CONTINUOUS
 62
     7
100
AcDbLine
 10
663.3111467649
 20
811.6427829806
 30
0.0
 11
663.3111467649
 21
808.6427843515
 31
0.0
  0
LINE
  5
6AE
330
1F
100
AcDbEntity
  8
0
  6
CONTINUOUS
 62
     7
100
AcDbLine
 10
655.1535135199
 20
808.6427843515
 30
0.0
 11
663.3111467649
 21
808.6427843515
 31
0.0
  0
LINE
  5
6AF
330
1F
100
AcDbEntity
  8
0
  6
CONTINUOUS
 62
     7
100
AcDbLine
 10
655.1535135199
 20
811.6427829806
 30
0.0
 11
663.3111467649
 21
811.6427829806
 31
0.0
  0
LINE
  5
6B0
330
1F
100
AcDbEntity
  8
0
  6
CONTINUOUS
 62
     7
100
AcDbLine
 10
663.3111467649
 20
830.4427845721
 30
0.0
 11
663.3111467649
 21
827.4427822177
 31
0.0
  0
LINE
  5
6B1
330
1F
100
AcDbEntity
  8
0
  6
CONTINUOUS
 62
     7
100
AcDbLine
 10
655.1535135199
 20
830.4427845721
 30
0.0
 11
663.3111467649
 21
830.4427845721
 31
0.0
  0
LINE
  5
6B2
330
1F
100
AcDbEntity
  8
0
  6
CONTINUOUS
 62
     7
100
AcDbLine
 10
655.1535135199
 20
827.4427822177
 30
0.0
 11
663.3111467649
 21
827.4427822177
 31
0.0
  0
LINE
  5
6B3
330
1F
100
AcDbEntity
  8
0
  6
CONTINUOUS
 62
     7
100
AcDbLine
 10
655.8041503717
 20
642.2578713243
 30
0.0
 11
656.2225898792
 21
641.8394318168
 31
0.0
  0
ELLIPSE
  5
6B4
330
1F
100
AcDbEntity
  8
0
  6
CONTINUOUS
 62
     7
100
AcDbEllipse
 10
650.7192373259
 20
641.8461359988
 30
0.0
 11
-3.893826995295512
 21
3.893826995295512
 31
0.0
210
0.0
220
0.0
230
0.9999999999999998
 40
0.998782766
 41
2.356803477777965
 42
3.926381829401656
  0
LINE
  5
6B5
330
1F
100
AcDbEntity
  8
0
  6
CONTINUOUS
 62
     7
100
AcDbLine
 10
650.3074994375
 20
636.76122039
 30
0.0
 11
650.725938945
 21
636.3427808826
 31
0.0
  0
LINE
  5
6B6
330
1F
100
AcDbEntity
  8
0
  6
CONTINUOUS
 62
     7
100
AcDbLine
 10
434.1376802017
 20
636.76122039
 30
0.0
 11
433.7192406942
 21
636.3427808826
 31
0.0
  0
ELLIPSE
  5
6B7
330
1F
100
AcDbEntity
  8
0
  6
CONTINUOUS
 62
     7
100
AcDbEllipse
 10
433.7259423132
 20
641.8461359988
 30
0.0
 11
-3.893826995295626
 21
-3.893826995295512
 31
0.0
210
0.0
220
0.0
230
0.9999999999999998
 40
0.998782766
 41
5.498396131367777
 42
7.067974482991432
  0
LINE
  5
6B8
330
1F
100
AcDbEntity
  8
0
  6
CONTINUOUS
 62
     7
100
AcDbLine
 10
428.6410292675
 20
642.2578713243
 30
0.0
 11
428.22258976
 21
641.8394318168
 31
0.0
  0
LINE
  5
6B9
330
1F
100
AcDbEntity
  8
0
  6
CONTINUOUS
 62
     7
100
AcDbLine
 10
650.3074994375
 20
867.3243468945
 30
0.0
 11
650.725938945
 21
867.7427864019
 31
0.0
  0
ELLIPSE
  5
6BA
330
1F
100
AcDbEntity
  8
0
  6
CONTINUOUS
 62
     7
100
AcDbEllipse
 10
650.7192373259
 20
862.2394310115
 30
0.0
 11
3.893826995295626
 21
3.893826995295512
 31
0.0
210
0.0
220
0.0
230
0.9999999999999998
 40
0.998782766
 41
5.49839613136778
 42
7.067974482991428
  0
LINE
  5
6BB
330
1F
100
AcDbEntity
  8
0
  6
CONTINUOUS
 62
     7
100
AcDbLine
 10
655.8041503717
 20
861.8276959602
 30
0.0
 11
656.2225898792
 21
862.2461354677
 31
0.0
  0
LINE
  5
6BC
330
1F
100
AcDbEntity
  8
0
  6
CONTINUOUS
 62
     7
100
AcDbLine
 10
428.6410292675
 20
861.8276959602
 30
0.0
 11
428.22258976
 21
862.2461354677
 31
0.0
  0
ELLIPSE
  5
6BD
330
1F
100
AcDbEntity
  8
0
  6
CONTINUOUS
 62
     7
100
AcDbEllipse
 10
433.7259423132
 20
862.2394310115
 30
0.0
 11
3.893826995295512
 21
-3.893826995295512
 31
0.0
210
0.0
220
0.0
230
0.9999999999999998
 40
0.998782766
 41
2.356803477777961
 42
3.926381829401659
  0
LINE
  5
6BE
330
1F
100
AcDbEntity
  8
0
  6
CONTINUOUS
 62
     7
100
AcDbLine
 10
434.1376802017
 20
867.3243468945
 30
0.0
 11
433.7192406942
 21
867.7427864019
 31
0.0
  0
LINE
  5
6BF
330
1F
100
AcDbEntity
  8
0
  6
CONTINUOUS
 62
     7
100
AcDbLine
 10
655.9171309759
 20
653.8433974926
 30
0.0
 11
655.9504276206
 21
653.818430597
 31
0.0
  0
LINE
  5
6C0
330
1F
100
AcDbEntity
  8
0
  6
CONTINUOUS
 62
     7
100
AcDbLine
 10
655.9504276206
 20
653.818430597
 30
0.0
 11
655.9504276206
 21
650.1427760665
 31
0.0
  0
LINE
  5
6C1
330
1F
100
AcDbEntity
  8
0
  6
CONTINUOUS
 62
     7
100
AcDbLine
 10
656.2225898792
 20
650.1427760665
 30
0.0
 11
655.9504276206
 21
650.1427760665
 31
0.0
  0
LINE
  5
6C2
330
1F
100
AcDbEntity
  8
0
  6
CONTINUOUS
 62
     7
100
AcDbLine
 10
656.2225898792
 20
641.8394318168
 30
0.0
 11
656.2225898792
 21
650.1427760665
 31
0.0
  0
LINE
  5
6C3
330
1F
100
AcDbEntity
  8
0
  6
CONTINUOUS
 62
     7
100
AcDbLine
 10
655.9504276206
 20
673.6427864377
 30
0.0
 11
655.9504276206
 21
657.4671363775
 31
0.0
  0
LINE
  5
6C4
330
1F
100
AcDbEntity
  8
0
  6
CONTINUOUS
 62
     7
100
AcDbLine
 10
655.9504276206
 20
657.4671363775
 30
0.0
 11
655.9171309759
 21
657.4421694819
 31
0.0
  0
ARC
  5
6C5
330
1F
100
AcDbEntity
  8
0
  6
CONTINUOUS
 62
     7
100
AcDbCircle
 10
674.0946137642
 20
655.6427834873
 30
0.0
 40
18.26632613519134
100
AcDbArc
 50
174.3467178002
 51
185.6532821998
  0
LINE
  5
6C6
330
1F
100
AcDbEntity
  8
0
  6
CONTINUOUS
 62
     7
100
AcDbLine
 10
428.22258976
 20
641.8394318168
 30
0.0
 11
428.22258976
 21
862.2461354677
 31
0.0
  0
LINE
  5
6C7
330
1F
100
AcDbEntity
  8
0
  6
CONTINUOUS
 62
     7
100
AcDbLine
 10
433.7192406942
 20
636.3427808826
 30
0.0
 11
650.725938945
 21
636.3427808826
 31
0.0
  0
LINE
  5
6C8
330
1F
100
AcDbEntity
  8
0
  6
CONTINUOUS
 62
     7
100
AcDbLine
 10
655.9504276206
 20
846.618430907
 30
0.0
 11
655.9171309759
 21
846.6433978025
 31
0.0
  0
LINE
  5
6C9
330
1F
100
AcDbEntity
  8
0
  6
CONTINUOUS
 62
     7
100
AcDbLine
 10
655.9504276206
 20
846.618430907
 30
0.0
 11
655.9504276206
 21
830.4427845721
 31
0.0
  0
LINE
  5
6CA
330
1F
100
AcDbEntity
  8
0
  6
CONTINUOUS
 62
     7
100
AcDbLine
 10
656.2225898792
 20
853.9427837674
 30
0.0
 11
656.2225898792
 21
862.2461354677
 31
0.0
  0
LINE
  5
6CB
330
1F
100
AcDbEntity
  8
0
  6
CONTINUOUS
 62
     7
100
AcDbLine
 10
656.2225898792
 20
853.9427837674
 30
0.0
 11
655.9504276206
 21
853.9427837674
 31
0.0
  0
LINE
  5
6CC
330
1F
100
AcDbEntity
  8
0
  6
CONTINUOUS
 62
     7
100
AcDbLine
 10
655.9504276206
 20
853.9427837674
 30
0.0
 11
655.9504276206
 21
850.2671366875
 31
0.0
  0
LINE
  5
6CD
330
1F
100
AcDbEntity
  8
0
  6
CONTINUOUS
 62
     7
100
AcDbLine
 10
655.9171309759
 20
850.2421697919
 30
0.0
 11
655.9504276206
 21
850.2671366875
 31
0.0
  0
ARC
  5
6CE
330
1F
100
AcDbEntity
  8
0
  6
CONTINUOUS
 62
     7
100
AcDbCircle
 10
674.0945259795
 20
848.4427837972
 30
0.0
 40
18.26623877743072
100
AcDbArc
 50
174.3466906755
 51
185.6533093245
  0
LINE
  5
6CF
330
1F
100
AcDbEntity
  8
0
  6
CONTINUOUS
 62
     7
100
AcDbLine
 10
433.7192406942
 20
867.7427864019
 30
0.0
 11
650.725938945
 21
867.7427864019
 31
0.0
  0
LINE
  5
6D0
330
1F
100
AcDbEntity
  8
0
  6
CONTINUOUS
 62
     7
100
AcDbLine
 10
655.9504276206
 20
718.6427845006
 30
0.0
 11
655.9504276206
 21
695.442782933
 31
0.0
  0
LINE
  5
6D1
330
1F
100
AcDbEntity
  8
0
  6
CONTINUOUS
 62
     7
100
AcDbLine
 10
655.9504276206
 20
763.6427834947
 30
0.0
 11
655.9504276206
 21
740.4427847211
 31
0.0
  0
LINE
  5
6D2
330
1F
100
AcDbEntity
  8
0
  6
CONTINUOUS
 62
     7
100
AcDbLine
 10
655.9504276206
 20
808.6427843515
 30
0.0
 11
655.9504276206
 21
785.4427837153
 31
0.0
  0
LINE
  5
6D3
330
1F
100
AcDbEntity
  8
0
  6
CONTINUOUS
 62
     7
100
AcDbLine
 10
664.3861537863
 20
676.6427850668
 30
0.0
 11
664.3861537863
 21
692.4427843039
 31
0.0
  0
LINE
  5
6D4
330
1F
100
AcDbEntity
  8
0
  6
CONTINUOUS
 62
     7
100
AcDbLine
 10
663.3111467649
 20
695.442782933
 30
0.0
 11
667.1825876524
 21
695.442782933
 31
0.0
  0
LINE
  5
6D5
330
1F
100
AcDbEntity
  8
0
  6
CONTINUOUS
 62
     7
100
AcDbLine
 10
663.3111467649
 20
673.6427864377
 30
0.0
 11
667.1825876524
 21
673.6427864377
 31
0.0
  0
LINE
  5
6D6
330
1F
100
AcDbEntity
  8
0
  6
CONTINUOUS
 62
     7
100
AcDbLine
 10
664.3861537863
 20
692.4427843039
 30
0.0
 11
663.3111467649
 21
692.4427843039
 31
0.0
  0
LINE
  5
6D7
330
1F
100
AcDbEntity
  8
0
  6
CONTINUOUS
 62
     7
100
AcDbLine
 10
663.3111467649
 20
676.6427850668
 30
0.0
 11
664.3861537863
 21
676.6427850668
 31
0.0
  0
LINE
  5
6D8
330
1F
100
AcDbEntity
  8
0
  6
CONTINUOUS
 62
     7
100
AcDbLine
 10
664.3861537863
 20
721.6427831296
 30
0.0
 11
664.3861537863
 21
737.4427823667
 31
0.0
  0
LINE
  5
6D9
330
1F
100
AcDbEntity
  8
0
  6
CONTINUOUS
 62
     7
100
AcDbLine
 10
663.3111467649
 20
740.4427847211
 30
0.0
 11
667.1825876524
 21
740.4427847211
 31
0.0
  0
LINE
  5
6DA
330
1F
100
AcDbEntity
  8
0
  6
CONTINUOUS
 62
     7
100
AcDbLine
 10
663.3111467649
 20
718.6427845006
 30
0.0
 11
667.1825876524
 21
718.6427845006
 31
0.0
  0
LINE
  5
6DB
330
1F
100
AcDbEntity
  8
0
  6
CONTINUOUS
 62
     7
100
AcDbLine
 10
663.3111467649
 20
737.4427823667
 30
0.0
 11
664.3861537863
 21
737.4427823667
 31
0.0
  0
LINE
  5
6DC
330
1F
100
AcDbEntity
  8
0
  6
CONTINUOUS
 62
     7
100
AcDbLine
 10
663.3111467649
 20
721.6427831296
 30
0.0
 11
664.3861537863
 21
721.6427831296
 31
0.0
  0
LINE
  5
6DD
330
1F
100
AcDbEntity
  8
0
  6
CONTINUOUS
 62
     7
100
AcDbLine
 10
664.3861537863
 20
766.6427830551
 30
0.0
 11
664.3861537863
 21
782.4427836892
 31
0.0
  0
LINE
  5
6DE
330
1F
100
AcDbEntity
  8
0
  6
CONTINUOUS
 62
     7
100
AcDbLine
 10
663.3111467649
 20
785.4427837153
 30
0.0
 11
667.1825876524
 21
785.4427837153
 31
0.0
  0
LINE
  5
6DF
330
1F
100
AcDbEntity
  8
0
  6
CONTINUOUS
 62
     7
100
AcDbLine
 10
663.3111467649
 20
763.6427834947
 30
0.0
 11
667.1825876524
 21
763.6427834947
 31
0.0
  0
LINE
  5
6E0
330
1F
100
AcDbEntity
  8
0
  6
CONTINUOUS
 62
     7
100
AcDbLine
 10
663.3111467649
 20
782.4427836892
 30
0.0
 11
664.3861537863
 21
782.4427836892
 31
0.0
  0
LINE
  5
6E1
330
1F
100
AcDbEntity
  8
0
  6
CONTINUOUS
 62
     7
100
AcDbLine
 10
663.3111467649
 20
766.6427830551
 30
0.0
 11
664.3861537863
 21
766.6427830551
 31
0.0
  0
LINE
  5
6E2
330
1F
100
AcDbEntity
  8
0
  6
CONTINUOUS
 62
     7
100
AcDbLine
 10
664.3861537863
 20
811.6427829806
 30
0.0
 11
664.3861537863
 21
827.4427822177
 31
0.0
  0
LINE
  5
6E3
330
1F
100
AcDbEntity
  8
0
  6
CONTINUOUS
 62
     7
100
AcDbLine
 10
663.3111467649
 20
830.4427845721
 30
0.0
 11
667.1825876524
 21
830.4427845721
 31
0.0
  0
LINE
  5
6E4
330
1F
100
AcDbEntity
  8
0
  6
CONTINUOUS
 62
     7
100
AcDbLine
 10
663.3111467649
 20
808.6427843515
 30
0.0
 11
667.1825876524
 21
808.6427843515
 31
0.0
  0
LINE
  5
6E5
330
1F
100
AcDbEntity
  8
0
  6
CONTINUOUS
 62
     7
100
AcDbLine
 10
663.3111467649
 20
827.4427822177
 30
0.0
 11
664.3861537863
 21
827.4427822177
 31
0.0
  0
LINE
  5
6E6
330
1F
100
AcDbEntity
  8
0
  6
CONTINUOUS
 62
     7
100
AcDbLine
 10
663.3111467649
 20
811.6427829806
 30
0.0
 11
664.3861537863
 21
811.6427829806
 31
0.0
  0
LINE
  5
6E7
330
1F
100
AcDbEntity
  8
0
  6
CONTINUOUS
 62
     7
100
AcDbLine
 10
664.229296713
 20
676.6427850668
 30
0.0
 11
664.229296713
 21
692.4427843039
 31
0.0
  0
LINE
  5
6E8
330
1F
100
AcDbEntity
  8
0
  6
CONTINUOUS
 62
     7
100
AcDbLine
 10
664.229296713
 20
737.4427823667
 30
0.0
 11
664.229296713
 21
721.6427831296
 31
0.0
  0
LINE
  5
6E9
330
1F
100
AcDbEntity
  8
0
  6
CONTINUOUS
 62
     7
100
AcDbLine
 10
664.229296713
 20
766.6427830551
 30
0.0
 11
664.229296713
 21
782.4427836892
 31
0.0
  0
LINE
  5
6EA
330
1F
100
AcDbEntity
  8
0
  6
CONTINUOUS
 62
     7
100
AcDbLine
 10
664.229296713
 20
827.4427822177
 30
0.0
 11
664.229296713
 21
811.6427829806
 31
0.0
  0
LINE
  5
6EB
330
1F
100
AcDbEntity
  8
0
  6
CONTINUOUS
 62
     7
100
AcDbLine
 10
660.4270493676
 20
676.6427850668
 30
0.0
 11
660.4270493676
 21
692.4427843039
 31
0.0
  0
LINE
  5
6EC
330
1F
100
AcDbEntity
  8
0
  6
CONTINUOUS
 62
     7
100
AcDbLine
 10
660.4270493676
 20
721.6427831296
 30
0.0
 11
660.4270493676
 21
737.4427823667
 31
0.0
  0
LINE
  5
6ED
330
1F
100
AcDbEntity
  8
0
  6
CONTINUOUS
 62
     7
100
AcDbLine
 10
660.4270493676
 20
766.6427830551
 30
0.0
 11
660.4270493676
 21
782.4427836892
 31
0.0
  0
LINE
  5
6EE
330
1F
100
AcDbEntity
  8
0
  6
CONTINUOUS
 62
     7
100
AcDbLine
 10
660.4270493676
 20
811.6427829806
 30
0.0
 11
660.4270493676
 21
827.4427822177
 31
0.0
  0
LINE
  5
6EF
330
1F
100
AcDbEntity
  8
0
  6
CONTINUOUS
 62
     7
100
AcDbLine
 10
664.1814863373
 20
737.2427827065
 30
0.0
 11
660.3825917532
 21
737.2427827065
 31
0.0
  0
LINE
  5
6F0
330
1F
100
AcDbEntity
  8
0
  6
CONTINUOUS
 62
     7
100
AcDbLine
 10
664.1814863373
 20
721.8427827899
 30
0.0
 11
664.1814863373
 21
737.2427827065
 31
0.0
  0
LINE
  5
6F1
330
1F
100
AcDbEntity
  8
0
  6
CONTINUOUS
 62
     7
100
AcDbLine
 10
664.1814937879
 20
721.8427827899
 30
0.0
 11
660.3825917532
 21
721.8427827899
 31
0.0
  0
LINE
  5
6F2
330
1F
100
AcDbEntity
  8
0
  6
CONTINUOUS
 62
     7
100
AcDbLine
 10
664.1814863373
 20
782.2427835633
 30
0.0
 11
660.3825917532
 21
782.2427835633
 31
0.0
  0
LINE
  5
6F3
330
1F
100
AcDbEntity
  8
0
  6
CONTINUOUS
 62
     7
100
AcDbLine
 10
664.1814863373
 20
766.8427836467
 30
0.0
 11
664.1814863373
 21
782.2427835633
 31
0.0
  0
LINE
  5
6F4
330
1F
100
AcDbEntity
  8
0
  6
CONTINUOUS
 62
     7
100
AcDbLine
 10
664.1814937879
 20
766.8427836467
 30
0.0
 11
660.3825917532
 21
766.8427836467
 31
0.0
  0
LINE
  5
6F5
330
1F
100
AcDbEntity
  8
0
  6
CONTINUOUS
 62
     7
100
AcDbLine
 10
664.1814863373
 20
827.2427825574
 30
0.0
 11
660.3825917532
 21
827.2427825574
 31
0.0
  0
LINE
  5
6F6
330
1F
100
AcDbEntity
  8
0
  6
CONTINUOUS
 62
     7
100
AcDbLine
 10
664.1814863373
 20
811.8427826409
 30
0.0
 11
664.1814863373
 21
827.2427825574
 31
0.0
  0
LINE
  5
6F7
330
1F
100
AcDbEntity
  8
0
  6
CONTINUOUS
 62
     7
100
AcDbLine
 10
664.1814937879
 20
811.8427826409
 30
0.0
 11
660.3825917532
 21
811.8427826409
 31
0.0
  0
LINE
  5
6F8
330
1F
100
AcDbEntity
  8
0
  6
CONTINUOUS
 62
     7
100
AcDbLine
 10
664.1814863373
 20
692.2427809183
 30
0.0
 11
660.3825917532
 21
692.2427809183
 31
0.0
  0
LINE
  5
6F9
330
1F
100
AcDbEntity
  8
0
  6
CONTINUOUS
 62
     7
100
AcDbLine
 10
664.1814863373
 20
676.8427810018
 30
0.0
 11
664.1814863373
 21
692.2427809183
 31
0.0
  0
LINE
  5
6FA
330
1F
100
AcDbEntity
  8
0
  6
CONTINUOUS
 62
     7
100
AcDbLine
 10
664.1814937879
 20
676.8427810018
 30
0.0
 11
660.3825917532
 21
676.8427810018
 31
0.0
  0
LINE
  5
6FB
330
1F
100
AcDbEntity
  8
0
  6
CONTINUOUS
 62
     7
100
AcDbLine
 10
664.1848539998
 20
692.4427843039
 30
0.0
 11
664.1848539998
 21
692.2427809183
 31
0.0
  0
LINE
  5
6FC
330
1F
100
AcDbEntity
  8
0
  6
CONTINUOUS
 62
     7
100
AcDbLine
 10
664.1848539998
 20
676.6427850668
 30
0.0
 11
664.1848539998
 21
676.8427810018
 31
0.0
  0
LINE
  5
6FD
330
1F
100
AcDbEntity
  8
0
  6
CONTINUOUS
 62
     7
100
AcDbLine
 10
664.1848539998
 20
737.4427823667
 30
0.0
 11
664.1848539998
 21
737.2427827065
 31
0.0
  0
LINE
  5
6FE
330
1F
100
AcDbEntity
  8
0
  6
CONTINUOUS
 62
     7
100
AcDbLine
 10
664.1848539998
 20
721.6427831296
 30
0.0
 11
664.1848539998
 21
721.8427827899
 31
0.0
  0
LINE
  5
6FF
330
1F
100
AcDbEntity
  8
0
  6
CONTINUOUS
 62
     7
100
AcDbLine
 10
664.1848539998
 20
782.4427836892
 30
0.0
 11
664.1848539998
 21
782.2427835633
 31
0.0
  0
LINE
  5
700
330
1F
100
AcDbEntity
  8
0
  6
CONTINUOUS
 62
     7
100
AcDbLine
 10
664.1848539998
 20
766.6427830551
 30
0.0
 11
664.1848539998
 21
766.8427836467
 31
0.0
  0
LINE
  5
701
330
1F
100
AcDbEntity
  8
0
  6
CONTINUOUS
 62
     7
100
AcDbLine
 10
664.1848539998
 20
827.4427822177
 30
0.0
 11
664.1848539998
 21
827.2427825574
 31
0.0
  0
LINE
  5
702
330
1F
100
AcDbEntity
  8
0
  6
CONTINUOUS
 62
     7
100
AcDbLine
 10
664.1848539998
 20
811.6427829806
 30
0.0
 11
664.1848539998
 21
811.8427826409
 31
0.0
  0
ENDSEC
  0
SECTION
  2
OBJECTS
  0
DICTIONARY
  5
C
330
0
100
AcDbDictionary
  3
ACAD_GROUP
350
D
  3
ACAD_MLINESTYLE
350
17
  0
DICTIONARY
  5
D
102
{ACAD_REACTORS
330
C
102
}
330
C
100
AcDbDictionary
  0
DICTIONARY
  5
17
102
{ACAD_REACTORS
330
C
102
}
330
C
100
AcDbDictionary
  3
STANDARD
350
18
  0
MLINESTYLE
  5
18
102
{ACAD_REACTORS
330
17
102
}
330
17
100
AcDbMlineStyle
  2
Standard
 70
     0
  3

 62
   256
 51
90.0
 52
90.0
 71
     2
 49
0.5
 62
   256
  6
BYLAYER
 49
-0.5
 62
   256
  6
BYLAYER
  0
ENDSEC
  0
EOF
