  0
SECTION
  2
HEADER
  9
$ACADVER
  1
AC1014
  9
$ACADMAINTVER
 70
     9
  9
$DWGCODEPAGE
  3
ANSI_1252
  9
$INSBASE
 10
0.0
 20
0.0
 30
0.0
  9
$EXTMIN
 10
0.0
 20
0.0
 30
0.0
  9
$EXTMAX
 10
2100.0
 20
1485.0
 30
0.0
  9
$LIMMIN
 10
0.0
 20
0.0
  9
$LIMMAX
 10
2100.0
 20
1485.0
  9
$ORTHOMODE
 70
     0
  9
$REGENMODE
 70
     1
  9
$FILLMODE
 70
     1
  9
$QTEXTMODE
 70
     0
  9
$MIRRTEXT
 70
     1
  9
$DRAGMODE
 70
     2
  9
$LTSCALE
 40
5.0
  9
$OSMODE
 70
    37
  9
$ATTMODE
 70
     1
  9
$TEXTSIZE
 40
17.5
  9
$TRACEWID
 40
1.0
  9
$TEXTSTYLE
  7
STANDARD
  9
$CLAYER
  8
0
  9
$CELTYPE
  6
BYLAYER
  9
$CECOLOR
 62
   256
  9
$CELTSCALE
 40
1.0
  9
$DELOBJ
 70
     1
  9
$DISPSILH
 70
     0
  9
$DIMSCALE
 40
1.0
  9
$DIMASZ
 40
30.0
  9
$DIMEXO
 40
5.0
  9
$DIMDLI
 40
3.75
  9
$DIMRND
 40
0.0
  9
$DIMDLE
 40
0.0
  9
$DIMEXE
 40
5.0
  9
$DIMTP
 40
0.0
  9
$DIMTM
 40
0.0
  9
$DIMTXT
 40
17.5
  9
$DIMCEN
 40
2.5
  9
$DIMTSZ
 40
0.0
  9
$DIMTOL
 70
     0
  9
$DIMLIM
 70
     0
  9
$DIMTIH
 70
     1
  9
$DIMTOH
 70
     1
  9
$DIMSE1
 70
     0
  9
$DIMSE2
 70
     0
  9
$DIMTAD
 70
     1
  9
$DIMZIN
 70
     0
  9
$DIMBLK
  1

  9
$DIMASO
 70
     1
  9
$DIMSHO
 70
     1
  9
$DIMPOST
  1

  9
$DIMAPOST
  1

  9
$DIMALT
 70
     0
  9
$DIMALTD
 70
     3
  9
$DIMALTF
 40
0.0393700787
  9
$DIMLFAC
 40
1.0
  9
$DIMTOFL
 70
     1
  9
$DIMTVP
 40
0.0
  9
$DIMTIX
 70
     0
  9
$DIMSOXD
 70
     0
  9
$DIMSAH
 70
     0
  9
$DIMBLK1
  1

  9
$DIMBLK2
  1

  9
$DIMSTYLE
  2
ISO-25
  9
$DIMCLRD
 70
     0
  9
$DIMCLRE
 70
     0
  9
$DIMCLRT
 70
     0
  9
$DIMTFAC
 40
1.0
  9
$DIMGAP
 40
7.62
  9
$DIMJUST
 70
     0
  9
$DIMSD1
 70
     0
  9
$DIMSD2
 70
     0
  9
$DIMTOLJ
 70
     0
  9
$DIMTZIN
 70
     0
  9
$DIMALTZ
 70
     0
  9
$DIMALTTZ
 70
     0
  9
$DIMFIT
 70
     3
  9
$DIMUPT
 70
     0
  9
$DIMUNIT
 70
     2
  9
$DIMDEC
 70
     2
  9
$DIMTDEC
 70
     2
  9
$DIMALTU
 70
     2
  9
$DIMALTTD
 70
     3
  9
$DIMTXSTY
  7
STANDARD
  9
$DIMAUNIT
 70
     0
  9
$LUNITS
 70
     2
  9
$LUPREC
 70
     2
  9
$SKETCHINC
 40
1.0
  9
$FILLETRAD
 40
10.0
  9
$AUNITS
 70
     0
  9
$AUPREC
 70
     2
  9
$MENU
  1
.
  9
$ELEVATION
 40
0.0
  9
$PELEVATION
 40
0.0
  9
$THICKNESS
 40
0.0
  9
$LIMCHECK
 70
     0
  9
$CHAMFERA
 40
0.0
  9
$CHAMFERB
 40
0.0
  9
$CHAMFERC
 40
0.0
  9
$CHAMFERD
 40
0.0
  9
$SKPOLY
 70
     0
  9
$TDCREATE
 40
2456771.408358171
  9
$TDUPDATE
 40
2456771.408358866
  9
$TDINDWG
 40
0.0000000116
  9
$TDUSRTIMER
 40
0.0000000116
  9
$USRTIMER
 70
     1
  9
$ANGBASE
 50
0.0
  9
$ANGDIR
 70
     0
  9
$PDMODE
 70
     0
  9
$PDSIZE
 40
-1.0
  9
$PLINEWID
 40
0.0
  9
$COORDS
 70
     1
  9
$SPLFRAME
 70
     0
  9
$SPLINETYPE
 70
     6
  9
$SPLINESEGS
 70
     8
  9
$ATTDIA
 70
     0
  9
$ATTREQ
 70
     1
  9
$HANDLING
 70
     1
  9
$HANDSEED
  5
6CD
  9
$SURFTAB1
 70
     6
  9
$SURFTAB2
 70
     6
  9
$SURFTYPE
 70
     6
  9
$SURFU
 70
     6
  9
$SURFV
 70
     6
  9
$UCSNAME
  2

  9
$UCSORG
 10
0.0
 20
0.0
 30
0.0
  9
$UCSXDIR
 10
1.0
 20
0.0
 30
0.0
  9
$UCSYDIR
 10
0.0
 20
1.0
 30
0.0
  9
$PUCSNAME
  2

  9
$PUCSORG
 10
0.0
 20
0.0
 30
0.0
  9
$PUCSXDIR
 10
1.0
 20
0.0
 30
0.0
  9
$PUCSYDIR
 10
0.0
 20
1.0
 30
0.0
  9
$USERI1
 70
     0
  9
$USERI2
 70
     0
  9
$USERI3
 70
     0
  9
$USERI4
 70
     0
  9
$USERI5
 70
     0
  9
$USERR1
 40
0.0
  9
$USERR2
 40
0.0
  9
$USERR3
 40
0.0
  9
$USERR4
 40
0.0
  9
$USERR5
 40
0.0
  9
$WORLDVIEW
 70
     1
  9
$SHADEDGE
 70
     3
  9
$SHADEDIF
 70
    70
  9
$TILEMODE
 70
     1
  9
$MAXACTVP
 70
    64
  9
$PINSBASE
 10
0.0
 20
0.0
 30
0.0
  9
$PLIMCHECK
 70
     0
  9
$PEXTMIN
 10
1.0000000000E+20
 20
1.0000000000E+20
 30
1.0000000000E+20
  9
$PEXTMAX
 10
-1.0000000000E+20
 20
-1.0000000000E+20
 30
-1.0000000000E+20
  9
$PLIMMIN
 10
0.0
 20
0.0
  9
$PLIMMAX
 10
420.0
 20
297.0
  9
$UNITMODE
 70
     0
  9
$VISRETAIN
 70
     1
  9
$PLINEGEN
 70
     0
  9
$PSLTSCALE
 70
     1
  9
$TREEDEPTH
 70
  3020
  9
$PICKSTYLE
 70
     1
  9
$CMLSTYLE
  2
STANDARD
  9
$CMLJUST
 70
     0
  9
$CMLSCALE
 40
20.0
  9
$PROXYGRAPHICS
 70
     1
  9
$MEASUREMENT
 70
     1
  0
ENDSEC
  0
SECTION
  2
CLASSES
  0
CLASS
  1
ACDBDICTIONARYWDFLT
  2
AcDbDictionaryWithDefault
  3
ObjectDBX Classes
 90
        0
280
     0
281
     0
  0
CLASS
  1
VISUALSTYLE
  2
AcDbVisualStyle
  3
ObjectDBX Classes
 90
     4095
280
     0
281
     0
  0
CLASS
  1
MATERIAL
  2
AcDbMaterial
  3
ObjectDBX Classes
 90
     1153
280
     0
281
     0
  0
CLASS
  1
SCALE
  2
AcDbScale
  3
ObjectDBX Classes
 90
     1153
280
     0
281
     0
  0
CLASS
  1
SUN
  2
AcDbSun
  3
SCENEOE
 90
     1153
280
     0
281
     0
  0
CLASS
  1
XRECORD
  2
AcDbXrecord
  3
ObjectDBX Classes
 90
        0
280
     0
281
     0
  0
CLASS
  1
LWPOLYLINE
  2
AcDbPolyline
  3
ObjectDBX Classes
 90
        0
280
     0
281
     1
  0
CLASS
  1
HATCH
  2
AcDbHatch
  3
ObjectDBX Classes
 90
        0
280
     0
281
     1
  0
ENDSEC
  0
SECTION
  2
TABLES
  0
TABLE
  2
VPORT
  5
8
330
0
100
AcDbSymbolTable
 70
     1
  0
VPORT
  5
29
330
8
100
AcDbSymbolTableRecord
100
AcDbViewportTableRecord
  2
*ACTIVE
 70
     0
 10
0.0
 20
0.0
 11
1.0
 21
1.0
 12
1050.0
 22
742.5
 13
0.0
 23
0.0
 14
10.0
 24
10.0
 15
10.0
 25
10.0
 16
0.0
 26
0.0
 36
1.0
 17
0.0
 27
0.0
 37
0.0
 40
1485.0
 41
1.4141414141
 42
50.0
 43
0.0
 44
0.0
 50
0.0
 51
0.0
 71
     0
 72
  2000
 73
     1
 74
     3
 75
     0
 76
     0
 77
     0
 78
     0
  0
ENDTAB
  0
TABLE
  2
LTYPE
  5
5
330
0
100
AcDbSymbolTable
 70
     6
  0
LTYPE
  5
14
330
5
100
AcDbSymbolTableRecord
100
AcDbLinetypeTableRecord
  2
BYBLOCK
 70
     0
  3

 72
    65
 73
     0
 40
0.0
  0
LTYPE
  5
15
330
5
100
AcDbSymbolTableRecord
100
AcDbLinetypeTableRecord
  2
BYLAYER
 70
     0
  3

 72
    65
 73
     0
 40
0.0
  0
LTYPE
  5
16
330
5
100
AcDbSymbolTableRecord
100
AcDbLinetypeTableRecord
  2
CONTINUOUS
 70
     0
  3
Solid line
 72
    65
 73
     0
 40
0.0
  0
LTYPE
  5
6A
330
5
100
AcDbSymbolTableRecord
100
AcDbLinetypeTableRecord
  2
HIDDEN
 70
     0
  3
Hidden __ __ __ __ __ __ __ __ __ __ __ __ __ __
 72
    65
 73
     2
 40
1.905
 49
1.27
 74
     0
 49
-0.635
 74
     0
  0
LTYPE
  5
6B
330
5
100
AcDbSymbolTableRecord
100
AcDbLinetypeTableRecord
  2
PHANTOM
 70
     0
  3
Phantom ______  __  __  ______  __  __  ______
 72
    65
 73
     6
 40
12.7
 49
6.35
 74
     0
 49
-1.27
 74
     0
 49
1.27
 74
     0
 49
-1.27
 74
     0
 49
1.27
 74
     0
 49
-1.27
 74
     0
  0
LTYPE
  5
6C
330
5
100
AcDbSymbolTableRecord
100
AcDbLinetypeTableRecord
  2
CENTER
 70
     0
  3
Center ____ _ ____ _ ____ _ ____ _ ____ _ ____
 72
    65
 73
     4
 40
10.16
 49
6.35
 74
     0
 49
-1.27
 74
     0
 49
1.27
 74
     0
 49
-1.27
 74
     0
  0
LTYPE
  5
6D
330
5
100
AcDbSymbolTableRecord
100
AcDbLinetypeTableRecord
  2
CENTERX2
 70
     0
  3
Center (2x) ________  __  ________  __  _____
 72
    65
 73
     4
 40
20.32
 49
12.7
 74
     0
 49
-2.54
 74
     0
 49
2.54
 74
     0
 49
-2.54
 74
     0
  0
LTYPE
  5
6E
330
5
100
AcDbSymbolTableRecord
100
AcDbLinetypeTableRecord
  2
DOT2
 70
     0
  3
Dot (.5x) ........................................
 72
    65
 73
     2
 40
0.635
 49
0.0
 74
     0
 49
-0.635
 74
     0
  0
ENDTAB
  0
TABLE
  2
LAYER
  5
2
330
0
100
AcDbSymbolTable
 70
     1
  0
LAYER
  5
10
330
2
100
AcDbSymbolTableRecord
100
AcDbLayerTableRecord
  2
0
 70
     0
 62
     7
  6
CONTINUOUS
  0
ENDTAB
  0
TABLE
  2
STYLE
  5
3
330
0
100
AcDbSymbolTable
 70
     1
  0
STYLE
  5
11
330
3
100
AcDbSymbolTableRecord
100
AcDbTextStyleTableRecord
  2
STANDARD
 70
     0
 40
0.0
 41
1.0
 50
0.0
 71
     0
 42
17.5
  3
txt
  4

  0
ENDTAB
  0
TABLE
  2
VIEW
  5
6
330
0
100
AcDbSymbolTable
 70
     0
  0
ENDTAB
  0
TABLE
  2
UCS
  5
7
330
0
100
AcDbSymbolTable
 70
     0
  0
ENDTAB
  0
TABLE
  2
APPID
  5
9
330
0
100
AcDbSymbolTable
 70
     1
  0
APPID
  5
12
330
9
100
AcDbSymbolTableRecord
100
AcDbRegAppTableRecord
  2
ACAD
 70
     0
  0
ENDTAB
  0
TABLE
  2
DIMSTYLE
  5
A
330
0
100
AcDbSymbolTable
 70
     1
  0
DIMSTYLE
105
27
330
A
100
AcDbSymbolTableRecord
100
AcDbDimStyleTableRecord
  2
ISO-25
 70
     0
  3

  4

  5

  6

  7

 40
1.0
 41
2.5
 42
0.625
 43
3.75
 44
1.25
 45
0.0
 46
0.0
 47
0.0
 48
0.0
140
2.5
141
2.5
142
0.0
143
0.0393700787
144
1.0
145
0.0
146
1.0
147
0.625
 71
     0
 72
     0
 73
     0
 74
     0
 75
     0
 76
     0
 77
     1
 78
     8
170
     0
171
     3
172
     1
173
     0
174
     0
175
     0
176
     0
177
     0
178
     0
270
     2
271
     2
272
     2
273
     2
274
     3
340
11
275
     0
280
     0
281
     0
282
     0
283
     0
284
     8
285
     0
286
     0
287
     3
288
     0
  0
ENDTAB
  0
TABLE
  2
BLOCK_RECORD
  5
1
330
0
100
AcDbSymbolTable
 70
     1
  0
BLOCK_RECORD
  5
1F
330
1
100
AcDbSymbolTableRecord
100
AcDbBlockTableRecord
  2
*MODEL_SPACE
  0
BLOCK_RECORD
  5
1B
330
1
100
AcDbSymbolTableRecord
100
AcDbBlockTableRecord
  2
*PAPER_SPACE
  0
BLOCK_RECORD
  5
23
330
1
100
AcDbSymbolTableRecord
100
AcDbBlockTableRecord
  2
*PAPER_SPACE0
  0
ENDTAB
  0
ENDSEC
  0
SECTION
  2
BLOCKS
  0
BLOCK
  5
20
330
1F
100
AcDbEntity
  8
0
100
AcDbBlockBegin
  2
*MODEL_SPACE
 70
     0
 10
0.0
 20
0.0
 30
0.0
  3
*MODEL_SPACE
  1

  0
ENDBLK
  5
21
330
1F
100
AcDbEntity
  8
0
100
AcDbBlockEnd
  0
BLOCK
  5
1C
330
1B
100
AcDbEntity
 67
     1
  8
0
100
AcDbBlockBegin
  2
*PAPER_SPACE
 70
     0
 10
0.0
 20
0.0
 30
0.0
  3
*PAPER_SPACE
  1

  0
ENDBLK
  5
1D
330
1B
100
AcDbEntity
 67
     1
  8
0
100
AcDbBlockEnd
  0
BLOCK
  5
24
330
23
100
AcDbEntity
  8
0
100
AcDbBlockBegin
  2
*PAPER_SPACE0
 70
     0
 10
0.0
 20
0.0
 30
0.0
  3
*PAPER_SPACE0
  1
*PAPER_SPACE0
  0
ENDBLK
  5
25
330
23
100
AcDbEntity
  8
0
100
AcDbBlockEnd
  0
ENDSEC
  0
SECTION
  2
ENTITIES
  0
LINE
  5
6F
330
1F
100
AcDbEntity
  8
0
  6
CONTINUOUS
 62
     7
100
AcDbLine
 10
557.0010234084
 20
981.5344279224
 30
0.0
 11
557.0010234084
 21
948.5344206507
 31
0.0
  0
LINE
  5
70
330
1F
100
AcDbEntity
  8
0
  6
CONTINUOUS
 62
     7
100
AcDbLine
 10
557.0010234084
 20
845.534427982
 30
0.0
 11
557.0010234084
 21
812.5344281609
 31
0.0
  0
LINE
  5
71
330
1F
100
AcDbEntity
  8
0
  6
CONTINUOUS
 62
     7
100
AcDbLine
 10
557.0010234084
 20
777.5344280119
 30
0.0
 11
557.0010234084
 21
744.534426328
 31
0.0
  0
LINE
  5
72
330
1F
100
AcDbEntity
  8
0
  6
CONTINUOUS
 62
     7
100
AcDbLine
 10
557.0010234084
 20
913.534424227
 30
0.0
 11
557.0010234084
 21
880.5344318564
 31
0.0
  0
LINE
  5
73
330
1F
100
AcDbEntity
  8
0
  6
CONTINUOUS
 62
     7
100
AcDbLine
 10
557.0010234084
 20
641.5344243462
 30
0.0
 11
557.0010234084
 21
608.534424525
 31
0.0
  0
LINE
  5
74
330
1F
100
AcDbEntity
  8
0
  6
CONTINUOUS
 62
     7
100
AcDbLine
 10
557.0010234084
 20
573.5344206507
 30
0.0
 11
557.0010234084
 21
540.5344282801
 31
0.0
  0
LINE
  5
75
330
1F
100
AcDbEntity
  8
0
  6
CONTINUOUS
 62
     7
100
AcDbLine
 10
557.0010234084
 20
505.5344318564
 30
0.0
 11
557.0010234084
 21
472.5344245846
 31
0.0
  0
LINE
  5
76
330
1F
100
AcDbEntity
  8
0
  6
CONTINUOUS
 62
     7
100
AcDbLine
 10
557.0010234084
 20
709.534426179
 30
0.0
 11
557.0010234084
 21
676.5344244952
 31
0.0
  0
LINE
  5
77
330
1F
100
AcDbEntity
  8
0
  6
CONTINUOUS
 62
     7
100
AcDbLine
 10
996.1191405024
 20
980.6054597313
 30
0.0
 11
996.1191405024
 21
473.4633927757
 31
0.0
  0
ARC
  5
78
330
1F
100
AcDbEntity
  8
0
  6
CONTINUOUS
 62
     7
100
AcDbCircle
 10
990.6252679794
 20
473.510453015
 30
0.0
 40
5.494312486978604
100
AcDbArc
 50
269.5592323351
 51
359.5092404974
  0
LINE
  5
79
330
1F
100
AcDbEntity
  8
0
  6
CONTINUOUS
 62
     7
100
AcDbLine
 10
990.583001491
 20
468.0163031036
 30
0.0
 11
589.4190360274
 21
468.0163031036
 31
0.0
  0
ARC
  5
7A
330
1F
100
AcDbEntity
  8
0
  6
CONTINUOUS
 62
     7
100
AcDbCircle
 10
589.3777818871
 20
473.5112414415
 30
0.0
 40
5.495093196749118
100
AcDbArc
 50
180.498910783
 51
270.430149271
  0
LINE
  5
7B
330
1F
100
AcDbEntity
  8
0
  6
CONTINUOUS
 62
     7
100
AcDbLine
 10
583.882897016
 20
473.4633927757
 30
0.0
 11
583.882897016
 21
980.6054597313
 31
0.0
  0
ARC
  5
7C
330
1F
100
AcDbEntity
  8
0
  6
CONTINUOUS
 62
     7
100
AcDbCircle
 10
589.376769539
 20
980.558399492
 30
0.0
 40
5.494312486978604
100
AcDbArc
 50
89.5592323351
 51
179.5092404974
  0
LINE
  5
7D
330
1F
100
AcDbEntity
  8
0
  6
CONTINUOUS
 62
     7
100
AcDbLine
 10
589.4190360274
 20
986.0525494034
 30
0.0
 11
990.583001491
 21
986.0525494034
 31
0.0
  0
ARC
  5
7E
330
1F
100
AcDbEntity
  8
0
  6
CONTINUOUS
 62
     7
100
AcDbCircle
 10
990.6242556314
 20
980.5576110655
 30
0.0
 40
5.495093196748665
100
AcDbArc
 50
0.498910783
 51
90.430149271
  0
LINE
  5
7F
330
1F
100
AcDbEntity
  8
0
  6
CONTINUOUS
 62
     7
100
AcDbLine
 10
588.1310392584
 20
987.2965579445
 30
0.0
 11
589.2968465056
 21
986.1310785229
 31
0.0
  0
LINE
  5
80
330
1F
100
AcDbEntity
  8
0
  6
CONTINUOUS
 62
     7
100
AcDbLine
 10
589.2968465056
 20
986.1310785229
 30
0.0
 11
589.4190360274
 21
986.0525494034
 31
0.0
  0
LINE
  5
81
330
1F
100
AcDbEntity
  8
0
  6
CONTINUOUS
 62
     7
100
AcDbLine
 10
583.8235903945
 20
980.6189601833
 30
0.0
 11
583.8826585974
 21
980.6054597313
 31
0.0
  0
LINE
  5
82
330
1F
100
AcDbEntity
  8
0
  6
CONTINUOUS
 62
     7
100
AcDbLine
 10
583.8039357628
 20
980.6385999138
 30
0.0
 11
583.8235903945
 21
980.6189601833
 31
0.0
  0
LINE
  5
83
330
1F
100
AcDbEntity
  8
0
  6
CONTINUOUS
 62
     7
100
AcDbLine
 10
583.8043827977
 20
980.6385999138
 30
0.0
 11
582.6388884749
 21
981.8050330097
 31
0.0
  0
ARC
  5
84
330
1F
100
AcDbEntity
  8
0
  6
CONTINUOUS
 62
     7
100
AcDbCircle
 10
588.132748964
 20
981.8023990668
 30
0.0
 40
5.494308155309779
100
AcDbArc
 50
90.017829163
 51
179.9725326985
  0
LINE
  5
85
330
1F
100
AcDbEntity
  8
0
  6
CONTINUOUS
 62
     7
100
AcDbLine
 10
991.87099826
 20
466.7722945625
 30
0.0
 11
990.7051910128
 21
467.9377739842
 31
0.0
  0
LINE
  5
86
330
1F
100
AcDbEntity
  8
0
  6
CONTINUOUS
 62
     7
100
AcDbLine
 10
990.7051910128
 20
467.9377739842
 30
0.0
 11
990.583001491
 21
468.0163031036
 31
0.0
  0
LINE
  5
87
330
1F
100
AcDbEntity
  8
0
  6
CONTINUOUS
 62
     7
100
AcDbLine
 10
996.178447124
 20
473.4498923237
 30
0.0
 11
996.119378921
 21
473.4633927757
 31
0.0
  0
LINE
  5
88
330
1F
100
AcDbEntity
  8
0
  6
CONTINUOUS
 62
     7
100
AcDbLine
 10
996.1981017556
 20
473.4302525932
 30
0.0
 11
996.178447124
 21
473.4498923237
 31
0.0
  0
LINE
  5
89
330
1F
100
AcDbEntity
  8
0
  6
CONTINUOUS
 62
     7
100
AcDbLine
 10
996.1976547207
 20
473.4302525932
 30
0.0
 11
997.3631490435
 21
472.2638194973
 31
0.0
  0
ARC
  5
8A
330
1F
100
AcDbEntity
  8
0
  6
CONTINUOUS
 62
     7
100
AcDbCircle
 10
991.8692885544
 20
472.2664534402
 30
0.0
 40
5.494308155309404
100
AcDbArc
 50
270.017829163
 51
359.9725326985
  0
LINE
  5
8B
330
1F
100
AcDbEntity
  8
0
  6
CONTINUOUS
 62
     7
100
AcDbLine
 10
583.8039357628
 20
473.4302525932
 30
0.0
 11
582.6384414401
 21
472.2638194973
 31
0.0
  0
LINE
  5
8C
330
1F
100
AcDbEntity
  8
0
  6
CONTINUOUS
 62
     7
100
AcDbLine
 10
583.8043827977
 20
473.4302525932
 30
0.0
 11
583.882897016
 21
473.4633927757
 31
0.0
  0
LINE
  5
8D
330
1F
100
AcDbEntity
  8
0
  6
CONTINUOUS
 62
     7
100
AcDbLine
 10
589.2968465056
 20
467.9376547749
 30
0.0
 11
589.4190360274
 21
468.0163031036
 31
0.0
  0
LINE
  5
8E
330
1F
100
AcDbEntity
  8
0
  6
CONTINUOUS
 62
     7
100
AcDbLine
 10
588.1310392584
 20
466.7721455509
 30
0.0
 11
589.2968465056
 21
467.9376547749
 31
0.0
  0
ARC
  5
8F
330
1F
100
AcDbEntity
  8
0
  6
CONTINUOUS
 62
     7
100
AcDbCircle
 10
588.1331452923
 20
472.2666411078
 30
0.0
 40
5.494406553562786
100
AcDbArc
 50
180.0294238113
 51
269.9780382365
  0
LINE
  5
90
330
1F
100
AcDbEntity
  8
0
  6
CONTINUOUS
 62
     7
100
AcDbLine
 10
996.1981017556
 20
980.6385999138
 30
0.0
 11
997.3635960784
 21
981.8050330097
 31
0.0
  0
LINE
  5
91
330
1F
100
AcDbEntity
  8
0
  6
CONTINUOUS
 62
     7
100
AcDbLine
 10
996.1976547207
 20
980.6385999138
 30
0.0
 11
996.1191405024
 21
980.6054597313
 31
0.0
  0
LINE
  5
92
330
1F
100
AcDbEntity
  8
0
  6
CONTINUOUS
 62
     7
100
AcDbLine
 10
990.7051910128
 20
986.1311977322
 30
0.0
 11
990.583001491
 21
986.0525494034
 31
0.0
  0
LINE
  5
93
330
1F
100
AcDbEntity
  8
0
  6
CONTINUOUS
 62
     7
100
AcDbLine
 10
991.87099826
 20
987.2967069561
 30
0.0
 11
990.7051910128
 21
986.1311977322
 31
0.0
  0
ARC
  5
94
330
1F
100
AcDbEntity
  8
0
  6
CONTINUOUS
 62
     7
100
AcDbCircle
 10
991.8688922261
 20
981.8022113992
 30
0.0
 40
5.494406553563242
100
AcDbArc
 50
0.0294238113
 51
89.9780382365
  0
LINE
  5
95
330
1F
100
AcDbEntity
  8
0
  6
CONTINUOUS
 62
     7
100
AcDbLine
 10
582.6387394633
 20
472.2638194973
 30
0.0
 11
582.6388884749
 21
472.7647667343
 31
0.0
  0
LINE
  5
96
330
1F
100
AcDbEntity
  8
0
  6
CONTINUOUS
 62
     7
100
AcDbLine
 10
582.7092517581
 20
472.8351300175
 30
0.0
 11
582.6388884749
 21
472.7647667343
 31
0.0
  0
LWPOLYLINE
  5
97
330
1F
100
AcDbEntity
  8
0
  6
CONTINUOUS
 62
     7
100
AcDbPolyline
 90
        3
 70
   128
 43
0.0
 10
582.7862907614
 20
473.4114771301
 10
582.7467281785
 20
473.0202024395
 10
582.7092517581
 20
472.8351300175
  0
LINE
  5
98
330
1F
100
AcDbEntity
  8
0
  6
CONTINUOUS
 62
     7
100
AcDbLine
 10
582.7862907614
 20
473.4114771301
 30
0.0
 11
582.7862907614
 21
980.6573753769
 31
0.0
  0
LWPOLYLINE
  5
99
330
1F
100
AcDbEntity
  8
0
  6
CONTINUOUS
 62
     7
100
AcDbPolyline
 90
        3
 70
   128
 43
0.0
 10
582.7862907614
 20
980.6573753769
 10
582.7467281785
 20
981.0486500675
 10
582.7092517581
 20
981.2337224896
  0
LINE
  5
9A
330
1F
100
AcDbEntity
  8
0
  6
CONTINUOUS
 62
     7
100
AcDbLine
 10
582.7092517581
 20
981.2337224896
 30
0.0
 11
582.6388884749
 21
981.3040857727
 31
0.0
  0
LINE
  5
9B
330
1F
100
AcDbEntity
  8
0
  6
CONTINUOUS
 62
     7
100
AcDbLine
 10
582.6388884749
 20
981.8050330097
 30
0.0
 11
582.6388884749
 21
981.3040857727
 31
0.0
  0
LINE
  5
9C
330
1F
100
AcDbEntity
  8
0
  6
CONTINUOUS
 62
     7
100
AcDbLine
 10
997.3632980551
 20
981.8050330097
 30
0.0
 11
997.3631490435
 21
981.3040857727
 31
0.0
  0
LINE
  5
9D
330
1F
100
AcDbEntity
  8
0
  6
CONTINUOUS
 62
     7
100
AcDbLine
 10
997.2927857604
 20
981.2337224896
 30
0.0
 11
997.3631490435
 21
981.3040857727
 31
0.0
  0
LWPOLYLINE
  5
9E
330
1F
100
AcDbEntity
  8
0
  6
CONTINUOUS
 62
     7
100
AcDbPolyline
 90
        3
 70
   128
 43
0.0
 10
997.215746757
 20
980.6573753769
 10
997.25530934
 20
981.0486500675
 10
997.2927857604
 20
981.2337224896
  0
LINE
  5
9F
330
1F
100
AcDbEntity
  8
0
  6
CONTINUOUS
 62
     7
100
AcDbLine
 10
997.215746757
 20
980.6573753769
 30
0.0
 11
997.215746757
 21
473.4114771301
 31
0.0
  0
LWPOLYLINE
  5
A0
330
1F
100
AcDbEntity
  8
0
  6
CONTINUOUS
 62
     7
100
AcDbPolyline
 90
        3
 70
   128
 43
0.0
 10
997.215746757
 20
473.4114771301
 10
997.25530934
 20
473.0202024395
 10
997.2927857604
 20
472.8351300175
  0
LINE
  5
A1
330
1F
100
AcDbEntity
  8
0
  6
CONTINUOUS
 62
     7
100
AcDbLine
 10
997.2927857604
 20
472.8351300175
 30
0.0
 11
997.3631490435
 21
472.7647667343
 31
0.0
  0
LINE
  5
A2
330
1F
100
AcDbEntity
  8
0
  6
CONTINUOUS
 62
     7
100
AcDbLine
 10
997.3631490435
 20
472.2638194973
 30
0.0
 11
997.3631490435
 21
472.7647667343
 31
0.0
  0
LINE
  5
A3
330
1F
100
AcDbEntity
  8
0
  6
CONTINUOUS
 62
     7
100
AcDbLine
 10
991.3574893441
 20
466.7722945625
 30
0.0
 11
991.87099826
 21
466.7722945625
 31
0.0
  0
LINE
  5
A4
330
1F
100
AcDbEntity
  8
0
  6
CONTINUOUS
 62
     7
100
AcDbLine
 10
991.2998069491
 20
466.8506150658
 30
0.0
 11
991.3574893441
 21
466.7722945625
 31
0.0
  0
LWPOLYLINE
  5
A5
330
1F
100
AcDbEntity
  8
0
  6
CONTINUOUS
 62
     7
100
AcDbPolyline
 90
        3
 70
   128
 43
0.0
 10
991.2998069491
 20
466.8506150658
 10
991.1074031558
 20
466.8887918407
 10
990.715100285
 20
466.9285779411
  0
LINE
  5
A6
330
1F
100
AcDbEntity
  8
0
  6
CONTINUOUS
 62
     7
100
AcDbLine
 10
990.715100285
 20
466.9285779411
 30
0.0
 11
589.2869372334
 21
466.9285779411
 31
0.0
  0
LWPOLYLINE
  5
A7
330
1F
100
AcDbEntity
  8
0
  6
CONTINUOUS
 62
     7
100
AcDbPolyline
 90
        3
 70
   128
 43
0.0
 10
588.7022305693
 20
466.8506150658
 10
588.8946343627
 20
466.8887918407
 10
589.2869372334
 20
466.9285779411
  0
LINE
  5
A8
330
1F
100
AcDbEntity
  8
0
  6
CONTINUOUS
 62
     7
100
AcDbLine
 10
588.7096364464
 20
466.8505852634
 30
0.0
 11
588.6313755478
 21
466.7722945625
 31
0.0
  0
LINE
  5
A9
330
1F
100
AcDbEntity
  8
0
  6
CONTINUOUS
 62
     7
100
AcDbLine
 10
588.6445481743
 20
466.7722945625
 30
0.0
 11
588.1310392584
 21
466.7722349579
 31
0.0
  0
LINE
  5
AA
330
1F
100
AcDbEntity
  8
0
  6
CONTINUOUS
 62
     7
100
AcDbLine
 10
588.6445481743
 20
987.2965579445
 30
0.0
 11
588.1310392584
 21
987.2965579445
 31
0.0
  0
LINE
  5
AB
330
1F
100
AcDbEntity
  8
0
  6
CONTINUOUS
 62
     7
100
AcDbLine
 10
588.7022305693
 20
987.2182374413
 30
0.0
 11
588.6445481743
 21
987.2965579445
 31
0.0
  0
LWPOLYLINE
  5
AC
330
1F
100
AcDbEntity
  8
0
  6
CONTINUOUS
 62
     7
100
AcDbPolyline
 90
        3
 70
   128
 43
0.0
 10
588.7022305693
 20
987.2182374413
 10
588.8946343627
 20
987.1800606663
 10
589.2869372334
 20
987.1402745659
  0
LINE
  5
AD
330
1F
100
AcDbEntity
  8
0
  6
CONTINUOUS
 62
     7
100
AcDbLine
 10
990.715100285
 20
987.1402745659
 30
0.0
 11
589.2869372334
 21
987.1402745659
 31
0.0
  0
LWPOLYLINE
  5
AE
330
1F
100
AcDbEntity
  8
0
  6
CONTINUOUS
 62
     7
100
AcDbPolyline
 90
        3
 70
   128
 43
0.0
 10
991.2998069491
 20
987.2182374413
 10
991.1074031558
 20
987.1800606663
 10
990.715100285
 20
987.1402745659
  0
LINE
  5
AF
330
1F
100
AcDbEntity
  8
0
  6
CONTINUOUS
 62
     7
100
AcDbLine
 10
991.292401072
 20
987.2182672436
 30
0.0
 11
991.3706619706
 21
987.2965579445
 31
0.0
  0
LINE
  5
B0
330
1F
100
AcDbEntity
  8
0
  6
CONTINUOUS
 62
     7
100
AcDbLine
 10
991.3574893441
 20
987.2965579445
 30
0.0
 11
991.87099826
 21
987.2966175491
 31
0.0
  0
LINE
  5
B1
330
1F
100
AcDbEntity
  8
0
  6
CONTINUOUS
 62
     7
100
AcDbLine
 10
990.8458281722
 20
988.9458482678
 30
0.0
 11
589.1562093463
 21
988.9458482678
 31
0.0
  0
ARC
  5
B2
330
1F
100
AcDbEntity
  8
0
  6
CONTINUOUS
 62
     7
100
AcDbCircle
 10
982.5452305666
 20
988.6393121795
 30
0.0
 40
8.306255773992394
100
AcDbArc
 50
349.6028092963
 51
2.1149376656
  0
ARC
  5
B3
330
1F
100
AcDbEntity
  8
0
  6
CONTINUOUS
 62
     7
100
AcDbCircle
 10
597.1360309588
 20
988.6160872246
 30
0.0
 40
7.986632288577681
100
AcDbArc
 50
177.6336348257
 51
190.6486182124
  0
LINE
  5
B4
330
1F
100
AcDbEntity
  8
0
  6
CONTINUOUS
 62
     7
100
AcDbLine
 10
990.8458281722
 20
465.1230042393
 30
0.0
 11
589.1562093463
 21
465.1230042393
 31
0.0
  0
ARC
  5
B5
330
1F
100
AcDbEntity
  8
0
  6
CONTINUOUS
 62
     7
100
AcDbCircle
 10
597.4568069518
 20
465.4295403275
 30
0.0
 40
8.30625577398878
100
AcDbArc
 50
169.6028092963
 51
182.1149376656
  0
ARC
  5
B6
330
1F
100
AcDbEntity
  8
0
  6
CONTINUOUS
 62
     7
100
AcDbCircle
 10
982.8660065597
 20
465.4527652824
 30
0.0
 40
7.986632288569046
100
AcDbArc
 50
357.6336348257
 51
10.6486182124
  0
ARC
  5
B7
330
1F
100
AcDbEntity
  8
0
  6
CONTINUOUS
 62
     7
100
AcDbCircle
 10
589.0514448104
 20
466.5999547323
 30
0.0
 40
1.480602007315395
100
AcDbArc
 50
254.8329483643
 51
274.0575292219
  0
LWPOLYLINE
  5
B8
330
1F
100
AcDbEntity
  8
0
  6
CONTINUOUS
 62
     7
100
AcDbPolyline
 90
        3
 70
   128
 43
0.0
 10
588.6640686955
 20
465.1709263737
 10
588.6788357462
 20
466.0948877747
 10
588.7096364464
 20
466.8505852634
  0
ARC
  5
B9
330
1F
100
AcDbEntity
  8
0
  6
CONTINUOUS
 62
     7
100
AcDbCircle
 10
990.950592708
 20
987.4688977748
 30
0.0
 40
1.480602007315644
100
AcDbArc
 50
74.8329483643
 51
94.0575292219
  0
LWPOLYLINE
  5
BA
330
1F
100
AcDbEntity
  8
0
  6
CONTINUOUS
 62
     7
100
AcDbPolyline
 90
        3
 70
   128
 43
0.0
 10
991.3379688229
 20
988.8979261334
 10
991.3232017722
 20
987.9739647324
 10
991.292401072
 20
987.2182672436
  0
LWPOLYLINE
  5
BB
330
1F
100
AcDbEntity
  8
0
  6
CONTINUOUS
 62
     7
100
AcDbPolyline
 90
        3
 70
   128
 43
0.0
 10
588.6640686955
 20
988.8979261334
 10
588.6788357462
 20
987.9739647324
 10
588.7096364464
 20
987.2182672436
  0
ARC
  5
BC
330
1F
100
AcDbEntity
  8
0
  6
CONTINUOUS
 62
     7
100
AcDbCircle
 10
589.0514448104
 20
987.4688977748
 30
0.0
 40
1.480602007315285
100
AcDbArc
 50
85.9424707781
 51
105.1670516357
  0
LWPOLYLINE
  5
BD
330
1F
100
AcDbEntity
  8
0
  6
CONTINUOUS
 62
     7
100
AcDbPolyline
 90
        3
 70
   128
 43
0.0
 10
991.3379688229
 20
465.1709263737
 10
991.3232017722
 20
466.0948877747
 10
991.292401072
 20
466.8505852634
  0
ARC
  5
BE
330
1F
100
AcDbEntity
  8
0
  6
CONTINUOUS
 62
     7
100
AcDbCircle
 10
990.950592708
 20
466.5999547323
 30
0.0
 40
1.480602007315589
100
AcDbArc
 50
265.9424707781
 51
285.1670516357
  0
ARC
  5
BF
330
1F
100
AcDbEntity
  8
0
  6
CONTINUOUS
 62
     7
100
AcDbCircle
 10
997.5182353649
 20
473.1802232219
 30
0.0
 40
1.506923319247824
100
AcDbArc
 50
344.9372393319
 51
4.0981822278
  0
LWPOLYLINE
  5
C0
330
1F
100
AcDbEntity
  8
0
  6
CONTINUOUS
 62
     7
100
AcDbPolyline
 90
        3
 70
   128
 43
0.0
 10
997.2927857604
 20
472.8351300175
 10
998.0492879119
 20
472.8032713348
 10
998.9733834233
 20
472.7886085922
  0
ARC
  5
C1
330
1F
100
AcDbEntity
  8
0
  6
CONTINUOUS
 62
     7
100
AcDbCircle
 10
998.6769022055
 20
481.1235026148
 30
0.0
 40
7.849223676359649
100
AcDbArc
 50
259.2716458418
 51
272.5145781719
  0
ARC
  5
C2
330
1F
100
AcDbEntity
  8
0
  6
CONTINUOUS
 62
     7
100
AcDbCircle
 10
582.4838021536
 20
473.1802232219
 30
0.0
 40
1.506923319250122
100
AcDbArc
 50
175.9018177722
 51
195.0627606681
  0
ARC
  5
C3
330
1F
100
AcDbEntity
  8
0
  6
CONTINUOUS
 62
     7
100
AcDbCircle
 10
581.3251353129
 20
481.1235026148
 30
0.0
 40
7.849223676360777
100
AcDbArc
 50
267.4854218281
 51
280.7283541582
  0
LWPOLYLINE
  5
C4
330
1F
100
AcDbEntity
  8
0
  6
CONTINUOUS
 62
     7
100
AcDbPolyline
 90
        3
 70
   128
 43
0.0
 10
582.7092517581
 20
472.8351300175
 10
581.9527496066
 20
472.8032713348
 10
581.0286540951
 20
472.7886085922
  0
ARC
  5
C5
330
1F
100
AcDbEntity
  8
0
  6
CONTINUOUS
 62
     7
100
AcDbCircle
 10
997.5182353649
 20
980.8886292851
 30
0.0
 40
1.506923319247836
100
AcDbArc
 50
355.9018177722
 51
15.0627606681
  0
ARC
  5
C6
330
1F
100
AcDbEntity
  8
0
  6
CONTINUOUS
 62
     7
100
AcDbCircle
 10
998.6769022055
 20
972.9453498922
 30
0.0
 40
7.849223676355007
100
AcDbArc
 50
87.4854218281
 51
100.7283541582
  0
LWPOLYLINE
  5
C7
330
1F
100
AcDbEntity
  8
0
  6
CONTINUOUS
 62
     7
100
AcDbPolyline
 90
        3
 70
   128
 43
0.0
 10
997.2927857604
 20
981.2337224896
 10
998.0492879119
 20
981.2655811722
 10
998.9733834233
 20
981.2802439148
  0
ARC
  5
C8
330
1F
100
AcDbEntity
  8
0
  6
CONTINUOUS
 62
     7
100
AcDbCircle
 10
582.4838021536
 20
980.8886292851
 30
0.0
 40
1.506923319250122
100
AcDbArc
 50
164.9372393319
 51
184.0981822278
  0
LWPOLYLINE
  5
C9
330
1F
100
AcDbEntity
  8
0
  6
CONTINUOUS
 62
     7
100
AcDbPolyline
 90
        3
 70
   128
 43
0.0
 10
582.7092517581
 20
981.2337224896
 10
581.9527496066
 20
981.2655811722
 10
581.0286540951
 20
981.2802439148
  0
ARC
  5
CA
330
1F
100
AcDbEntity
  8
0
  6
CONTINUOUS
 62
     7
100
AcDbCircle
 10
581.3251353129
 20
972.9453498922
 30
0.0
 40
7.849223676356247
100
AcDbArc
 50
79.2716458418
 51
92.5145781719
  0
LINE
  5
CB
330
1F
100
AcDbEntity
  8
0
  6
CONTINUOUS
 62
     7
100
AcDbLine
 10
580.9807319607
 20
980.7809358055
 30
0.0
 11
580.9807319607
 21
473.2879167015
 31
0.0
  0
LINE
  5
CC
330
1F
100
AcDbEntity
  8
0
  6
CONTINUOUS
 62
     7
100
AcDbLine
 10
999.0213055577
 20
473.2879167015
 30
0.0
 11
999.0213055577
 21
980.7809358055
 31
0.0
  0
LINE
  5
CD
330
1F
100
AcDbEntity
  8
0
  6
CONTINUOUS
 62
     7
100
AcDbLine
 10
588.6640686955
 20
465.1709263737
 30
0.0
 11
588.6313457455
 21
458.685374778
 31
0.0
  0
LINE
  5
CE
330
1F
100
AcDbEntity
  8
0
  6
CONTINUOUS
 62
     7
100
AcDbLine
 10
588.6313457455
 20
458.685374778
 30
0.0
 11
588.6445481743
 21
466.7722945625
 31
0.0
  0
LINE
  5
CF
330
1F
100
AcDbEntity
  8
0
  6
CONTINUOUS
 62
     7
100
AcDbLine
 10
991.3706917729
 20
458.685374778
 30
0.0
 11
991.3706619706
 21
466.7722945625
 31
0.0
  0
LINE
  5
D0
330
1F
100
AcDbEntity
  8
0
  6
CONTINUOUS
 62
     7
100
AcDbLine
 10
991.3379688229
 20
465.1709263737
 30
0.0
 11
991.3706917729
 21
458.685374778
 31
0.0
  0
LINE
  5
D1
330
1F
100
AcDbEntity
  8
0
  6
CONTINUOUS
 62
     7
100
AcDbLine
 10
991.3379688229
 20
988.8979261334
 30
0.0
 11
991.3706917729
 21
995.383477729
 31
0.0
  0
LINE
  5
D2
330
1F
100
AcDbEntity
  8
0
  6
CONTINUOUS
 62
     7
100
AcDbLine
 10
991.3706917729
 20
995.383477729
 30
0.0
 11
991.3574893441
 21
987.2965579445
 31
0.0
  0
LINE
  5
D3
330
1F
100
AcDbEntity
  8
0
  6
CONTINUOUS
 62
     7
100
AcDbLine
 10
588.6313457455
 20
995.383477729
 30
0.0
 11
588.6313755478
 21
987.2965579445
 31
0.0
  0
LINE
  5
D4
330
1F
100
AcDbEntity
  8
0
  6
CONTINUOUS
 62
     7
100
AcDbLine
 10
588.6640686955
 20
988.8979261334
 30
0.0
 11
588.6313457455
 21
995.383477729
 31
0.0
  0
LINE
  5
D5
330
1F
100
AcDbEntity
  8
0
  6
CONTINUOUS
 62
     7
100
AcDbLine
 10
576.301961061
 20
981.3040857727
 30
0.0
 11
581.0286540951
 21
981.2802439148
 31
0.0
  0
LINE
  5
D6
330
1F
100
AcDbEntity
  8
0
  6
CONTINUOUS
 62
     7
100
AcDbLine
 10
582.6388884749
 20
981.3040857727
 30
0.0
 11
576.301961061
 21
981.3040857727
 31
0.0
  0
LINE
  5
D7
330
1F
100
AcDbEntity
  8
0
  6
CONTINUOUS
 62
     7
100
AcDbLine
 10
582.6388884749
 20
472.7647667343
 30
0.0
 11
576.301961061
 21
472.7647667343
 31
0.0
  0
LINE
  5
D8
330
1F
100
AcDbEntity
  8
0
  6
CONTINUOUS
 62
     7
100
AcDbLine
 10
576.301961061
 20
472.7647667343
 30
0.0
 11
581.0286540951
 21
472.7886085922
 31
0.0
  0
LINE
  5
D9
330
1F
100
AcDbEntity
  8
0
  6
CONTINUOUS
 62
     7
100
AcDbLine
 10
997.3631490435
 20
981.3040857727
 30
0.0
 11
1003.7000764575
 21
981.3040857727
 31
0.0
  0
LINE
  5
DA
330
1F
100
AcDbEntity
  8
0
  6
CONTINUOUS
 62
     7
100
AcDbLine
 10
1003.7000764575
 20
981.3040857727
 30
0.0
 11
998.9733834233
 21
981.2802439148
 31
0.0
  0
LINE
  5
DB
330
1F
100
AcDbEntity
  8
0
  6
CONTINUOUS
 62
     7
100
AcDbLine
 10
1003.7000764575
 20
472.7647667343
 30
0.0
 11
998.9733834233
 21
472.7886085922
 31
0.0
  0
LINE
  5
DC
330
1F
100
AcDbEntity
  8
0
  6
CONTINUOUS
 62
     7
100
AcDbLine
 10
997.3631490435
 20
472.7647667343
 30
0.0
 11
1003.7000764575
 21
472.7647667343
 31
0.0
  0
LWPOLYLINE
  5
DD
330
1F
100
AcDbEntity
  8
0
  6
CONTINUOUS
 62
     7
100
AcDbPolyline
 90
        8
 70
   128
 43
0.0
 10
991.3706917729
 20
995.383477729
 10
991.299523827
 20
998.0220859463
 10
991.1192197766
 20
999.7519319469
 10
991.009070393
 20
1000.1843338425
 10
990.9525055852
 20
1000.2924268658
 10
990.9242231812
 20
1000.3194277699
 10
990.9101415839
 20
1000.326192897
 10
990.8960897889
 20
1000.3284280712
  0
LINE
  5
DE
330
1F
100
AcDbEntity
  8
0
  6
CONTINUOUS
 62
     7
100
AcDbLine
 10
990.8458281722
 20
988.9458482678
 30
0.0
 11
990.8865232434
 21
1000.3284280712
 31
0.0
  0
LWPOLYLINE
  5
DF
330
1F
100
AcDbEntity
  8
0
  6
CONTINUOUS
 62
     7
100
AcDbPolyline
 90
        8
 70
   128
 43
0.0
 10
991.3706917729
 20
458.685374778
 10
991.299523827
 20
456.0467665607
 10
991.1311705079
 20
454.317009967
 10
991.0219747986
 20
453.8845484669
 10
990.9611184563
 20
453.7764554436
 10
990.9291256632
 20
453.7494247372
 10
990.9127343859
 20
453.74265961
 10
990.8960897889
 20
453.7404244358
  0
LINE
  5
E0
330
1F
100
AcDbEntity
  8
0
  6
CONTINUOUS
 62
     7
100
AcDbLine
 10
990.8458281722
 20
465.1230042393
 30
0.0
 11
990.8865232434
 21
453.7404244358
 31
0.0
  0
LWPOLYLINE
  5
E1
330
1F
100
AcDbEntity
  8
0
  6
CONTINUOUS
 62
     7
100
AcDbPolyline
 90
        8
 70
   128
 43
0.0
 10
588.6313457455
 20
995.383477729
 10
588.7025136914
 20
998.0220859463
 10
588.8708670106
 20
999.75184254
 10
588.9800627198
 20
1000.1843040402
 10
589.0409190621
 20
1000.2923970635
 10
589.0729118552
 20
1000.3194277699
 10
589.0893031325
 20
1000.326192897
 10
589.1059477295
 20
1000.3284280712
  0
LINE
  5
E2
330
1F
100
AcDbEntity
  8
0
  6
CONTINUOUS
 62
     7
100
AcDbLine
 10
589.1562093463
 20
988.9458482678
 30
0.0
 11
589.115514275
 21
1000.3284280712
 31
0.0
  0
LWPOLYLINE
  5
E3
330
1F
100
AcDbEntity
  8
0
  6
CONTINUOUS
 62
     7
100
AcDbPolyline
 90
        8
 70
   128
 43
0.0
 10
588.6313457455
 20
458.685374778
 10
588.7025136914
 20
456.0467665607
 10
588.8828177418
 20
454.3169205601
 10
588.9929671254
 20
453.8845186646
 10
589.0495319333
 20
453.7764256413
 10
589.0778143372
 20
453.7494247372
 10
589.0918959345
 20
453.74265961
 10
589.1059477295
 20
453.7404244358
  0
LINE
  5
E4
330
1F
100
AcDbEntity
  8
0
  6
CONTINUOUS
 62
     7
100
AcDbLine
 10
589.1562093463
 20
465.1230042393
 30
0.0
 11
589.115514275
 21
453.7404244358
 31
0.0
  0
LWPOLYLINE
  5
E5
330
1F
100
AcDbEntity
  8
0
  6
CONTINUOUS
 62
     7
100
AcDbPolyline
 90
        3
 70
   128
 43
0.0
 10
1009.9913169112
 20
449.8542015965
 10
1008.0796916451
 20
448.9927952702
 10
1006.0059566464
 20
448.6980801041
  0
LINE
  5
E6
330
1F
100
AcDbEntity
  8
0
  6
CONTINUOUS
 62
     7
100
AcDbLine
 10
1006.0059566464
 20
448.6980801041
 30
0.0
 11
573.996080872
 21
448.6980801041
 31
0.0
  0
LWPOLYLINE
  5
E7
330
1F
100
AcDbEntity
  8
0
  6
CONTINUOUS
 62
     7
100
AcDbPolyline
 90
        3
 70
   128
 43
0.0
 10
573.996080872
 20
448.6980801041
 10
571.9238955941
 20
448.9922886307
 10
570.0107206072
 20
449.8542015965
  0
LINE
  5
E8
330
1F
100
AcDbEntity
  8
0
  6
CONTINUOUS
 62
     7
100
AcDbLine
 10
570.0107206072
 20
449.8542015965
 30
0.0
 11
573.8969136443
 21
453.7404244358
 31
0.0
  0
LINE
  5
E9
330
1F
100
AcDbEntity
  8
0
  6
CONTINUOUS
 62
     7
100
AcDbLine
 10
573.8969136443
 20
453.7404244358
 30
0.0
 11
589.115514275
 21
453.7404244358
 31
0.0
  0
LINE
  5
EA
330
1F
100
AcDbEntity
  8
0
  6
CONTINUOUS
 62
     7
100
AcDbLine
 10
1006.1051238741
 20
453.7404244358
 30
0.0
 11
990.8865232434
 21
453.7404244358
 31
0.0
  0
LINE
  5
EB
330
1F
100
AcDbEntity
  8
0
  6
CONTINUOUS
 62
     7
100
AcDbLine
 10
1009.9913169112
 20
449.8542015965
 30
0.0
 11
1006.1051238741
 21
453.7404244358
 31
0.0
  0
LWPOLYLINE
  5
EC
330
1F
100
AcDbEntity
  8
0
  6
CONTINUOUS
 62
     7
100
AcDbPolyline
 90
        3
 70
   128
 43
0.0
 10
1009.9913169112
 20
1004.2146509106
 10
1008.0796916451
 20
1005.0760572369
 10
1006.0059566464
 20
1005.370772403
  0
LINE
  5
ED
330
1F
100
AcDbEntity
  8
0
  6
CONTINUOUS
 62
     7
100
AcDbLine
 10
1009.9913169112
 20
1004.2146509106
 30
0.0
 11
1006.1051238741
 21
1000.3284280712
 31
0.0
  0
LINE
  5
EE
330
1F
100
AcDbEntity
  8
0
  6
CONTINUOUS
 62
     7
100
AcDbLine
 10
1006.1051238741
 20
1000.3284280712
 30
0.0
 11
990.8865232434
 21
1000.3284280712
 31
0.0
  0
LINE
  5
EF
330
1F
100
AcDbEntity
  8
0
  6
CONTINUOUS
 62
     7
100
AcDbLine
 10
573.8969136443
 20
1000.3284280712
 30
0.0
 11
589.115514275
 21
1000.3284280712
 31
0.0
  0
LINE
  5
F0
330
1F
100
AcDbEntity
  8
0
  6
CONTINUOUS
 62
     7
100
AcDbLine
 10
570.0107206072
 20
1004.2146509106
 30
0.0
 11
573.8969136443
 21
1000.3284280712
 31
0.0
  0
LWPOLYLINE
  5
F1
330
1F
100
AcDbEntity
  8
0
  6
CONTINUOUS
 62
     7
100
AcDbPolyline
 90
        3
 70
   128
 43
0.0
 10
573.996080872
 20
1005.370772403
 10
571.9238955941
 20
1005.0765638763
 10
570.0107206072
 20
1004.2146509106
  0
LINE
  5
F2
330
1F
100
AcDbEntity
  8
0
  6
CONTINUOUS
 62
     7
100
AcDbLine
 10
1006.0059566464
 20
1005.370772403
 30
0.0
 11
573.996080872
 21
1005.370772403
 31
0.0
  0
LINE
  5
F3
330
1F
100
AcDbEntity
  8
0
  6
CONTINUOUS
 62
     7
100
AcDbLine
 10
566.314666387
 20
997.6893728191
 30
0.0
 11
566.314666387
 21
456.3794796879
 31
0.0
  0
LWPOLYLINE
  5
F4
330
1F
100
AcDbEntity
  8
0
  6
CONTINUOUS
 62
     7
100
AcDbPolyline
 90
        3
 70
   128
 43
0.0
 10
567.4708027806
 20
1001.6747181828
 10
566.6078616347
 20
999.7597699577
 10
566.314666387
 20
997.6893728191
  0
LINE
  5
F5
330
1F
100
AcDbEntity
  8
0
  6
CONTINUOUS
 62
     7
100
AcDbLine
 10
571.3570107188
 20
997.7885251457
 30
0.0
 11
567.4708027806
 21
1001.6747181828
 31
0.0
  0
LINE
  5
F6
330
1F
100
AcDbEntity
  8
0
  6
CONTINUOUS
 62
     7
100
AcDbLine
 10
571.3570107188
 20
980.8214073593
 30
0.0
 11
571.3570107188
 21
997.7885251457
 31
0.0
  0
LINE
  5
F7
330
1F
100
AcDbEntity
  8
0
  6
CONTINUOUS
 62
     7
100
AcDbLine
 10
571.3570107188
 20
980.8214073593
 30
0.0
 11
580.9807468619
 21
980.7870154793
 31
0.0
  0
LINE
  5
F8
330
1F
100
AcDbEntity
  8
0
  6
CONTINUOUS
 62
     7
100
AcDbLine
 10
571.3570107188
 20
473.2474451477
 30
0.0
 11
580.9807468619
 21
473.2818370277
 31
0.0
  0
LINE
  5
F9
330
1F
100
AcDbEntity
  8
0
  6
CONTINUOUS
 62
     7
100
AcDbLine
 10
571.3570107188
 20
473.2474451477
 30
0.0
 11
571.3570107188
 21
456.2803273613
 31
0.0
  0
LINE
  5
FA
330
1F
100
AcDbEntity
  8
0
  6
CONTINUOUS
 62
     7
100
AcDbLine
 10
571.3570107188
 20
456.2803273613
 30
0.0
 11
567.4708027806
 21
452.3941343243
 31
0.0
  0
LWPOLYLINE
  5
FB
330
1F
100
AcDbEntity
  8
0
  6
CONTINUOUS
 62
     7
100
AcDbPolyline
 90
        3
 70
   128
 43
0.0
 10
567.4708027806
 20
452.3941343243
 10
566.6078616347
 20
454.3090825493
 10
566.314666387
 20
456.3794796879
  0
LINE
  5
FC
330
1F
100
AcDbEntity
  8
0
  6
CONTINUOUS
 62
     7
100
AcDbLine
 10
1013.6873711314
 20
456.3794796879
 30
0.0
 11
1013.6873711314
 21
997.6893728191
 31
0.0
  0
LWPOLYLINE
  5
FD
330
1F
100
AcDbEntity
  8
0
  6
CONTINUOUS
 62
     7
100
AcDbPolyline
 90
        3
 70
   128
 43
0.0
 10
1013.6873711314
 20
456.3794796879
 10
1013.3941758837
 20
454.309052747
 10
1012.5312347378
 20
452.3941343243
  0
LINE
  5
FE
330
1F
100
AcDbEntity
  8
0
  6
CONTINUOUS
 62
     7
100
AcDbLine
 10
1008.6450267996
 20
456.2803273613
 30
0.0
 11
1012.5312347378
 21
452.3941343243
 31
0.0
  0
LINE
  5
FF
330
1F
100
AcDbEntity
  8
0
  6
CONTINUOUS
 62
     7
100
AcDbLine
 10
1008.6450267996
 20
473.2474451477
 30
0.0
 11
1008.6450267996
 21
456.2803273613
 31
0.0
  0
LINE
  5
100
330
1F
100
AcDbEntity
  8
0
  6
CONTINUOUS
 62
     7
100
AcDbLine
 10
1008.6450267996
 20
473.2474451477
 30
0.0
 11
999.0212906565
 21
473.2818370277
 31
0.0
  0
LINE
  5
101
330
1F
100
AcDbEntity
  8
0
  6
CONTINUOUS
 62
     7
100
AcDbLine
 10
1008.6450267996
 20
980.8214073593
 30
0.0
 11
999.0212906565
 21
980.7870154793
 31
0.0
  0
LINE
  5
102
330
1F
100
AcDbEntity
  8
0
  6
CONTINUOUS
 62
     7
100
AcDbLine
 10
1008.6450267996
 20
980.8214073593
 30
0.0
 11
1008.6450267996
 21
997.7885251457
 31
0.0
  0
LINE
  5
103
330
1F
100
AcDbEntity
  8
0
  6
CONTINUOUS
 62
     7
100
AcDbLine
 10
1008.6450267996
 20
997.7885251457
 30
0.0
 11
1012.5312347378
 21
1001.6747181828
 31
0.0
  0
LWPOLYLINE
  5
104
330
1F
100
AcDbEntity
  8
0
  6
CONTINUOUS
 62
     7
100
AcDbPolyline
 90
        3
 70
   128
 43
0.0
 10
1013.6873711314
 20
997.6893728191
 10
1013.3941758837
 20
999.7597997601
 10
1012.5312347378
 20
1001.6747181828
  0
LWPOLYLINE
  5
105
330
1F
100
AcDbEntity
  8
0
  6
CONTINUOUS
 62
     7
100
AcDbPolyline
 90
        8
 70
   128
 43
0.0
 10
1003.7000764575
 20
472.7647667343
 10
1006.3386846747
 20
472.8359346802
 10
1008.0685157742
 20
473.0162089283
 10
1008.5009325709
 20
473.1263583118
 10
1008.609010693
 20
473.1829529221
 10
1008.6360264983
 20
473.2112055237
 10
1008.6427767243
 20
473.2253020222
 10
1008.6450267996
 20
473.2393687183
  0
LWPOLYLINE
  5
106
330
1F
100
AcDbEntity
  8
0
  6
CONTINUOUS
 62
     7
100
AcDbPolyline
 90
        8
 70
   128
 43
0.0
 10
576.301961061
 20
472.7647667343
 10
573.6633528437
 20
472.8359346802
 10
571.93359625
 20
473.004258197
 10
571.501149651
 20
473.1134837086
 10
571.3930417265
 20
473.1743400509
 10
571.3660110201
 20
473.2063179428
 10
571.3592607941
 20
473.2227092201
 10
571.3570107188
 20
473.2393687183
  0
LWPOLYLINE
  5
107
330
1F
100
AcDbEntity
  8
0
  6
CONTINUOUS
 62
     7
100
AcDbPolyline
 90
        8
 70
   128
 43
0.0
 10
576.301961061
 20
981.3040857727
 10
573.6633528437
 20
981.2329178268
 10
571.9335217442
 20
981.0526435787
 10
571.5011049475
 20
980.9424941952
 10
571.3930268254
 20
980.885899585
 10
571.3660110201
 20
980.8576469833
 10
571.3592607941
 20
980.8435504849
 10
571.3570107188
 20
980.8294837887
  0
LWPOLYLINE
  5
108
330
1F
100
AcDbEntity
  8
0
  6
CONTINUOUS
 62
     7
100
AcDbPolyline
 90
        8
 70
   128
 43
0.0
 10
1003.7000764575
 20
981.3040857727
 10
1006.3386846747
 20
981.2329178268
 10
1008.0684412684
 20
981.06459431
 10
1008.5008878674
 20
980.9553687985
 10
1008.6089957919
 20
980.8945124561
 10
1008.6360264983
 20
980.8625345642
 10
1008.6427767243
 20
980.8461432869
 10
1008.6450267996
 20
980.8294837887
  0
CIRCLE
  5
109
330
1F
100
AcDbEntity
  8
0
  6
CONTINUOUS
 62
     7
100
AcDbCircle
 10
578.0010187592
 20
994.0344262535
 30
0.0
 40
0.866025403784306
  0
ARC
  5
10A
330
1F
100
AcDbEntity
  8
0
  6
CONTINUOUS
 62
     7
100
AcDbCircle
 10
573.6323191062
 20
998.0531196838
 30
0.0
 40
2.290641510022192
100
AcDbArc
 50
83.3668941756
 51
186.6331058244
  0
CIRCLE
  5
10B
330
1F
100
AcDbEntity
  8
0
  6
CONTINUOUS
 62
     7
100
AcDbCircle
 10
1002.0010187592
 20
460.0344262535
 30
0.0
 40
0.8660254037844197
  0
ARC
  5
10C
330
1F
100
AcDbEntity
  8
0
  6
CONTINUOUS
 62
     7
100
AcDbCircle
 10
1006.3697184122
 20
456.0157328232
 30
0.0
 40
2.290641510022278
100
AcDbArc
 50
263.3668941756
 51
6.6331058244
  0
CIRCLE
  5
10D
330
1F
100
AcDbEntity
  8
0
  6
CONTINUOUS
 62
     7
100
AcDbCircle
 10
578.0010187592
 20
460.0344262535
 30
0.0
 40
0.866025403784306
  0
ARC
  5
10E
330
1F
100
AcDbEntity
  8
0
  6
CONTINUOUS
 62
     7
100
AcDbCircle
 10
573.6324267136
 20
456.0158404306
 30
0.0
 40
2.29073597034158
100
AcDbArc
 50
173.3698785243
 51
276.6301214757
  0
CIRCLE
  5
10F
330
1F
100
AcDbEntity
  8
0
  6
CONTINUOUS
 62
     7
100
AcDbCircle
 10
1002.0010187592
 20
994.0344262535
 30
0.0
 40
0.8660254037844197
  0
ARC
  5
110
330
1F
100
AcDbEntity
  8
0
  6
CONTINUOUS
 62
     7
100
AcDbCircle
 10
1006.3696108049
 20
998.0530120764
 30
0.0
 40
2.290735970341624
100
AcDbArc
 50
353.3698785243
 51
96.6301214757
  0
LWPOLYLINE
  5
111
330
1F
100
AcDbEntity
  8
0
  6
CONTINUOUS
 62
     7
100
AcDbPolyline
 90
        3
 70
   128
 43
0.0
 10
1012.5312347378
 20
1001.6747181828
 10
1011.3919664588
 20
1003.0738180096
 10
1009.9913169112
 20
1004.2146509106
  0
LWPOLYLINE
  5
112
330
1F
100
AcDbEntity
  8
0
  6
CONTINUOUS
 62
     7
100
AcDbPolyline
 90
        3
 70
   128
 43
0.0
 10
570.0107206072
 20
449.8542015965
 10
568.6100710597
 20
450.9950344975
 10
567.4708027806
 20
452.3941343243
  0
LWPOLYLINE
  5
113
330
1F
100
AcDbEntity
  8
0
  6
CONTINUOUS
 62
     7
100
AcDbPolyline
 90
        3
 70
   128
 43
0.0
 10
1012.5312347378
 20
452.3941343243
 10
1011.3919664588
 20
450.9950344975
 10
1009.9913169112
 20
449.8542015965
  0
LWPOLYLINE
  5
114
330
1F
100
AcDbEntity
  8
0
  6
CONTINUOUS
 62
     7
100
AcDbPolyline
 90
        3
 70
   128
 43
0.0
 10
570.0107206072
 20
1004.2146509106
 10
568.6100710597
 20
1003.0738180096
 10
567.4708027806
 20
1001.6747181828
  0
LWPOLYLINE
  5
115
330
1F
100
AcDbEntity
  8
0
  6
CONTINUOUS
 62
     7
100
AcDbPolyline
 90
        3
 70
   128
 43
0.0
 10
1014.0279818739
 20
451.3318603451
 10
1012.7053250041
 20
449.6798878128
 10
1011.0535759892
 20
448.3574693615
  0
ARC
  5
116
330
1F
100
AcDbEntity
  8
0
  6
CONTINUOUS
 62
     7
100
AcDbCircle
 10
1018.923060512
 20
455.0678528796
 30
0.0
 40
10.34204705398442
100
AcDbArc
 50
210.2730722289
 51
220.4541277776
  0
ARC
  5
117
330
1F
100
AcDbEntity
  8
0
  6
CONTINUOUS
 62
     7
100
AcDbCircle
 10
1007.3115364869
 20
443.4538275559
 30
0.0
 40
10.35247055065821
100
AcDbArc
 50
49.5515147364
 51
59.7219460439
  0
LWPOLYLINE
  5
118
330
1F
100
AcDbEntity
  8
0
  6
CONTINUOUS
 62
     7
100
AcDbPolyline
 90
        3
 70
   128
 43
0.0
 10
1014.0279818739
 20
1002.7369921619
 10
1012.7053250041
 20
1004.3889646942
 10
1011.0535759892
 20
1005.7113831455
  0
ARC
  5
119
330
1F
100
AcDbEntity
  8
0
  6
CONTINUOUS
 62
     7
100
AcDbCircle
 10
1007.3152885281
 20
1010.6098207544
 30
0.0
 40
10.34609202818764
100
AcDbArc
 50
300.2747123104
 51
310.4517289591
  0
ARC
  5
11A
330
1F
100
AcDbEntity
  8
0
  6
CONTINUOUS
 62
     7
100
AcDbCircle
 10
1018.9299082257
 20
998.9962114967
 30
0.0
 40
10.35035976044908
100
AcDbArc
 50
139.5507104329
 51
149.7232888364
  0
LWPOLYLINE
  5
11B
330
1F
100
AcDbEntity
  8
0
  6
CONTINUOUS
 62
     7
100
AcDbPolyline
 90
        3
 70
   128
 43
0.0
 10
568.9484615292
 20
1005.7113831455
 10
567.2967125144
 20
1004.3889646942
 10
565.9740556445
 20
1002.7369921619
  0
ARC
  5
11C
330
1F
100
AcDbEntity
  8
0
  6
CONTINUOUS
 62
     7
100
AcDbCircle
 10
561.0759964694
 20
998.9990434512
 30
0.0
 40
10.34559227109586
100
AcDbArc
 50
30.2739645721
 51
40.4518402967
  0
ARC
  5
11D
330
1F
100
AcDbEntity
  8
0
  6
CONTINUOUS
 62
     7
100
AcDbCircle
 10
572.6891074302
 20
1010.6130612989
 30
0.0
 40
10.35007211547605
100
AcDbArc
 50
229.550333228
 51
239.7231275523
  0
LWPOLYLINE
  5
11E
330
1F
100
AcDbEntity
  8
0
  6
CONTINUOUS
 62
     7
100
AcDbPolyline
 90
        3
 70
   128
 43
0.0
 10
568.9484615292
 20
448.3574693615
 10
567.2967125144
 20
449.6798878128
 10
565.9740556445
 20
451.3318603451
  0
ARC
  5
11F
330
1F
100
AcDbEntity
  8
0
  6
CONTINUOUS
 62
     7
100
AcDbCircle
 10
572.6863849707
 20
443.4594505102
 30
0.0
 40
10.34554686285692
100
AcDbArc
 50
120.2741404415
 51
130.4517623554
  0
ARC
  5
120
330
1F
100
AcDbEntity
  8
0
  6
CONTINUOUS
 62
     7
100
AcDbCircle
 10
561.0690027607
 20
455.0749383355
 30
0.0
 40
10.35421810091495
100
AcDbArc
 50
319.5522074186
 51
329.7210330944
  0
LWPOLYLINE
  5
121
330
1F
100
AcDbEntity
  8
0
  6
CONTINUOUS
 62
     7
100
AcDbPolyline
 90
        3
 70
   128
 43
0.0
 10
565.9740556445
 20
1002.7369921619
 10
564.8857195344
 20
1000.3260140831
 10
564.5091075863
 20
997.6893728191
  0
LINE
  5
122
330
1F
100
AcDbEntity
  8
0
  6
CONTINUOUS
 62
     7
100
AcDbLine
 10
564.5091075863
 20
997.6893728191
 30
0.0
 11
566.314666387
 21
997.6893728191
 31
0.0
  0
LWPOLYLINE
  5
123
330
1F
100
AcDbEntity
  8
0
  6
CONTINUOUS
 62
     7
100
AcDbPolyline
 90
        3
 70
   128
 43
0.0
 10
565.9740556445
 20
451.3318603451
 10
564.8857195344
 20
453.7428384239
 10
564.5091075863
 20
456.3794796879
  0
LINE
  5
124
330
1F
100
AcDbEntity
  8
0
  6
CONTINUOUS
 62
     7
100
AcDbLine
 10
564.5091075863
 20
456.3794796879
 30
0.0
 11
566.314666387
 21
456.3794796879
 31
0.0
  0
LWPOLYLINE
  5
125
330
1F
100
AcDbEntity
  8
0
  6
CONTINUOUS
 62
     7
100
AcDbPolyline
 90
        3
 70
   128
 43
0.0
 10
1011.0535759892
 20
448.3574693615
 10
1008.6427171197
 20
447.2691481525
 10
1006.0059566464
 20
446.8925064022
  0
LINE
  5
126
330
1F
100
AcDbEntity
  8
0
  6
CONTINUOUS
 62
     7
100
AcDbLine
 10
1006.0059566464
 20
446.8925064022
 30
0.0
 11
1006.0059566464
 21
448.6980801041
 31
0.0
  0
LWPOLYLINE
  5
127
330
1F
100
AcDbEntity
  8
0
  6
CONTINUOUS
 62
     7
100
AcDbPolyline
 90
        3
 70
   128
 43
0.0
 10
1011.0535759892
 20
1005.7113831455
 10
1008.6427171197
 20
1006.7997043545
 10
1006.0059566464
 20
1007.1763461048
  0
LINE
  5
128
330
1F
100
AcDbEntity
  8
0
  6
CONTINUOUS
 62
     7
100
AcDbLine
 10
1006.0059566464
 20
1007.1763461048
 30
0.0
 11
1006.0059566464
 21
1005.370772403
 31
0.0
  0
LWPOLYLINE
  5
129
330
1F
100
AcDbEntity
  8
0
  6
CONTINUOUS
 62
     7
100
AcDbPolyline
 90
        3
 70
   128
 43
0.0
 10
1015.4929299321
 20
997.6893728191
 10
1015.1163179841
 20
1000.3260140831
 10
1014.0279818739
 20
1002.7369921619
  0
LINE
  5
12A
330
1F
100
AcDbEntity
  8
0
  6
CONTINUOUS
 62
     7
100
AcDbLine
 10
1015.4929299321
 20
997.6893728191
 30
0.0
 11
1013.6873711314
 21
997.6893728191
 31
0.0
  0
LWPOLYLINE
  5
12B
330
1F
100
AcDbEntity
  8
0
  6
CONTINUOUS
 62
     7
100
AcDbPolyline
 90
        3
 70
   128
 43
0.0
 10
1015.4929299321
 20
456.3794796879
 10
1015.1163179841
 20
453.7428384239
 10
1014.0279818739
 20
451.3318603451
  0
LINE
  5
12C
330
1F
100
AcDbEntity
  8
0
  6
CONTINUOUS
 62
     7
100
AcDbLine
 10
1015.4929299321
 20
456.3794796879
 30
0.0
 11
1013.6873711314
 21
456.3794796879
 31
0.0
  0
LWPOLYLINE
  5
12D
330
1F
100
AcDbEntity
  8
0
  6
CONTINUOUS
 62
     7
100
AcDbPolyline
 90
        3
 70
   128
 43
0.0
 10
573.996080872
 20
446.8925064022
 10
571.3603038754
 20
447.2688799316
 10
568.9484615292
 20
448.3574693615
  0
LINE
  5
12E
330
1F
100
AcDbEntity
  8
0
  6
CONTINUOUS
 62
     7
100
AcDbLine
 10
573.996080872
 20
446.8925064022
 30
0.0
 11
573.996080872
 21
448.6980801041
 31
0.0
  0
LWPOLYLINE
  5
12F
330
1F
100
AcDbEntity
  8
0
  6
CONTINUOUS
 62
     7
100
AcDbPolyline
 90
        3
 70
   128
 43
0.0
 10
573.996080872
 20
1007.1763461048
 10
571.3603038754
 20
1006.7999725754
 10
568.9484615292
 20
1005.7113831455
  0
LINE
  5
130
330
1F
100
AcDbEntity
  8
0
  6
CONTINUOUS
 62
     7
100
AcDbLine
 10
573.996080872
 20
1007.1763461048
 30
0.0
 11
573.996080872
 21
1005.370772403
 31
0.0
  0
LINE
  5
131
330
1F
100
AcDbEntity
  8
0
  6
CONTINUOUS
 62
     7
100
AcDbLine
 10
564.5091075863
 20
456.3794796879
 30
0.0
 11
564.5091075863
 21
997.6893728191
 31
0.0
  0
LINE
  5
132
330
1F
100
AcDbEntity
  8
0
  6
CONTINUOUS
 62
     7
100
AcDbLine
 10
1006.0059566464
 20
446.8925064022
 30
0.0
 11
573.996080872
 21
446.8925064022
 31
0.0
  0
LINE
  5
133
330
1F
100
AcDbEntity
  8
0
  6
CONTINUOUS
 62
     7
100
AcDbLine
 10
1006.0059566464
 20
1007.1763461048
 30
0.0
 11
573.996080872
 21
1007.1763461048
 31
0.0
  0
LINE
  5
134
330
1F
100
AcDbEntity
  8
0
  6
CONTINUOUS
 62
     7
100
AcDbLine
 10
1015.4929299321
 20
997.6893728191
 30
0.0
 11
1015.4929299321
 21
456.3794796879
 31
0.0
  0
LINE
  5
135
330
1F
100
AcDbEntity
  8
0
  6
CONTINUOUS
 62
     7
100
AcDbLine
 10
564.5091075863
 20
997.6893728191
 30
0.0
 11
563.6762667861
 21
998.5221987183
 31
0.0
  0
ARC
  5
136
330
1F
100
AcDbEntity
  8
0
  6
CONTINUOUS
 62
     7
100
AcDbCircle
 10
573.1603145153
 20
998.5251242793
 30
0.0
 40
9.484048180463065
100
AcDbArc
 50
89.9822358755
 51
180.0176741303
  0
LINE
  5
137
330
1F
100
AcDbEntity
  8
0
  6
CONTINUOUS
 62
     7
100
AcDbLine
 10
573.996080872
 20
1007.1763461048
 30
0.0
 11
573.1632549729
 21
1008.0091720039
 31
0.0
  0
LINE
  5
138
330
1F
100
AcDbEntity
  8
0
  6
CONTINUOUS
 62
     7
100
AcDbLine
 10
1015.4929299321
 20
456.3794796879
 30
0.0
 11
1016.3257707324
 21
455.5466537888
 31
0.0
  0
ARC
  5
139
330
1F
100
AcDbEntity
  8
0
  6
CONTINUOUS
 62
     7
100
AcDbCircle
 10
1006.8417230031
 20
455.5437282277
 30
0.0
 40
9.484048180462903
100
AcDbArc
 50
269.9822358755
 51
0.0176741303
  0
LINE
  5
13A
330
1F
100
AcDbEntity
  8
0
  6
CONTINUOUS
 62
     7
100
AcDbLine
 10
1006.0059566464
 20
446.8925064022
 30
0.0
 11
1006.8387825455
 21
446.0596805031
 31
0.0
  0
LINE
  5
13B
330
1F
100
AcDbEntity
  8
0
  6
CONTINUOUS
 62
     7
100
AcDbLine
 10
573.996080872
 20
446.8925064022
 30
0.0
 11
573.1632549729
 21
446.0596805031
 31
0.0
  0
ARC
  5
13C
330
1F
100
AcDbEntity
  8
0
  6
CONTINUOUS
 62
     7
100
AcDbCircle
 10
573.1408245398
 20
455.5242382216
 30
0.0
 40
9.46458429787354
100
AcDbArc
 50
179.8643026938
 51
270.1357873005
  0
LINE
  5
13D
330
1F
100
AcDbEntity
  8
0
  6
CONTINUOUS
 62
     7
100
AcDbLine
 10
564.5091075863
 20
456.3794796879
 30
0.0
 11
563.6762667861
 21
455.5466537888
 31
0.0
  0
LINE
  5
13E
330
1F
100
AcDbEntity
  8
0
  6
CONTINUOUS
 62
     7
100
AcDbLine
 10
1006.0059566464
 20
1007.1763461048
 30
0.0
 11
1006.8387825455
 21
1008.0091720039
 31
0.0
  0
ARC
  5
13F
330
1F
100
AcDbEntity
  8
0
  6
CONTINUOUS
 62
     7
100
AcDbCircle
 10
1006.8612129786
 20
998.5446142854
 30
0.0
 40
9.464584297874547
100
AcDbArc
 50
359.8643026938
 51
90.1357873005
  0
LINE
  5
140
330
1F
100
AcDbEntity
  8
0
  6
CONTINUOUS
 62
     7
100
AcDbLine
 10
1015.4929299321
 20
997.6893728191
 30
0.0
 11
1016.3257707324
 21
998.5221987183
 31
0.0
  0
LINE
  5
141
330
1F
100
AcDbEntity
  8
0
  6
CONTINUOUS
 62
     7
100
AcDbLine
 10
564.2817903723
 20
744.534426328
 30
0.0
 11
564.2817903723
 21
709.534426179
 31
0.0
  0
LINE
  5
142
330
1F
100
AcDbEntity
  8
0
  6
CONTINUOUS
 62
     7
100
AcDbLine
 10
564.3359113898
 20
747.0344258065
 30
0.0
 11
564.3359113898
 21
744.534426328
 31
0.0
  0
LINE
  5
143
330
1F
100
AcDbEntity
  8
0
  6
CONTINUOUS
 62
     7
100
AcDbLine
 10
563.9330286946
 20
749.5344271476
 30
0.0
 11
563.9330286946
 21
747.0344258065
 31
0.0
  0
LINE
  5
144
330
1F
100
AcDbEntity
  8
0
  6
CONTINUOUS
 62
     7
100
AcDbLine
 10
563.9277536835
 20
749.5344271476
 30
0.0
 11
563.9330286946
 21
749.5344271476
 31
0.0
  0
LINE
  5
145
330
1F
100
AcDbEntity
  8
0
  6
CONTINUOUS
 62
     7
100
AcDbLine
 10
563.9280070033
 20
772.5344253296
 30
0.0
 11
563.9277536835
 21
749.5344271476
 31
0.0
  0
LINE
  5
146
330
1F
100
AcDbEntity
  8
0
  6
CONTINUOUS
 62
     7
100
AcDbLine
 10
563.9381248917
 20
772.5344253296
 30
0.0
 11
563.9330584969
 21
772.5344253296
 31
0.0
  0
LINE
  5
147
330
1F
100
AcDbEntity
  8
0
  6
CONTINUOUS
 62
     7
100
AcDbLine
 10
563.9330584969
 20
772.5344253296
 30
0.0
 11
563.9330584969
 21
775.0344266707
 31
0.0
  0
LINE
  5
148
330
1F
100
AcDbEntity
  8
0
  6
CONTINUOUS
 62
     7
100
AcDbLine
 10
564.3359113898
 20
777.5344280119
 30
0.0
 11
564.3359113898
 21
775.0344266707
 31
0.0
  0
LINE
  5
149
330
1F
100
AcDbEntity
  8
0
  6
CONTINUOUS
 62
     7
100
AcDbLine
 10
564.2817903723
 20
777.5344280119
 30
0.0
 11
564.2817903723
 21
812.5344281609
 31
0.0
  0
LINE
  5
14A
330
1F
100
AcDbEntity
  8
0
  6
CONTINUOUS
 62
     7
100
AcDbLine
 10
564.3359113898
 20
815.0344257767
 30
0.0
 11
564.3359113898
 21
812.5344281609
 31
0.0
  0
LINE
  5
14B
330
1F
100
AcDbEntity
  8
0
  6
CONTINUOUS
 62
     7
100
AcDbLine
 10
563.9330286946
 20
817.5344233925
 30
0.0
 11
563.9330286946
 21
815.0344257767
 31
0.0
  0
LINE
  5
14C
330
1F
100
AcDbEntity
  8
0
  6
CONTINUOUS
 62
     7
100
AcDbLine
 10
563.9277536835
 20
817.5344233925
 30
0.0
 11
563.9330286946
 21
817.5344233925
 31
0.0
  0
LINE
  5
14D
330
1F
100
AcDbEntity
  8
0
  6
CONTINUOUS
 62
     7
100
AcDbLine
 10
563.9280070033
 20
840.5344252998
 30
0.0
 11
563.9277536835
 21
817.5344233925
 31
0.0
  0
LINE
  5
14E
330
1F
100
AcDbEntity
  8
0
  6
CONTINUOUS
 62
     7
100
AcDbLine
 10
563.9381248917
 20
840.5344252998
 30
0.0
 11
563.9330584969
 21
840.5344252998
 31
0.0
  0
LINE
  5
14F
330
1F
100
AcDbEntity
  8
0
  6
CONTINUOUS
 62
     7
100
AcDbLine
 10
563.9330584969
 20
840.5344252998
 30
0.0
 11
563.9330584969
 21
843.0344229157
 31
0.0
  0
LINE
  5
150
330
1F
100
AcDbEntity
  8
0
  6
CONTINUOUS
 62
     7
100
AcDbLine
 10
564.3359113898
 20
845.534427982
 30
0.0
 11
564.3359113898
 21
843.0344229157
 31
0.0
  0
LINE
  5
151
330
1F
100
AcDbEntity
  8
0
  6
CONTINUOUS
 62
     7
100
AcDbLine
 10
564.2817903723
 20
845.534427982
 30
0.0
 11
564.2817903723
 21
880.5344318564
 31
0.0
  0
LINE
  5
152
330
1F
100
AcDbEntity
  8
0
  6
CONTINUOUS
 62
     7
100
AcDbLine
 10
564.3359113898
 20
883.0344294722
 30
0.0
 11
564.3359113898
 21
880.5344318564
 31
0.0
  0
LINE
  5
153
330
1F
100
AcDbEntity
  8
0
  6
CONTINUOUS
 62
     7
100
AcDbLine
 10
563.9330286946
 20
885.534427088
 30
0.0
 11
563.9330286946
 21
883.0344294722
 31
0.0
  0
LINE
  5
154
330
1F
100
AcDbEntity
  8
0
  6
CONTINUOUS
 62
     7
100
AcDbLine
 10
563.9277536835
 20
885.534427088
 30
0.0
 11
563.9330286946
 21
885.534427088
 31
0.0
  0
LINE
  5
155
330
1F
100
AcDbEntity
  8
0
  6
CONTINUOUS
 62
     7
100
AcDbLine
 10
563.9280070033
 20
908.5344289953
 30
0.0
 11
563.9277536835
 21
885.534427088
 31
0.0
  0
LINE
  5
156
330
1F
100
AcDbEntity
  8
0
  6
CONTINUOUS
 62
     7
100
AcDbLine
 10
563.9381248917
 20
908.5344289953
 30
0.0
 11
563.9330584969
 21
908.5344289953
 31
0.0
  0
LINE
  5
157
330
1F
100
AcDbEntity
  8
0
  6
CONTINUOUS
 62
     7
100
AcDbLine
 10
563.9330584969
 20
908.5344289953
 30
0.0
 11
563.9330584969
 21
911.0344266111
 31
0.0
  0
LINE
  5
158
330
1F
100
AcDbEntity
  8
0
  6
CONTINUOUS
 62
     7
100
AcDbLine
 10
564.3359113898
 20
913.534424227
 30
0.0
 11
564.3359113898
 21
911.0344266111
 31
0.0
  0
LINE
  5
159
330
1F
100
AcDbEntity
  8
0
  6
CONTINUOUS
 62
     7
100
AcDbLine
 10
564.2817903723
 20
913.534424227
 30
0.0
 11
564.2817903723
 21
948.5344206507
 31
0.0
  0
LINE
  5
15A
330
1F
100
AcDbEntity
  8
0
  6
CONTINUOUS
 62
     7
100
AcDbLine
 10
564.3359113898
 20
951.0344331677
 30
0.0
 11
564.3359113898
 21
948.5344206507
 31
0.0
  0
LINE
  5
15B
330
1F
100
AcDbEntity
  8
0
  6
CONTINUOUS
 62
     7
100
AcDbLine
 10
563.9330286946
 20
953.5344307835
 30
0.0
 11
563.9330286946
 21
951.0344331677
 31
0.0
  0
LINE
  5
15C
330
1F
100
AcDbEntity
  8
0
  6
CONTINUOUS
 62
     7
100
AcDbLine
 10
563.9277536835
 20
953.5344307835
 30
0.0
 11
563.9330286946
 21
953.5344307835
 31
0.0
  0
LINE
  5
15D
330
1F
100
AcDbEntity
  8
0
  6
CONTINUOUS
 62
     7
100
AcDbLine
 10
563.9275003638
 20
971.534422558
 30
0.0
 11
563.9277536835
 21
953.5344307835
 31
0.0
  0
LINE
  5
15E
330
1F
100
AcDbEntity
  8
0
  6
CONTINUOUS
 62
     7
100
AcDbLine
 10
563.9330584969
 20
971.534422558
 30
0.0
 11
563.9275003638
 21
971.534422558
 31
0.0
  0
LINE
  5
15F
330
1F
100
AcDbEntity
  8
0
  6
CONTINUOUS
 62
     7
100
AcDbLine
 10
563.9330584969
 20
971.534422558
 30
0.0
 11
563.9330584969
 21
979.0344303066
 31
0.0
  0
LINE
  5
160
330
1F
100
AcDbEntity
  8
0
  6
CONTINUOUS
 62
     7
100
AcDbLine
 10
564.3359113898
 20
981.5344279224
 30
0.0
 11
564.3359113898
 21
979.0344303066
 31
0.0
  0
LINE
  5
161
330
1F
100
AcDbEntity
  8
0
  6
CONTINUOUS
 62
     7
100
AcDbLine
 10
563.6762667861
 20
998.5221987183
 30
0.0
 11
563.6762667861
 21
981.5344279224
 31
0.0
  0
LINE
  5
162
330
1F
100
AcDbEntity
  8
0
  6
CONTINUOUS
 62
     7
100
AcDbLine
 10
563.6762667861
 20
455.5466537888
 30
0.0
 11
563.6762667861
 21
472.5344245846
 31
0.0
  0
LINE
  5
163
330
1F
100
AcDbEntity
  8
0
  6
CONTINUOUS
 62
     7
100
AcDbLine
 10
564.3359113898
 20
472.5344245846
 30
0.0
 11
564.3359113898
 21
475.0344222004
 31
0.0
  0
LINE
  5
164
330
1F
100
AcDbEntity
  8
0
  6
CONTINUOUS
 62
     7
100
AcDbLine
 10
563.9330584969
 20
482.534429949
 30
0.0
 11
563.9330584969
 21
475.0344222004
 31
0.0
  0
LINE
  5
165
330
1F
100
AcDbEntity
  8
0
  6
CONTINUOUS
 62
     7
100
AcDbLine
 10
563.9330584969
 20
482.534429949
 30
0.0
 11
563.9275003638
 21
482.534429949
 31
0.0
  0
LINE
  5
166
330
1F
100
AcDbEntity
  8
0
  6
CONTINUOUS
 62
     7
100
AcDbLine
 10
563.9275003638
 20
482.534429949
 30
0.0
 11
563.9277536835
 21
500.5344217236
 31
0.0
  0
LINE
  5
167
330
1F
100
AcDbEntity
  8
0
  6
CONTINUOUS
 62
     7
100
AcDbLine
 10
563.9383037057
 20
500.5344217236
 30
0.0
 11
563.9330286946
 21
500.5344217236
 31
0.0
  0
LINE
  5
168
330
1F
100
AcDbEntity
  8
0
  6
CONTINUOUS
 62
     7
100
AcDbLine
 10
563.9330286946
 20
500.5344217236
 30
0.0
 11
563.9330286946
 21
503.0344193394
 31
0.0
  0
LINE
  5
169
330
1F
100
AcDbEntity
  8
0
  6
CONTINUOUS
 62
     7
100
AcDbLine
 10
564.3359113898
 20
503.0344193394
 30
0.0
 11
564.3359113898
 21
505.5344318564
 31
0.0
  0
LINE
  5
16A
330
1F
100
AcDbEntity
  8
0
  6
CONTINUOUS
 62
     7
100
AcDbLine
 10
564.2817903723
 20
540.5344282801
 30
0.0
 11
564.2817903723
 21
505.5344318564
 31
0.0
  0
LINE
  5
16B
330
1F
100
AcDbEntity
  8
0
  6
CONTINUOUS
 62
     7
100
AcDbLine
 10
564.3359113898
 20
540.5344282801
 30
0.0
 11
564.3359113898
 21
543.0344258959
 31
0.0
  0
LINE
  5
16C
330
1F
100
AcDbEntity
  8
0
  6
CONTINUOUS
 62
     7
100
AcDbLine
 10
563.9330584969
 20
545.5344235117
 30
0.0
 11
563.9330584969
 21
543.0344258959
 31
0.0
  0
LINE
  5
16D
330
1F
100
AcDbEntity
  8
0
  6
CONTINUOUS
 62
     7
100
AcDbLine
 10
563.9280070033
 20
545.5344235117
 30
0.0
 11
563.9330584969
 21
545.5344235117
 31
0.0
  0
LINE
  5
16E
330
1F
100
AcDbEntity
  8
0
  6
CONTINUOUS
 62
     7
100
AcDbLine
 10
563.9279772009
 20
545.5344235117
 30
0.0
 11
563.9277536835
 21
568.534425419
 31
0.0
  0
LINE
  5
16F
330
1F
100
AcDbEntity
  8
0
  6
CONTINUOUS
 62
     7
100
AcDbLine
 10
563.9383037057
 20
568.534425419
 30
0.0
 11
563.9330286946
 21
568.534425419
 31
0.0
  0
LINE
  5
170
330
1F
100
AcDbEntity
  8
0
  6
CONTINUOUS
 62
     7
100
AcDbLine
 10
563.9330286946
 20
568.534425419
 30
0.0
 11
563.9330286946
 21
571.0344230349
 31
0.0
  0
LINE
  5
171
330
1F
100
AcDbEntity
  8
0
  6
CONTINUOUS
 62
     7
100
AcDbLine
 10
564.3359113898
 20
571.0344230349
 30
0.0
 11
564.3359113898
 21
573.5344206507
 31
0.0
  0
LINE
  5
172
330
1F
100
AcDbEntity
  8
0
  6
CONTINUOUS
 62
     7
100
AcDbLine
 10
564.2817903723
 20
608.534424525
 30
0.0
 11
564.2817903723
 21
573.5344206507
 31
0.0
  0
LINE
  5
173
330
1F
100
AcDbEntity
  8
0
  6
CONTINUOUS
 62
     7
100
AcDbLine
 10
564.3359113898
 20
608.534424525
 30
0.0
 11
564.3359113898
 21
611.0344295914
 31
0.0
  0
LINE
  5
174
330
1F
100
AcDbEntity
  8
0
  6
CONTINUOUS
 62
     7
100
AcDbLine
 10
563.9330584969
 20
613.5344272072
 30
0.0
 11
563.9330584969
 21
611.0344295914
 31
0.0
  0
LINE
  5
175
330
1F
100
AcDbEntity
  8
0
  6
CONTINUOUS
 62
     7
100
AcDbLine
 10
563.9280070033
 20
613.5344272072
 30
0.0
 11
563.9330584969
 21
613.5344272072
 31
0.0
  0
LINE
  5
176
330
1F
100
AcDbEntity
  8
0
  6
CONTINUOUS
 62
     7
100
AcDbLine
 10
563.9279772009
 20
613.5344272072
 30
0.0
 11
563.9277536835
 21
636.5344291145
 31
0.0
  0
LINE
  5
177
330
1F
100
AcDbEntity
  8
0
  6
CONTINUOUS
 62
     7
100
AcDbLine
 10
563.9383037057
 20
636.5344291145
 30
0.0
 11
563.9330286946
 21
636.5344291145
 31
0.0
  0
LINE
  5
178
330
1F
100
AcDbEntity
  8
0
  6
CONTINUOUS
 62
     7
100
AcDbLine
 10
563.9330286946
 20
636.5344291145
 30
0.0
 11
563.9330286946
 21
639.0344267304
 31
0.0
  0
LINE
  5
179
330
1F
100
AcDbEntity
  8
0
  6
CONTINUOUS
 62
     7
100
AcDbLine
 10
564.3359113898
 20
639.0344267304
 30
0.0
 11
564.3359113898
 21
641.5344243462
 31
0.0
  0
LINE
  5
17A
330
1F
100
AcDbEntity
  8
0
  6
CONTINUOUS
 62
     7
100
AcDbLine
 10
564.2817903723
 20
676.5344244952
 30
0.0
 11
564.2817903723
 21
641.5344243462
 31
0.0
  0
LINE
  5
17B
330
1F
100
AcDbEntity
  8
0
  6
CONTINUOUS
 62
     7
100
AcDbLine
 10
564.3359113898
 20
676.5344244952
 30
0.0
 11
564.3359113898
 21
679.0344258363
 31
0.0
  0
LINE
  5
17C
330
1F
100
AcDbEntity
  8
0
  6
CONTINUOUS
 62
     7
100
AcDbLine
 10
563.9330584969
 20
681.5344271774
 30
0.0
 11
563.9330584969
 21
679.0344258363
 31
0.0
  0
LINE
  5
17D
330
1F
100
AcDbEntity
  8
0
  6
CONTINUOUS
 62
     7
100
AcDbLine
 10
563.9280070033
 20
681.5344271774
 30
0.0
 11
563.9330584969
 21
681.5344271774
 31
0.0
  0
LINE
  5
17E
330
1F
100
AcDbEntity
  8
0
  6
CONTINUOUS
 62
     7
100
AcDbLine
 10
563.9279772009
 20
681.5344271774
 30
0.0
 11
563.9277536835
 21
704.5344253594
 31
0.0
  0
LINE
  5
17F
330
1F
100
AcDbEntity
  8
0
  6
CONTINUOUS
 62
     7
100
AcDbLine
 10
563.9383037057
 20
704.5344253594
 30
0.0
 11
563.9330286946
 21
704.5344253594
 31
0.0
  0
LINE
  5
180
330
1F
100
AcDbEntity
  8
0
  6
CONTINUOUS
 62
     7
100
AcDbLine
 10
563.9330286946
 20
704.5344253594
 30
0.0
 11
563.9330286946
 21
707.0344267005
 31
0.0
  0
LINE
  5
181
330
1F
100
AcDbEntity
  8
0
  6
CONTINUOUS
 62
     7
100
AcDbLine
 10
564.3359113898
 20
707.0344267005
 30
0.0
 11
564.3359113898
 21
709.534426179
 31
0.0
  0
LINE
  5
182
330
1F
100
AcDbEntity
  8
0
  6
CONTINUOUS
 62
     7
100
AcDbLine
 10
1006.8387825455
 20
446.0596805031
 30
0.0
 11
573.1632549729
 21
446.0596805031
 31
0.0
  0
LINE
  5
183
330
1F
100
AcDbEntity
  8
0
  6
CONTINUOUS
 62
     7
100
AcDbLine
 10
1006.8387825455
 20
1008.0091720039
 30
0.0
 11
573.1632549729
 21
1008.0091720039
 31
0.0
  0
LINE
  5
184
330
1F
100
AcDbEntity
  8
0
  6
CONTINUOUS
 62
     7
100
AcDbLine
 10
1016.3257707324
 20
998.5221987183
 30
0.0
 11
1016.3257707324
 21
455.5466537888
 31
0.0
  0
LINE
  5
185
330
1F
100
AcDbEntity
  8
0
  6
CONTINUOUS
 62
     7
100
AcDbLine
 10
559.6384991374
 20
475.0344222004
 30
0.0
 11
564.3359113898
 21
475.0344222004
 31
0.0
  0
LINE
  5
186
330
1F
100
AcDbEntity
  8
0
  6
CONTINUOUS
 62
     7
100
AcDbLine
 10
559.0904940333
 20
472.5344245846
 30
0.0
 11
559.0904940333
 21
505.5344318564
 31
0.0
  0
LINE
  5
187
330
1F
100
AcDbEntity
  8
0
  6
CONTINUOUS
 62
     7
100
AcDbLine
 10
559.6384991374
 20
503.0344193394
 30
0.0
 11
564.3359113898
 21
503.0344193394
 31
0.0
  0
LINE
  5
188
330
1F
100
AcDbEntity
  8
0
  6
CONTINUOUS
 62
     7
100
AcDbLine
 10
559.6384991374
 20
475.0344222004
 30
0.0
 11
559.6384991374
 21
503.0344193394
 31
0.0
  0
LINE
  5
189
330
1F
100
AcDbEntity
  8
0
  6
CONTINUOUS
 62
     7
100
AcDbLine
 10
559.0904940333
 20
472.5344245846
 30
0.0
 11
564.3359113898
 21
472.5344245846
 31
0.0
  0
LINE
  5
18A
330
1F
100
AcDbEntity
  8
0
  6
CONTINUOUS
 62
     7
100
AcDbLine
 10
559.0904940333
 20
505.5344318564
 30
0.0
 11
564.3359113898
 21
505.5344318564
 31
0.0
  0
LINE
  5
18B
330
1F
100
AcDbEntity
  8
0
  6
CONTINUOUS
 62
     7
100
AcDbLine
 10
559.6384991374
 20
911.0344266111
 30
0.0
 11
559.6384991374
 21
883.0344294722
 31
0.0
  0
LINE
  5
18C
330
1F
100
AcDbEntity
  8
0
  6
CONTINUOUS
 62
     7
100
AcDbLine
 10
559.0904940333
 20
913.534424227
 30
0.0
 11
559.0904940333
 21
880.5344318564
 31
0.0
  0
LINE
  5
18D
330
1F
100
AcDbEntity
  8
0
  6
CONTINUOUS
 62
     7
100
AcDbLine
 10
559.6384991374
 20
911.0344266111
 30
0.0
 11
564.3359113898
 21
911.0344266111
 31
0.0
  0
LINE
  5
18E
330
1F
100
AcDbEntity
  8
0
  6
CONTINUOUS
 62
     7
100
AcDbLine
 10
559.6384991374
 20
883.0344294722
 30
0.0
 11
564.3359113898
 21
883.0344294722
 31
0.0
  0
LINE
  5
18F
330
1F
100
AcDbEntity
  8
0
  6
CONTINUOUS
 62
     7
100
AcDbLine
 10
559.0904940333
 20
880.5344318564
 30
0.0
 11
564.3359113898
 21
880.5344318564
 31
0.0
  0
LINE
  5
190
330
1F
100
AcDbEntity
  8
0
  6
CONTINUOUS
 62
     7
100
AcDbLine
 10
559.0904940333
 20
913.534424227
 30
0.0
 11
564.3359113898
 21
913.534424227
 31
0.0
  0
LINE
  5
191
330
1F
100
AcDbEntity
  8
0
  6
CONTINUOUS
 62
     7
100
AcDbLine
 10
559.6384991374
 20
679.0344258363
 30
0.0
 11
564.3359113898
 21
679.0344258363
 31
0.0
  0
LINE
  5
192
330
1F
100
AcDbEntity
  8
0
  6
CONTINUOUS
 62
     7
100
AcDbLine
 10
559.0904940333
 20
676.5344244952
 30
0.0
 11
559.0904940333
 21
709.534426179
 31
0.0
  0
LINE
  5
193
330
1F
100
AcDbEntity
  8
0
  6
CONTINUOUS
 62
     7
100
AcDbLine
 10
559.6384991374
 20
679.0344258363
 30
0.0
 11
559.6384991374
 21
707.0344267005
 31
0.0
  0
LINE
  5
194
330
1F
100
AcDbEntity
  8
0
  6
CONTINUOUS
 62
     7
100
AcDbLine
 10
559.6384991374
 20
707.0344267005
 30
0.0
 11
564.3359113898
 21
707.0344267005
 31
0.0
  0
LINE
  5
195
330
1F
100
AcDbEntity
  8
0
  6
CONTINUOUS
 62
     7
100
AcDbLine
 10
559.0904940333
 20
709.534426179
 30
0.0
 11
564.3359113898
 21
709.534426179
 31
0.0
  0
LINE
  5
196
330
1F
100
AcDbEntity
  8
0
  6
CONTINUOUS
 62
     7
100
AcDbLine
 10
559.0904940333
 20
676.5344244952
 30
0.0
 11
564.3359113898
 21
676.5344244952
 31
0.0
  0
LINE
  5
197
330
1F
100
AcDbEntity
  8
0
  6
CONTINUOUS
 62
     7
100
AcDbLine
 10
559.6384991374
 20
979.0344303066
 30
0.0
 11
564.3359113898
 21
979.0344303066
 31
0.0
  0
LINE
  5
198
330
1F
100
AcDbEntity
  8
0
  6
CONTINUOUS
 62
     7
100
AcDbLine
 10
559.6384991374
 20
979.0344303066
 30
0.0
 11
559.6384991374
 21
951.0344331677
 31
0.0
  0
LINE
  5
199
330
1F
100
AcDbEntity
  8
0
  6
CONTINUOUS
 62
     7
100
AcDbLine
 10
559.0904940333
 20
981.5344279224
 30
0.0
 11
559.0904940333
 21
948.5344206507
 31
0.0
  0
LINE
  5
19A
330
1F
100
AcDbEntity
  8
0
  6
CONTINUOUS
 62
     7
100
AcDbLine
 10
559.6384991374
 20
951.0344331677
 30
0.0
 11
564.3359113898
 21
951.0344331677
 31
0.0
  0
LINE
  5
19B
330
1F
100
AcDbEntity
  8
0
  6
CONTINUOUS
 62
     7
100
AcDbLine
 10
559.0904940333
 20
981.5344279224
 30
0.0
 11
564.3359113898
 21
981.5344279224
 31
0.0
  0
LINE
  5
19C
330
1F
100
AcDbEntity
  8
0
  6
CONTINUOUS
 62
     7
100
AcDbLine
 10
559.0904940333
 20
948.5344206507
 30
0.0
 11
564.3359113898
 21
948.5344206507
 31
0.0
  0
LINE
  5
19D
330
1F
100
AcDbEntity
  8
0
  6
CONTINUOUS
 62
     7
100
AcDbLine
 10
559.0904940333
 20
608.534424525
 30
0.0
 11
559.0904940333
 21
641.5344243462
 31
0.0
  0
LINE
  5
19E
330
1F
100
AcDbEntity
  8
0
  6
CONTINUOUS
 62
     7
100
AcDbLine
 10
559.6384991374
 20
611.0344295914
 30
0.0
 11
559.6384991374
 21
639.0344267304
 31
0.0
  0
LINE
  5
19F
330
1F
100
AcDbEntity
  8
0
  6
CONTINUOUS
 62
     7
100
AcDbLine
 10
559.6384991374
 20
611.0344295914
 30
0.0
 11
564.3359113898
 21
611.0344295914
 31
0.0
  0
LINE
  5
1A0
330
1F
100
AcDbEntity
  8
0
  6
CONTINUOUS
 62
     7
100
AcDbLine
 10
559.6384991374
 20
639.0344267304
 30
0.0
 11
564.3359113898
 21
639.0344267304
 31
0.0
  0
LINE
  5
1A1
330
1F
100
AcDbEntity
  8
0
  6
CONTINUOUS
 62
     7
100
AcDbLine
 10
559.0904940333
 20
641.5344243462
 30
0.0
 11
564.3359113898
 21
641.5344243462
 31
0.0
  0
LINE
  5
1A2
330
1F
100
AcDbEntity
  8
0
  6
CONTINUOUS
 62
     7
100
AcDbLine
 10
559.0904940333
 20
608.534424525
 30
0.0
 11
564.3359113898
 21
608.534424525
 31
0.0
  0
LINE
  5
1A3
330
1F
100
AcDbEntity
  8
0
  6
CONTINUOUS
 62
     7
100
AcDbLine
 10
559.6384991374
 20
775.0344266707
 30
0.0
 11
559.6384991374
 21
747.0344258065
 31
0.0
  0
LINE
  5
1A4
330
1F
100
AcDbEntity
  8
0
  6
CONTINUOUS
 62
     7
100
AcDbLine
 10
559.0904940333
 20
777.5344280119
 30
0.0
 11
559.0904940333
 21
744.534426328
 31
0.0
  0
LINE
  5
1A5
330
1F
100
AcDbEntity
  8
0
  6
CONTINUOUS
 62
     7
100
AcDbLine
 10
559.6384991374
 20
775.0344266707
 30
0.0
 11
564.3359113898
 21
775.0344266707
 31
0.0
  0
LINE
  5
1A6
330
1F
100
AcDbEntity
  8
0
  6
CONTINUOUS
 62
     7
100
AcDbLine
 10
559.6384991374
 20
747.0344258065
 30
0.0
 11
564.3359113898
 21
747.0344258065
 31
0.0
  0
LINE
  5
1A7
330
1F
100
AcDbEntity
  8
0
  6
CONTINUOUS
 62
     7
100
AcDbLine
 10
559.0904940333
 20
744.534426328
 30
0.0
 11
564.3359113898
 21
744.534426328
 31
0.0
  0
LINE
  5
1A8
330
1F
100
AcDbEntity
  8
0
  6
CONTINUOUS
 62
     7
100
AcDbLine
 10
559.0904940333
 20
777.5344280119
 30
0.0
 11
564.3359113898
 21
777.5344280119
 31
0.0
  0
LINE
  5
1A9
330
1F
100
AcDbEntity
  8
0
  6
CONTINUOUS
 62
     7
100
AcDbLine
 10
559.6384991374
 20
843.0344229157
 30
0.0
 11
559.6384991374
 21
815.0344257767
 31
0.0
  0
LINE
  5
1AA
330
1F
100
AcDbEntity
  8
0
  6
CONTINUOUS
 62
     7
100
AcDbLine
 10
559.0904940333
 20
845.534427982
 30
0.0
 11
559.0904940333
 21
812.5344281609
 31
0.0
  0
LINE
  5
1AB
330
1F
100
AcDbEntity
  8
0
  6
CONTINUOUS
 62
     7
100
AcDbLine
 10
559.6384991374
 20
843.0344229157
 30
0.0
 11
564.3359113898
 21
843.0344229157
 31
0.0
  0
LINE
  5
1AC
330
1F
100
AcDbEntity
  8
0
  6
CONTINUOUS
 62
     7
100
AcDbLine
 10
559.6384991374
 20
815.0344257767
 30
0.0
 11
564.3359113898
 21
815.0344257767
 31
0.0
  0
LINE
  5
1AD
330
1F
100
AcDbEntity
  8
0
  6
CONTINUOUS
 62
     7
100
AcDbLine
 10
559.0904940333
 20
845.534427982
 30
0.0
 11
564.3359113898
 21
845.534427982
 31
0.0
  0
LINE
  5
1AE
330
1F
100
AcDbEntity
  8
0
  6
CONTINUOUS
 62
     7
100
AcDbLine
 10
559.0904940333
 20
812.5344281609
 30
0.0
 11
564.3359113898
 21
812.5344281609
 31
0.0
  0
LINE
  5
1AF
330
1F
100
AcDbEntity
  8
0
  6
CONTINUOUS
 62
     7
100
AcDbLine
 10
559.0904940333
 20
540.5344282801
 30
0.0
 11
559.0904940333
 21
573.5344206507
 31
0.0
  0
LINE
  5
1B0
330
1F
100
AcDbEntity
  8
0
  6
CONTINUOUS
 62
     7
100
AcDbLine
 10
559.6384991374
 20
543.0344258959
 30
0.0
 11
559.6384991374
 21
571.0344230349
 31
0.0
  0
LINE
  5
1B1
330
1F
100
AcDbEntity
  8
0
  6
CONTINUOUS
 62
     7
100
AcDbLine
 10
559.6384991374
 20
571.0344230349
 30
0.0
 11
564.3359113898
 21
571.0344230349
 31
0.0
  0
LINE
  5
1B2
330
1F
100
AcDbEntity
  8
0
  6
CONTINUOUS
 62
     7
100
AcDbLine
 10
559.6384991374
 20
543.0344258959
 30
0.0
 11
564.3359113898
 21
543.0344258959
 31
0.0
  0
LINE
  5
1B3
330
1F
100
AcDbEntity
  8
0
  6
CONTINUOUS
 62
     7
100
AcDbLine
 10
559.0904940333
 20
540.5344282801
 30
0.0
 11
564.3359113898
 21
540.5344282801
 31
0.0
  0
LINE
  5
1B4
330
1F
100
AcDbEntity
  8
0
  6
CONTINUOUS
 62
     7
100
AcDbLine
 10
559.0904940333
 20
573.5344206507
 30
0.0
 11
564.3359113898
 21
573.5344206507
 31
0.0
  0
LINE
  5
1B5
330
1F
100
AcDbEntity
  8
0
  6
CONTINUOUS
 62
     7
100
AcDbLine
 10
559.8690051999
 20
503.0344193394
 30
0.0
 11
559.8690051999
 21
500.5344217236
 31
0.0
  0
LINE
  5
1B6
330
1F
100
AcDbEntity
  8
0
  6
CONTINUOUS
 62
     7
100
AcDbLine
 10
559.8740268912
 20
500.5344217236
 30
0.0
 11
559.8690051999
 21
500.5344217236
 31
0.0
  0
LINE
  5
1B7
330
1F
100
AcDbEntity
  8
0
  6
CONTINUOUS
 62
     7
100
AcDbLine
 10
559.8745335307
 20
482.534429949
 30
0.0
 11
559.8740268912
 21
500.5344217236
 31
0.0
  0
LINE
  5
1B8
330
1F
100
AcDbEntity
  8
0
  6
CONTINUOUS
 62
     7
100
AcDbLine
 10
559.8689753975
 20
482.534429949
 30
0.0
 11
559.8745335307
 21
482.534429949
 31
0.0
  0
LINE
  5
1B9
330
1F
100
AcDbEntity
  8
0
  6
CONTINUOUS
 62
     7
100
AcDbLine
 10
559.8689753975
 20
482.534429949
 30
0.0
 11
559.8689753975
 21
475.0344222004
 31
0.0
  0
LINE
  5
1BA
330
1F
100
AcDbEntity
  8
0
  6
CONTINUOUS
 62
     7
100
AcDbLine
 10
559.8690051999
 20
707.0344267005
 30
0.0
 11
559.8690051999
 21
704.5344253594
 31
0.0
  0
LINE
  5
1BB
330
1F
100
AcDbEntity
  8
0
  6
CONTINUOUS
 62
     7
100
AcDbLine
 10
559.8740268912
 20
704.5344253594
 30
0.0
 11
559.8690051999
 21
704.5344253594
 31
0.0
  0
LINE
  5
1BC
330
1F
100
AcDbEntity
  8
0
  6
CONTINUOUS
 62
     7
100
AcDbLine
 10
559.8742802109
 20
681.5344271774
 30
0.0
 11
559.8740268912
 21
704.5344253594
 31
0.0
  0
LINE
  5
1BD
330
1F
100
AcDbEntity
  8
0
  6
CONTINUOUS
 62
     7
100
AcDbLine
 10
559.8636705842
 20
681.5344271774
 30
0.0
 11
559.8689753975
 21
681.5344271774
 31
0.0
  0
LINE
  5
1BE
330
1F
100
AcDbEntity
  8
0
  6
CONTINUOUS
 62
     7
100
AcDbLine
 10
559.8689753975
 20
679.0344258363
 30
0.0
 11
559.8689753975
 21
681.5344271774
 31
0.0
  0
LINE
  5
1BF
330
1F
100
AcDbEntity
  8
0
  6
CONTINUOUS
 62
     7
100
AcDbLine
 10
559.8690051999
 20
571.0344230349
 30
0.0
 11
559.8690051999
 21
568.534425419
 31
0.0
  0
LINE
  5
1C0
330
1F
100
AcDbEntity
  8
0
  6
CONTINUOUS
 62
     7
100
AcDbLine
 10
559.8740268912
 20
568.534425419
 30
0.0
 11
559.8690051999
 21
568.534425419
 31
0.0
  0
LINE
  5
1C1
330
1F
100
AcDbEntity
  8
0
  6
CONTINUOUS
 62
     7
100
AcDbLine
 10
559.8742802109
 20
545.5344235117
 30
0.0
 11
559.8740268912
 21
568.534425419
 31
0.0
  0
LINE
  5
1C2
330
1F
100
AcDbEntity
  8
0
  6
CONTINUOUS
 62
     7
100
AcDbLine
 10
559.8636705842
 20
545.5344235117
 30
0.0
 11
559.8689753975
 21
545.5344235117
 31
0.0
  0
LINE
  5
1C3
330
1F
100
AcDbEntity
  8
0
  6
CONTINUOUS
 62
     7
100
AcDbLine
 10
559.8689753975
 20
543.0344258959
 30
0.0
 11
559.8689753975
 21
545.5344235117
 31
0.0
  0
LINE
  5
1C4
330
1F
100
AcDbEntity
  8
0
  6
CONTINUOUS
 62
     7
100
AcDbLine
 10
559.8690051999
 20
639.0344267304
 30
0.0
 11
559.8690051999
 21
636.5344291145
 31
0.0
  0
LINE
  5
1C5
330
1F
100
AcDbEntity
  8
0
  6
CONTINUOUS
 62
     7
100
AcDbLine
 10
559.8740268912
 20
636.5344291145
 30
0.0
 11
559.8690051999
 21
636.5344291145
 31
0.0
  0
LINE
  5
1C6
330
1F
100
AcDbEntity
  8
0
  6
CONTINUOUS
 62
     7
100
AcDbLine
 10
559.8742802109
 20
613.5344272072
 30
0.0
 11
559.8740268912
 21
636.5344291145
 31
0.0
  0
LINE
  5
1C7
330
1F
100
AcDbEntity
  8
0
  6
CONTINUOUS
 62
     7
100
AcDbLine
 10
559.8636705842
 20
613.5344272072
 30
0.0
 11
559.8689753975
 21
613.5344272072
 31
0.0
  0
LINE
  5
1C8
330
1F
100
AcDbEntity
  8
0
  6
CONTINUOUS
 62
     7
100
AcDbLine
 10
559.8689753975
 20
611.0344295914
 30
0.0
 11
559.8689753975
 21
613.5344272072
 31
0.0
  0
LINE
  5
1C9
330
1F
100
AcDbEntity
  8
0
  6
CONTINUOUS
 62
     7
100
AcDbLine
 10
559.8689753975
 20
775.0344266707
 30
0.0
 11
559.8689753975
 21
772.5344253296
 31
0.0
  0
LINE
  5
1CA
330
1F
100
AcDbEntity
  8
0
  6
CONTINUOUS
 62
     7
100
AcDbLine
 10
559.8742802109
 20
772.5344253296
 30
0.0
 11
559.8689753975
 21
772.5344253296
 31
0.0
  0
LINE
  5
1CB
330
1F
100
AcDbEntity
  8
0
  6
CONTINUOUS
 62
     7
100
AcDbLine
 10
559.8742802109
 20
772.5344253296
 30
0.0
 11
559.8740566935
 21
749.5344271476
 31
0.0
  0
LINE
  5
1CC
330
1F
100
AcDbEntity
  8
0
  6
CONTINUOUS
 62
     7
100
AcDbLine
 10
559.8639835085
 20
749.5344271476
 30
0.0
 11
559.8690051999
 21
749.5344271476
 31
0.0
  0
LINE
  5
1CD
330
1F
100
AcDbEntity
  8
0
  6
CONTINUOUS
 62
     7
100
AcDbLine
 10
559.8690051999
 20
747.0344258065
 30
0.0
 11
559.8690051999
 21
749.5344271476
 31
0.0
  0
LINE
  5
1CE
330
1F
100
AcDbEntity
  8
0
  6
CONTINUOUS
 62
     7
100
AcDbLine
 10
559.8689753975
 20
979.0344303066
 30
0.0
 11
559.8689753975
 21
971.534422558
 31
0.0
  0
LINE
  5
1CF
330
1F
100
AcDbEntity
  8
0
  6
CONTINUOUS
 62
     7
100
AcDbLine
 10
559.8689753975
 20
971.534422558
 30
0.0
 11
559.8745335307
 21
971.534422558
 31
0.0
  0
LINE
  5
1D0
330
1F
100
AcDbEntity
  8
0
  6
CONTINUOUS
 62
     7
100
AcDbLine
 10
559.8745335307
 20
971.534422558
 30
0.0
 11
559.8740566935
 21
953.5344307835
 31
0.0
  0
LINE
  5
1D1
330
1F
100
AcDbEntity
  8
0
  6
CONTINUOUS
 62
     7
100
AcDbLine
 10
559.8639835085
 20
953.5344307835
 30
0.0
 11
559.8690051999
 21
953.5344307835
 31
0.0
  0
LINE
  5
1D2
330
1F
100
AcDbEntity
  8
0
  6
CONTINUOUS
 62
     7
100
AcDbLine
 10
559.8690051999
 20
951.0344331677
 30
0.0
 11
559.8690051999
 21
953.5344307835
 31
0.0
  0
LINE
  5
1D3
330
1F
100
AcDbEntity
  8
0
  6
CONTINUOUS
 62
     7
100
AcDbLine
 10
559.8689753975
 20
843.0344229157
 30
0.0
 11
559.8689753975
 21
840.5344252998
 31
0.0
  0
LINE
  5
1D4
330
1F
100
AcDbEntity
  8
0
  6
CONTINUOUS
 62
     7
100
AcDbLine
 10
559.8742802109
 20
840.5344252998
 30
0.0
 11
559.8689753975
 21
840.5344252998
 31
0.0
  0
LINE
  5
1D5
330
1F
100
AcDbEntity
  8
0
  6
CONTINUOUS
 62
     7
100
AcDbLine
 10
559.8742802109
 20
840.5344252998
 30
0.0
 11
559.8740566935
 21
817.5344233925
 31
0.0
  0
LINE
  5
1D6
330
1F
100
AcDbEntity
  8
0
  6
CONTINUOUS
 62
     7
100
AcDbLine
 10
559.8639835085
 20
817.5344233925
 30
0.0
 11
559.8690051999
 21
817.5344233925
 31
0.0
  0
LINE
  5
1D7
330
1F
100
AcDbEntity
  8
0
  6
CONTINUOUS
 62
     7
100
AcDbLine
 10
559.8690051999
 20
815.0344257767
 30
0.0
 11
559.8690051999
 21
817.5344233925
 31
0.0
  0
LINE
  5
1D8
330
1F
100
AcDbEntity
  8
0
  6
CONTINUOUS
 62
     7
100
AcDbLine
 10
559.8689753975
 20
911.0344266111
 30
0.0
 11
559.8689753975
 21
908.5344289953
 31
0.0
  0
LINE
  5
1D9
330
1F
100
AcDbEntity
  8
0
  6
CONTINUOUS
 62
     7
100
AcDbLine
 10
559.8742802109
 20
908.5344289953
 30
0.0
 11
559.8689753975
 21
908.5344289953
 31
0.0
  0
LINE
  5
1DA
330
1F
100
AcDbEntity
  8
0
  6
CONTINUOUS
 62
     7
100
AcDbLine
 10
559.8742802109
 20
908.5344289953
 30
0.0
 11
559.8740566935
 21
885.534427088
 31
0.0
  0
LINE
  5
1DB
330
1F
100
AcDbEntity
  8
0
  6
CONTINUOUS
 62
     7
100
AcDbLine
 10
559.8639835085
 20
885.534427088
 30
0.0
 11
559.8690051999
 21
885.534427088
 31
0.0
  0
LINE
  5
1DC
330
1F
100
AcDbEntity
  8
0
  6
CONTINUOUS
 62
     7
100
AcDbLine
 10
559.8690051999
 20
883.0344294722
 30
0.0
 11
559.8690051999
 21
885.534427088
 31
0.0
  0
LINE
  5
1DD
330
1F
100
AcDbEntity
  8
0
  6
CONTINUOUS
 62
     7
100
AcDbLine
 10
557.0010234084
 20
981.5344279224
 30
0.0
 11
559.0904940333
 21
981.5344279224
 31
0.0
  0
LINE
  5
1DE
330
1F
100
AcDbEntity
  8
0
  6
CONTINUOUS
 62
     7
100
AcDbLine
 10
557.0010234084
 20
948.5344206507
 30
0.0
 11
559.0904940333
 21
948.5344206507
 31
0.0
  0
LINE
  5
1DF
330
1F
100
AcDbEntity
  8
0
  6
CONTINUOUS
 62
     7
100
AcDbLine
 10
557.0010234084
 20
845.534427982
 30
0.0
 11
559.0904940333
 21
845.534427982
 31
0.0
  0
LINE
  5
1E0
330
1F
100
AcDbEntity
  8
0
  6
CONTINUOUS
 62
     7
100
AcDbLine
 10
557.0010234084
 20
812.5344281609
 30
0.0
 11
559.0904940333
 21
812.5344281609
 31
0.0
  0
LINE
  5
1E1
330
1F
100
AcDbEntity
  8
0
  6
CONTINUOUS
 62
     7
100
AcDbLine
 10
557.0010234084
 20
744.534426328
 30
0.0
 11
559.0904940333
 21
744.534426328
 31
0.0
  0
LINE
  5
1E2
330
1F
100
AcDbEntity
  8
0
  6
CONTINUOUS
 62
     7
100
AcDbLine
 10
557.0010234084
 20
777.5344280119
 30
0.0
 11
559.0904940333
 21
777.5344280119
 31
0.0
  0
LINE
  5
1E3
330
1F
100
AcDbEntity
  8
0
  6
CONTINUOUS
 62
     7
100
AcDbLine
 10
557.0010234084
 20
880.5344318564
 30
0.0
 11
559.0904940333
 21
880.5344318564
 31
0.0
  0
LINE
  5
1E4
330
1F
100
AcDbEntity
  8
0
  6
CONTINUOUS
 62
     7
100
AcDbLine
 10
557.0010234084
 20
913.534424227
 30
0.0
 11
559.0904940333
 21
913.534424227
 31
0.0
  0
LINE
  5
1E5
330
1F
100
AcDbEntity
  8
0
  6
CONTINUOUS
 62
     7
100
AcDbLine
 10
557.0010234084
 20
641.5344243462
 30
0.0
 11
559.0904940333
 21
641.5344243462
 31
0.0
  0
LINE
  5
1E6
330
1F
100
AcDbEntity
  8
0
  6
CONTINUOUS
 62
     7
100
AcDbLine
 10
557.0010234084
 20
608.534424525
 30
0.0
 11
559.0904940333
 21
608.534424525
 31
0.0
  0
LINE
  5
1E7
330
1F
100
AcDbEntity
  8
0
  6
CONTINUOUS
 62
     7
100
AcDbLine
 10
557.0010234084
 20
540.5344282801
 30
0.0
 11
559.0904940333
 21
540.5344282801
 31
0.0
  0
LINE
  5
1E8
330
1F
100
AcDbEntity
  8
0
  6
CONTINUOUS
 62
     7
100
AcDbLine
 10
557.0010234084
 20
573.5344206507
 30
0.0
 11
559.0904940333
 21
573.5344206507
 31
0.0
  0
LINE
  5
1E9
330
1F
100
AcDbEntity
  8
0
  6
CONTINUOUS
 62
     7
100
AcDbLine
 10
557.0010234084
 20
472.5344245846
 30
0.0
 11
559.0904940333
 21
472.5344245846
 31
0.0
  0
LINE
  5
1EA
330
1F
100
AcDbEntity
  8
0
  6
CONTINUOUS
 62
     7
100
AcDbLine
 10
557.0010234084
 20
505.5344318564
 30
0.0
 11
559.0904940333
 21
505.5344318564
 31
0.0
  0
LINE
  5
1EB
330
1F
100
AcDbEntity
  8
0
  6
CONTINUOUS
 62
     7
100
AcDbLine
 10
557.0010234084
 20
709.534426179
 30
0.0
 11
559.0904940333
 21
709.534426179
 31
0.0
  0
LINE
  5
1EC
330
1F
100
AcDbEntity
  8
0
  6
CONTINUOUS
 62
     7
100
AcDbLine
 10
557.0010234084
 20
676.5344244952
 30
0.0
 11
559.0904940333
 21
676.5344244952
 31
0.0
  0
LINE
  5
1ED
330
1F
100
AcDbEntity
  8
0
  6
CONTINUOUS
 62
     7
100
AcDbLine
 10
563.7170512642
 20
613.5344272072
 30
0.0
 11
559.8742802109
 21
613.5344272072
 31
0.0
  0
LINE
  5
1EE
330
1F
100
AcDbEntity
  8
0
  6
CONTINUOUS
 62
     7
100
AcDbLine
 10
563.7202252116
 20
636.5344291145
 30
0.0
 11
559.8740566935
 21
636.5344291145
 31
0.0
  0
LINE
  5
1EF
330
1F
100
AcDbEntity
  8
0
  6
CONTINUOUS
 62
     7
100
AcDbLine
 10
563.7170512642
 20
545.5344235117
 30
0.0
 11
559.8742802109
 21
545.5344235117
 31
0.0
  0
LINE
  5
1F0
330
1F
100
AcDbEntity
  8
0
  6
CONTINUOUS
 62
     7
100
AcDbLine
 10
563.7202252116
 20
568.534425419
 30
0.0
 11
559.8740566935
 21
568.534425419
 31
0.0
  0
LINE
  5
1F1
330
1F
100
AcDbEntity
  8
0
  6
CONTINUOUS
 62
     7
100
AcDbLine
 10
563.7208063569
 20
840.5344252998
 30
0.0
 11
559.8742802109
 21
840.5344252998
 31
0.0
  0
LINE
  5
1F2
330
1F
100
AcDbEntity
  8
0
  6
CONTINUOUS
 62
     7
100
AcDbLine
 10
563.7163211073
 20
817.5344233925
 30
0.0
 11
559.8740566935
 21
817.5344233925
 31
0.0
  0
LINE
  5
1F3
330
1F
100
AcDbEntity
  8
0
  6
CONTINUOUS
 62
     7
100
AcDbLine
 10
563.7163211073
 20
749.5344271476
 30
0.0
 11
559.8740566935
 21
749.5344271476
 31
0.0
  0
LINE
  5
1F4
330
1F
100
AcDbEntity
  8
0
  6
CONTINUOUS
 62
     7
100
AcDbLine
 10
563.7208063569
 20
772.5344253296
 30
0.0
 11
559.8742802109
 21
772.5344253296
 31
0.0
  0
LINE
  5
1F5
330
1F
100
AcDbEntity
  8
0
  6
CONTINUOUS
 62
     7
100
AcDbLine
 10
563.7163211073
 20
885.534427088
 30
0.0
 11
559.8740566935
 21
885.534427088
 31
0.0
  0
LINE
  5
1F6
330
1F
100
AcDbEntity
  8
0
  6
CONTINUOUS
 62
     7
100
AcDbLine
 10
563.7208063569
 20
908.5344289953
 30
0.0
 11
559.8742802109
 21
908.5344289953
 31
0.0
  0
LINE
  5
1F7
330
1F
100
AcDbEntity
  8
0
  6
CONTINUOUS
 62
     7
100
AcDbLine
 10
563.7202252116
 20
704.5344253594
 30
0.0
 11
559.8740566935
 21
704.5344253594
 31
0.0
  0
LINE
  5
1F8
330
1F
100
AcDbEntity
  8
0
  6
CONTINUOUS
 62
     7
100
AcDbLine
 10
563.7170512642
 20
681.5344271774
 30
0.0
 11
559.8742802109
 21
681.5344271774
 31
0.0
  0
LINE
  5
1F9
330
1F
100
AcDbEntity
  8
0
  6
CONTINUOUS
 62
     7
100
AcDbLine
 10
563.9275003638
 20
482.534429949
 30
0.0
 11
559.8745335307
 21
482.534429949
 31
0.0
  0
LINE
  5
1FA
330
1F
100
AcDbEntity
  8
0
  6
CONTINUOUS
 62
     7
100
AcDbLine
 10
563.7202252116
 20
500.5344217236
 30
0.0
 11
559.8740566935
 21
500.5344217236
 31
0.0
  0
LINE
  5
1FB
330
1F
100
AcDbEntity
  8
0
  6
CONTINUOUS
 62
     7
100
AcDbLine
 10
563.9275003638
 20
971.534422558
 30
0.0
 11
559.8745335307
 21
971.534422558
 31
0.0
  0
LINE
  5
1FC
330
1F
100
AcDbEntity
  8
0
  6
CONTINUOUS
 62
     7
100
AcDbLine
 10
563.7163211073
 20
953.5344307835
 30
0.0
 11
559.8740566935
 21
953.5344307835
 31
0.0
  0
LINE
  5
1FD
330
1F
100
AcDbEntity
  8
0
  6
CONTINUOUS
 62
     7
100
AcDbLine
 10
317.4787984633
 20
450.0357962504
 30
0.0
 11
317.5419533669
 21
449.5671342094
 31
0.0
  0
LINE
  5
1FE
330
1F
100
AcDbEntity
  8
0
  6
CONTINUOUS
 62
     7
100
AcDbLine
 10
317.5439487244
 20
1004.5082976658
 30
0.0
 11
317.4799695506
 21
1004.0605675767
 31
0.0
  0
LINE
  5
1FF
330
1F
100
AcDbEntity
  8
0
  6
CONTINUOUS
 62
     7
100
AcDbLine
 10
317.6562038369
 20
448.374496998
 30
0.0
 11
317.9490070917
 21
447.8154130387
 31
0.0
  0
LWPOLYLINE
  5
200
330
1F
100
AcDbEntity
  8
0
  6
CONTINUOUS
 62
     7
100
AcDbPolyline
 90
        3
 70
   128
 43
0.0
 10
317.5386149471
 20
449.5957066225
 10
317.6107583071
 20
448.852697286
 10
317.6508202438
 20
448.4429369136
  0
ARC
  5
201
330
1F
100
AcDbEntity
  8
0
  6
CONTINUOUS
 62
     7
100
AcDbCircle
 10
319.5854922262
 20
448.9127243546
 30
0.0
 40
1.999969740494392
100
AcDbArc
 50
205.0249305689
 51
267.4763675803
  0
ARC
  5
202
330
1F
100
AcDbEntity
  8
0
  6
CONTINUOUS
 62
     7
100
AcDbCircle
 10
319.5854921189
 20
1005.1561280602
 30
0.0
 40
1.999969827783383
100
AcDbArc
 50
92.5236527711
 51
154.9718099283
  0
LINE
  5
203
330
1F
100
AcDbEntity
  8
0
  6
CONTINUOUS
 62
     7
100
AcDbLine
 10
317.9490635804
 20
1006.2535184508
 30
0.0
 11
317.6562220806
 21
1005.6944238872
 31
0.0
  0
LWPOLYLINE
  5
204
330
1F
100
AcDbEntity
  8
0
  6
CONTINUOUS
 62
     7
100
AcDbPolyline
 90
        3
 70
   128
 43
0.0
 10
317.6508237396
 20
1005.6259284254
 10
317.6107689865
 20
1005.216193302
 10
317.5386321275
 20
1004.4732032388
  0
LINE
  5
205
330
1F
100
AcDbEntity
  8
0
  6
CONTINUOUS
 62
     7
100
AcDbLine
 10
317.6562169838
 20
448.3744053447
 30
0.0
 11
317.9488898741
 21
447.8154781978
 31
0.0
  0
ARC
  5
206
330
1F
100
AcDbEntity
  8
0
  6
CONTINUOUS
 62
     7
100
AcDbCircle
 10
319.585547325
 20
448.9126565975
 30
0.0
 40
2.000014309146394
100
AcDbArc
 50
205.0255035654
 51
267.4747974988
  0
ARC
  5
207
330
1F
100
AcDbEntity
  8
0
  6
CONTINUOUS
 62
     7
100
AcDbCircle
 10
319.5855472996
 20
1005.1561958919
 30
0.0
 40
2.000014325546728
100
AcDbArc
 50
92.5252068522
 51
154.9737903203
  0
LWPOLYLINE
  5
208
330
1F
100
AcDbEntity
  8
0
  6
CONTINUOUS
 62
     7
100
AcDbPolyline
 90
        3
 70
   128
 43
0.0
 10
317.6508252117
 20
1005.6260025592
 10
317.6107718666
 20
1005.2162787664
 10
317.538625941
 20
1004.4731913113
  0
LINE
  5
209
330
1F
100
AcDbEntity
  8
0
  6
CONTINUOUS
 62
     7
100
AcDbLine
 10
317.9489021132
 20
1006.2533914268
 30
0.0
 11
317.6562209353
 21
1005.6944619728
 31
0.0
  0
LINE
  5
20A
330
1F
100
AcDbEntity
  8
0
  6
CONTINUOUS
 62
     7
100
AcDbLine
 10
317.5419531983
 20
1004.5017165531
 30
0.0
 11
317.5244881569
 21
1004.3721114496
 31
0.0
  0
LINE
  5
20B
330
1F
100
AcDbEntity
  8
0
  6
CONTINUOUS
 62
     7
100
AcDbLine
 10
319.4708463005
 20
446.9844923432
 30
0.0
 11
319.4839716074
 21
446.8925081731
 31
0.0
  0
LWPOLYLINE
  5
20C
330
1F
100
AcDbEntity
  8
0
  6
CONTINUOUS
 62
     7
100
AcDbPolyline
 90
        3
 70
   128
 43
0.0
 10
319.3331627968
 20
451.3318699334
 10
319.2855583779
 20
449.6798863612
 10
319.3331627964
 20
448.3574567397
  0
LWPOLYLINE
  5
20D
330
1F
100
AcDbEntity
  8
0
  6
CONTINUOUS
 62
     7
100
AcDbPolyline
 90
        3
 70
   128
 43
0.0
 10
319.4839716058
 20
456.3794887534
 10
319.4302332793
 20
453.7428274835
 10
319.3331627968
 20
451.3318699334
  0
LINE
  5
20E
330
1F
100
AcDbEntity
  8
0
  6
CONTINUOUS
 62
     7
100
AcDbLine
 10
319.483971607
 20
456.3794887755
 30
0.0
 11
335.3753821818
 21
455.5466552154
 31
0.0
  0
LINE
  5
20F
330
1F
100
AcDbEntity
  8
0
  6
CONTINUOUS
 62
     7
100
AcDbLine
 10
319.4839716074
 20
446.8925081731
 30
0.0
 11
335.3753821818
 21
446.0596746352
 31
0.0
  0
LWPOLYLINE
  5
210
330
1F
100
AcDbEntity
  8
0
  6
CONTINUOUS
 62
     7
100
AcDbPolyline
 90
        5
 70
   128
 43
0.0
 10
335.3753821818
 20
446.0596746352
 10
335.3694454597
 20
446.7816318013
 10
335.3647727632
 20
448.8373286257
 10
335.3694454597
 20
451.9144940196
 10
335.3753821818
 20
455.5466552154
  0
LINE
  5
211
330
1F
100
AcDbEntity
  8
0
  6
CONTINUOUS
 62
     7
100
AcDbLine
 10
319.4708463026
 20
1007.0843601786
 30
0.0
 11
319.4839716074
 21
1007.1763443339
 31
0.0
  0
LINE
  5
212
330
1F
100
AcDbEntity
  8
0
  6
CONTINUOUS
 62
     7
100
AcDbLine
 10
319.4839716074
 20
1007.1763443339
 30
0.0
 11
335.3753821818
 21
1008.0091778718
 31
0.0
  0
LINE
  5
213
330
1F
100
AcDbEntity
  8
0
  6
CONTINUOUS
 62
     7
100
AcDbLine
 10
319.483971607
 20
997.6893637315
 30
0.0
 11
335.3753821818
 21
998.5221972916
 31
0.0
  0
LWPOLYLINE
  5
214
330
1F
100
AcDbEntity
  8
0
  6
CONTINUOUS
 62
     7
100
AcDbPolyline
 90
        3
 70
   128
 43
0.0
 10
319.4839716058
 20
997.6893637537
 10
319.4302332793
 20
1000.3260250236
 10
319.3331627968
 20
1002.7369825736
  0
LWPOLYLINE
  5
215
330
1F
100
AcDbEntity
  8
0
  6
CONTINUOUS
 62
     7
100
AcDbPolyline
 90
        3
 70
   128
 43
0.0
 10
319.3331627968
 20
1002.7369825736
 10
319.2855583779
 20
1004.3889661459
 10
319.3331627964
 20
1005.7113957673
  0
LINE
  5
216
330
1F
100
AcDbEntity
  8
0
  6
CONTINUOUS
 62
     7
100
AcDbLine
 10
335.3753821818
 20
1008.0091778718
 30
0.0
 11
335.3753821818
 21
998.5221972916
 31
0.0
  0
LINE
  5
217
330
1F
100
AcDbEntity
  8
0
  6
CONTINUOUS
 62
     7
100
AcDbLine
 10
319.483971607
 20
997.6893637315
 30
0.0
 11
319.483971607
 21
456.3794887755
 31
0.0
  0
LINE
  5
218
330
1F
100
AcDbEntity
  8
0
  6
CONTINUOUS
 62
     7
100
AcDbLine
 10
335.3753821818
 20
998.5221972916
 30
0.0
 11
335.3753821818
 21
455.5466552154
 31
0.0
  0
LWPOLYLINE
  5
219
330
1F
100
AcDbEntity
  8
0
  6
CONTINUOUS
 62
     7
100
AcDbPolyline
 90
        5
 70
   128
 43
0.0
 10
319.4839716088
 20
456.3794866846
 10
318.7951487077
 20
456.3794876437
 10
318.2056174098
 20
456.3794886029
 10
317.7891469532
 20
456.3794895621
 10
317.5978511246
 20
456.3794905212
  0
LINE
  5
21A
330
1F
100
AcDbEntity
  8
0
  6
CONTINUOUS
 62
     7
100
AcDbLine
 10
317.5978511296
 20
456.3794887532
 30
0.0
 11
317.5978511296
 21
997.6893637538
 31
0.0
  0
LWPOLYLINE
  5
21B
330
1F
100
AcDbEntity
  8
0
  6
CONTINUOUS
 62
     7
100
AcDbPolyline
 90
        5
 70
   128
 43
0.0
 10
319.4839716088
 20
997.6893658225
 10
318.7951487077
 20
997.6893648633
 10
318.2056174098
 20
997.6893639041
 10
317.7891469532
 20
997.689362945
 10
317.5978511246
 20
997.6893619858
  0
ARC
  5
21C
330
1F
100
AcDbEntity
  8
0
  6
CONTINUOUS
 62
     7
100
AcDbCircle
 10
319.1928043554
 20
453.224118503
 30
0.0
 40
1.897367375651788
100
AcDbArc
 50
205.9414748497
 51
274.2426938777
  0
LWPOLYLINE
  5
21D
330
1F
100
AcDbEntity
  8
0
  6
CONTINUOUS
 62
     7
100
AcDbPolyline
 90
        3
 70
   128
 43
0.0
 10
317.5978511246
 20
456.3794887532
 10
317.5696191741
 20
454.3090399988
 10
317.4865281897
 20
452.3941210642
  0
LWPOLYLINE
  5
21E
330
1F
100
AcDbEntity
  8
0
  6
CONTINUOUS
 62
     7
100
AcDbPolyline
 90
        3
 70
   128
 43
0.0
 10
317.5978511246
 20
997.6893637538
 10
317.5696191741
 20
999.7598125083
 10
317.4865281897
 20
1001.6747314428
  0
ARC
  5
21F
330
1F
100
AcDbEntity
  8
0
  6
CONTINUOUS
 62
     7
100
AcDbCircle
 10
319.1929334122
 20
1000.8444413037
 30
0.0
 40
1.897688496766283
100
AcDbArc
 50
85.762093936
 51
154.0534139729
  0
LINE
  5
220
330
1F
100
AcDbEntity
  8
0
  6
CONTINUOUS
 62
     7
100
AcDbLine
 10
317.5647649378
 20
449.5998433332
 30
0.0
 11
317.4865280446
 21
449.8542101366
 31
0.0
  0
LINE
  5
221
330
1F
100
AcDbEntity
  8
0
  6
CONTINUOUS
 62
     7
100
AcDbLine
 10
317.4771801457
 20
450.0738139543
 30
0.0
 11
317.4865281896
 21
449.8542086218
 31
0.0
  0
LINE
  5
222
330
1F
100
AcDbEntity
  8
0
  6
CONTINUOUS
 62
     7
100
AcDbLine
 10
317.4782337532
 20
1004.019790022
 30
0.0
 11
317.4865281896
 21
1004.2146438852
 31
0.0
  0
LINE
  5
223
330
1F
100
AcDbEntity
  8
0
  6
CONTINUOUS
 62
     7
100
AcDbLine
 10
317.5663539305
 20
1004.4740755956
 30
0.0
 11
317.4866027202
 21
1004.2146351726
 31
0.0
  0
LINE
  5
224
330
1F
100
AcDbEntity
  8
0
  6
CONTINUOUS
 62
     7
100
AcDbLine
 10
317.1123290405
 20
456.280327814
 30
0.0
 11
317.4865281897
 21
452.3941210642
 31
0.0
  0
LINE
  5
225
330
1F
100
AcDbEntity
  8
0
  6
CONTINUOUS
 62
     7
100
AcDbLine
 10
317.1123290405
 20
473.2474494602
 30
0.0
 11
317.1123290405
 21
456.280327814
 31
0.0
  0
LINE
  5
226
330
1F
100
AcDbEntity
  8
0
  6
CONTINUOUS
 62
     7
100
AcDbLine
 10
317.1123942371
 20
473.2474483999
 30
0.0
 11
316.1857049681
 21
473.2818470563
 31
0.0
  0
LINE
  5
227
330
1F
100
AcDbEntity
  8
0
  6
CONTINUOUS
 62
     7
100
AcDbLine
 10
316.1856703308
 20
473.2879195644
 30
0.0
 11
316.1856703308
 21
980.7809329426
 31
0.0
  0
LINE
  5
228
330
1F
100
AcDbEntity
  8
0
  6
CONTINUOUS
 62
     7
100
AcDbLine
 10
317.1123290405
 20
980.8214030468
 30
0.0
 11
316.1856682605
 21
980.7870058987
 31
0.0
  0
LINE
  5
229
330
1F
100
AcDbEntity
  8
0
  6
CONTINUOUS
 62
     7
100
AcDbLine
 10
317.1123290405
 20
980.8214030468
 30
0.0
 11
317.1123290405
 21
997.788524693
 31
0.0
  0
LINE
  5
22A
330
1F
100
AcDbEntity
  8
0
  6
CONTINUOUS
 62
     7
100
AcDbLine
 10
317.1123290405
 20
997.7885246931
 30
0.0
 11
317.4865281897
 21
1001.6747314429
 31
0.0
  0
LWPOLYLINE
  5
22B
330
1F
100
AcDbEntity
  8
0
  6
CONTINUOUS
 62
     7
100
AcDbPolyline
 90
        7
 70
   128
 43
0.0
 10
317.1123290405
 20
1000.3284371348
 10
317.1123623035
 20
1000.1695684895
 10
317.1123869845
 20
999.9711214615
 10
317.1123990863
 20
999.693455652
 10
317.112387658
 20
999.3364280997
 10
317.1123629022
 20
998.8998697843
 10
317.1123290405
 20
997.788524693
  0
LINE
  5
22C
330
1F
100
AcDbEntity
  8
0
  6
CONTINUOUS
 62
     7
100
AcDbLine
 10
317.4865281896
 20
1004.2146438852
 30
0.0
 11
317.1123290405
 21
1000.3284371349
 31
0.0
  0
LINE
  5
22D
330
1F
100
AcDbEntity
  8
0
  6
CONTINUOUS
 62
     7
100
AcDbLine
 10
317.4865281896
 20
449.8542086218
 30
0.0
 11
317.1123290405
 21
453.7404153722
 31
0.0
  0
LINE
  5
22E
330
1F
100
AcDbEntity
  8
0
  6
CONTINUOUS
 62
     7
100
AcDbLine
 10
317.1123290405
 20
453.7404153722
 30
0.0
 11
317.1123290405
 21
456.280327814
 31
0.0
  0
LINE
  5
22F
330
1F
100
AcDbEntity
  8
0
  6
CONTINUOUS
 62
     7
100
AcDbLine
 10
317.5884952778
 20
448.7952399216
 30
0.0
 11
317.5978511246
 21
448.6980757375
 31
0.0
  0
LINE
  5
230
330
1F
100
AcDbEntity
  8
0
  6
CONTINUOUS
 62
     7
100
AcDbLine
 10
317.5884964953
 20
1005.2736252298
 30
0.0
 11
317.5978511246
 21
1005.3707767695
 31
0.0
  0
ARC
  5
231
330
1F
100
AcDbEntity
  8
0
  6
CONTINUOUS
 62
     7
100
AcDbCircle
 10
316.6843753788
 20
473.2865707266
 30
0.0
 40
0.4987068714833672
100
AcDbArc
 50
179.8450336058
 51
266.8763611805
  0
LINE
  5
232
330
1F
100
AcDbEntity
  8
0
  6
CONTINUOUS
 62
     7
100
AcDbLine
 10
317.1123290405
 20
472.7647525185
 30
0.0
 11
316.6572004524
 21
472.7886047971
 31
0.0
  0
ARC
  5
233
330
1F
100
AcDbEntity
  8
0
  6
CONTINUOUS
 62
     7
100
AcDbCircle
 10
316.6843753788
 20
980.7822817804
 30
0.0
 40
0.4987068714833074
100
AcDbArc
 50
93.1236388195
 51
180.1549663942
  0
LINE
  5
234
330
1F
100
AcDbEntity
  8
0
  6
CONTINUOUS
 62
     7
100
AcDbLine
 10
317.1123290405
 20
981.3040999885
 30
0.0
 11
316.6572004524
 21
981.2802477099
 31
0.0
  0
LINE
  5
235
330
1F
100
AcDbEntity
  8
0
  6
CONTINUOUS
 62
     7
100
AcDbLine
 10
314.2995495835
 20
980.6573734353
 30
0.0
 11
314.2995495835
 21
473.4114790717
 31
0.0
  0
ARC
  5
236
330
1F
100
AcDbEntity
  8
0
  6
CONTINUOUS
 62
     7
100
AcDbCircle
 10
307.774838533
 20
1089.376342249
 30
0.0
 40
108.9145813670806
100
AcDbArc
 50
273.4344563374
 51
274.4290233381
  0
ARC
  5
237
330
1F
100
AcDbEntity
  8
0
  6
CONTINUOUS
 62
     7
100
AcDbCircle
 10
307.7749719253
 20
364.6944510823
 30
0.0
 40
108.9126360375112
100
AcDbArc
 50
85.5709677795
 51
86.565552545
  0
LWPOLYLINE
  5
238
330
1F
100
AcDbEntity
  8
0
  6
CONTINUOUS
 62
     7
100
AcDbPolyline
 90
        3
 70
   128
 43
0.0
 10
314.2995495962
 20
473.4114790717
 10
315.0544496389
 20
473.020202726
 10
315.7695733175
 20
472.8351233681
  0
LINE
  5
239
330
1F
100
AcDbEntity
  8
0
  6
CONTINUOUS
 62
     7
100
AcDbLine
 10
315.7695732473
 20
472.8351233678
 30
0.0
 11
316.6572004524
 21
472.7886047971
 31
0.0
  0
LWPOLYLINE
  5
23A
330
1F
100
AcDbEntity
  8
0
  6
CONTINUOUS
 62
     7
100
AcDbPolyline
 90
        3
 70
   128
 43
0.0
 10
314.2995495962
 20
980.6573734353
 10
315.0544496389
 20
981.048649781
 10
315.7695733175
 20
981.2337291389
  0
LINE
  5
23B
330
1F
100
AcDbEntity
  8
0
  6
CONTINUOUS
 62
     7
100
AcDbLine
 10
315.7695732473
 20
981.2337291393
 30
0.0
 11
316.6572004524
 21
981.2802477099
 31
0.0
  0
LINE
  5
23C
330
1F
100
AcDbEntity
  8
0
  6
CONTINUOUS
 62
     7
100
AcDbLine
 10
317.1123315969
 20
466.7722899433
 30
0.0
 11
294.8733249626
 21
467.9377868945
 31
0.0
  0
LINE
  5
23D
330
1F
100
AcDbEntity
  8
0
  6
CONTINUOUS
 62
     7
100
AcDbLine
 10
294.8733249626
 20
467.9377868945
 30
0.0
 11
293.3753821818
 21
468.0162907491
 31
0.0
  0
LWPOLYLINE
  5
23E
330
1F
100
AcDbEntity
  8
0
  6
CONTINUOUS
 62
     7
100
AcDbPolyline
 90
        7
 70
   128
 43
0.0
 10
293.3751697569
 20
473.4633976817
 10
293.3748020798
 20
472.3423883773
 10
293.3747127547
 20
471.3005884305
 10
293.3754473888
 20
469.5861752941
 10
293.3749457804
 20
468.4391412836
 10
293.3751197877
 20
468.1219520102
 10
293.3753821818
 20
468.0162907491
  0
LINE
  5
23F
330
1F
100
AcDbEntity
  8
0
  6
CONTINUOUS
 62
     7
100
AcDbLine
 10
294.4982102249
 20
473.4499065998
 30
0.0
 11
293.3751697569
 21
473.4633976817
 31
0.0
  0
LINE
  5
240
330
1F
100
AcDbEntity
  8
0
  6
CONTINUOUS
 62
     7
100
AcDbLine
 10
294.8732954366
 20
473.4302493639
 30
0.0
 11
294.4982102249
 21
473.4499065998
 31
0.0
  0
LINE
  5
241
330
1F
100
AcDbEntity
  8
0
  6
CONTINUOUS
 62
     7
100
AcDbLine
 10
294.8733188217
 20
473.4302495105
 30
0.0
 11
317.1123368293
 21
472.2638126538
 31
0.0
  0
LINE
  5
242
330
1F
100
AcDbEntity
  8
0
  6
CONTINUOUS
 62
     7
100
AcDbLine
 10
293.3751818408
 20
980.6054616936
 30
0.0
 11
293.3751819242
 21
473.4633997273
 31
0.0
  0
LINE
  5
243
330
1F
100
AcDbEntity
  8
0
  6
CONTINUOUS
 62
     7
100
AcDbLine
 10
294.8733330654
 20
980.638603743
 30
0.0
 11
293.3751818408
 21
980.6054616936
 31
0.0
  0
LINE
  5
244
330
1F
100
AcDbEntity
  8
0
  6
CONTINUOUS
 62
     7
100
AcDbLine
 10
294.8733096803
 20
980.6386038896
 30
0.0
 11
317.1123134755
 21
981.8050400988
 31
0.0
  0
LINE
  5
245
330
1F
100
AcDbEntity
  8
0
  6
CONTINUOUS
 62
     7
100
AcDbLine
 10
293.3753821818
 20
980.6054616936
 30
0.0
 11
293.3753821818
 21
986.0525617579
 31
0.0
  0
LINE
  5
246
330
1F
100
AcDbEntity
  8
0
  6
CONTINUOUS
 62
     7
100
AcDbLine
 10
294.8733172874
 20
986.1312120203
 30
0.0
 11
293.3753821818
 21
986.0525617579
 31
0.0
  0
LINE
  5
247
330
1F
100
AcDbEntity
  8
0
  6
CONTINUOUS
 62
     7
100
AcDbLine
 10
317.1123239308
 20
987.2967087776
 30
0.0
 11
294.8733172874
 21
986.1312120203
 31
0.0
  0
ARC
  5
248
330
1F
100
AcDbEntity
  8
0
  6
CONTINUOUS
 62
     7
100
AcDbCircle
 10
318.6737431873
 20
441.301666229
 30
0.0
 40
23.96914798316073
100
AcDbArc
 50
95.2324465277
 51
96.3652916628
  0
LINE
  5
249
330
1F
100
AcDbEntity
  8
0
  6
CONTINUOUS
 62
     7
100
AcDbLine
 10
316.4878399751
 20
465.1709327067
 30
0.0
 11
317.1123290405
 21
458.6853657909
 31
0.0
  0
LINE
  5
24A
330
1F
100
AcDbEntity
  8
0
  6
CONTINUOUS
 62
     7
100
AcDbLine
 10
316.0163612184
 20
465.123014783
 30
0.0
 11
317.1124202388
 21
453.7404241625
 31
0.0
  0
LWPOLYLINE
  5
24B
330
1F
100
AcDbEntity
  8
0
  6
CONTINUOUS
 62
     7
100
AcDbPolyline
 90
        3
 70
   128
 43
0.0
 10
316.4878399751
 20
988.8979198003
 10
316.2060482471
 20
987.9739772227
 10
315.61845076
 20
987.2182525877
  0
LINE
  5
24C
330
1F
100
AcDbEntity
  8
0
  6
CONTINUOUS
 62
     7
100
AcDbLine
 10
316.4878399751
 20
988.8979198003
 30
0.0
 11
317.1123290405
 21
995.3834867161
 31
0.0
  0
ARC
  5
24D
330
1F
100
AcDbEntity
  8
0
  6
CONTINUOUS
 62
     7
100
AcDbCircle
 10
318.6737431871
 20
1012.7671862764
 30
0.0
 40
23.96914798153223
100
AcDbArc
 50
263.6347083372
 51
264.7675534724
  0
LINE
  5
24E
330
1F
100
AcDbEntity
  8
0
  6
CONTINUOUS
 62
     7
100
AcDbLine
 10
316.0163098531
 20
988.9458426662
 30
0.0
 11
317.1123290405
 21
1000.3284371348
 31
0.0
  0
LWPOLYLINE
  5
24F
330
1F
100
AcDbEntity
  8
0
  6
CONTINUOUS
 62
     7
100
AcDbPolyline
 90
        3
 70
   128
 43
0.0
 10
316.4878399751
 20
465.1709327067
 10
316.2060482471
 20
466.0948752843
 10
315.61845076
 20
466.8505999193
  0
ARC
  5
250
330
1F
100
AcDbEntity
  8
0
  6
CONTINUOUS
 62
     7
100
AcDbCircle
 10
314.0255174573
 20
464.9313183254
 30
0.0
 40
2.00000000000007
100
AcDbArc
 50
5.5000002981
 51
86.9995901374
  0
ARC
  5
251
330
1F
100
AcDbEntity
  8
0
  6
CONTINUOUS
 62
     7
100
AcDbCircle
 10
314.0255174573
 20
989.1375341816
 30
0.0
 40
2.000000000000061
100
AcDbArc
 50
273.0004098626
 51
354.4999997019
  0
LWPOLYLINE
  5
252
330
1F
100
AcDbEntity
  8
0
  6
CONTINUOUS
 62
     8
100
AcDbPolyline
 90
        3
 70
   128
 43
0.0
 10
319.3331627964
 20
448.3574567397
 10
319.4302271135
 20
447.2691578569
 10
319.4708463005
 20
446.9844923432
  0
LWPOLYLINE
  5
253
330
1F
100
AcDbEntity
  8
0
  6
CONTINUOUS
 62
     8
100
AcDbPolyline
 90
        3
 70
   128
 43
0.0
 10
319.3331627964
 20
1005.7113957673
 10
319.4302271135
 20
1006.7996946501
 10
319.4708463026
 20
1007.0843601786
  0
ARC
  5
254
330
1F
100
AcDbEntity
  8
0
  6
CONTINUOUS
 62
     8
100
AcDbCircle
 10
319.2294563735
 20
450.0896859562
 30
0.0
 40
1.735264640127068
100
AcDbArc
 50
196.3967466362
 51
273.4264686484
  0
LWPOLYLINE
  5
255
330
1F
100
AcDbEntity
  8
0
  6
CONTINUOUS
 62
     8
100
AcDbPolyline
 90
        3
 70
   128
 43
0.0
 10
317.4865281897
 20
452.3941210642
 10
317.4379657098
 20
450.995044037
 10
317.4771801457
 20
450.0738139543
  0
LWPOLYLINE
  5
256
330
1F
100
AcDbEntity
  8
0
  6
CONTINUOUS
 62
     8
100
AcDbPolyline
 90
        3
 70
   128
 43
0.0
 10
317.4865281897
 20
1001.6747314428
 10
317.4379657098
 20
1003.07380847
 10
317.4782337532
 20
1004.019790022
  0
ARC
  5
257
330
1F
100
AcDbEntity
  8
0
  6
CONTINUOUS
 62
     8
100
AcDbCircle
 10
319.2288607598
 20
1003.9800542961
 30
0.0
 40
1.734354635475944
100
AcDbArc
 50
86.5518497809
 51
163.450448908
  0
LINE
  5
258
330
1F
100
AcDbEntity
  8
0
  6
CONTINUOUS
 62
     7
100
AcDbLine
 10
1012.8181714978
 20
1175.0724331461
 30
0.0
 11
1012.3494107689
 21
1175.1355763509
 31
0.0
  0
LINE
  5
259
330
1F
100
AcDbEntity
  8
0
  6
CONTINUOUS
 62
     7
100
AcDbLine
 10
567.6526267495
 20
1175.1355763509
 30
0.0
 11
567.1838660206
 21
1175.0724326804
 31
0.0
  0
LINE
  5
25A
330
1F
100
AcDbEntity
  8
0
  6
CONTINUOUS
 62
     7
100
AcDbLine
 10
565.9907300438
 20
1174.9580504357
 30
0.0
 11
565.4315937724
 21
1174.6650554224
 31
0.0
  0
LWPOLYLINE
  5
25B
330
1F
100
AcDbEntity
  8
0
  6
CONTINUOUS
 62
     7
100
AcDbPolyline
 90
        3
 70
   128
 43
0.0
 10
567.2119845118
 20
1175.0756438806
 10
566.4690871205
 20
1175.0035371616
 10
566.0594541993
 20
1174.963513574
  0
ARC
  5
25C
330
1F
100
AcDbEntity
  8
0
  6
CONTINUOUS
 62
     7
100
AcDbCircle
 10
566.5293556568
 20
1173.0288375099
 30
0.0
 40
2.000001028781746
100
AcDbArc
 50
115.0431814689
 51
177.4756671143
  0
ARC
  5
25D
330
1F
100
AcDbEntity
  8
0
  6
CONTINUOUS
 62
     7
100
AcDbCircle
 10
1013.4726818616
 20
1173.0288375099
 30
0.0
 40
2.00000102878222
100
AcDbArc
 50
2.5243328857
 51
64.9568185311
  0
LWPOLYLINE
  5
25E
330
1F
100
AcDbEntity
  8
0
  6
CONTINUOUS
 62
     7
100
AcDbPolyline
 90
        3
 70
   128
 43
0.0
 10
1013.9425833191
 20
1174.963513574
 10
1013.5329503979
 20
1175.0035371616
 10
1012.7900530066
 20
1175.0756438806
  0
LINE
  5
25F
330
1F
100
AcDbEntity
  8
0
  6
CONTINUOUS
 62
     7
100
AcDbLine
 10
1014.570443746
 20
1174.6650554224
 30
0.0
 11
1014.0113074746
 21
1174.9580504357
 31
0.0
  0
LWPOLYLINE
  5
260
330
1F
100
AcDbEntity
  8
0
  6
CONTINUOUS
 62
     7
100
AcDbPolyline
 90
        3
 70
   128
 43
0.0
 10
1011.0535759892
 20
1173.2811911016
 10
1008.6427171197
 20
1173.1841268003
 10
1006.0059566464
 20
1173.13038227
  0
LWPOLYLINE
  5
261
330
1F
100
AcDbEntity
  8
0
  6
CONTINUOUS
 62
     7
100
AcDbPolyline
 90
        3
 70
   128
 43
0.0
 10
1014.0279818739
 20
1173.2811911016
 10
1012.7053250041
 20
1173.328795655
 10
1011.0535759892
 20
1173.2811911016
  0
LINE
  5
262
330
1F
100
AcDbEntity
  8
0
  6
CONTINUOUS
 62
     7
100
AcDbLine
 10
1015.4929299321
 20
1173.13038227
 30
0.0
 11
1015.4009301629
 21
1173.1435092616
 31
0.0
  0
LINE
  5
263
330
1F
100
AcDbEntity
  8
0
  6
CONTINUOUS
 62
     7
100
AcDbLine
 10
1015.4929299321
 20
1173.13038227
 30
0.0
 11
1016.3257707324
 21
1157.2389716267
 31
0.0
  0
LINE
  5
264
330
1F
100
AcDbEntity
  8
0
  6
CONTINUOUS
 62
     7
100
AcDbLine
 10
1006.0059566464
 20
1173.13038227
 30
0.0
 11
1006.8387825455
 21
1157.2389716267
 31
0.0
  0
LWPOLYLINE
  5
265
330
1F
100
AcDbEntity
  8
0
  6
CONTINUOUS
 62
     7
100
AcDbPolyline
 90
        5
 70
   128
 43
0.0
 10
1006.8387825455
 20
1157.2389716267
 10
1010.4709554877
 20
1157.2449088081
 10
1013.54811978
 20
1157.2495812535
 10
1015.6038094725
 20
1157.2449088081
 10
1016.3257707324
 20
1157.2389716267
  0
LINE
  5
266
330
1F
100
AcDbEntity
  8
0
  6
CONTINUOUS
 62
     7
100
AcDbLine
 10
564.6011073556
 20
1173.1435092616
 30
0.0
 11
564.5091075863
 21
1173.13038227
 31
0.0
  0
LWPOLYLINE
  5
267
330
1F
100
AcDbEntity
  8
0
  6
CONTINUOUS
 62
     7
100
AcDbPolyline
 90
        3
 70
   128
 43
0.0
 10
568.9484615292
 20
1173.2811911016
 10
567.2967125144
 20
1173.328795655
 10
565.9740556445
 20
1173.2811911016
  0
LWPOLYLINE
  5
268
330
1F
100
AcDbEntity
  8
0
  6
CONTINUOUS
 62
     7
100
AcDbPolyline
 90
        3
 70
   128
 43
0.0
 10
573.996080872
 20
1173.13038227
 10
571.3603038754
 20
1173.1841044485
 10
568.9484615292
 20
1173.2811911016
  0
LINE
  5
269
330
1F
100
AcDbEntity
  8
0
  6
CONTINUOUS
 62
     7
100
AcDbLine
 10
573.996080872
 20
1173.13038227
 30
0.0
 11
573.1632549729
 21
1157.2389716267
 31
0.0
  0
LINE
  5
26A
330
1F
100
AcDbEntity
  8
0
  6
CONTINUOUS
 62
     7
100
AcDbLine
 10
564.5091075863
 20
1173.13038227
 30
0.0
 11
563.6762667861
 21
1157.2389716267
 31
0.0
  0
LINE
  5
26B
330
1F
100
AcDbEntity
  8
0
  6
CONTINUOUS
 62
     7
100
AcDbLine
 10
573.1632549729
 20
1157.2389716267
 30
0.0
 11
563.6762667861
 21
1157.2389716267
 31
0.0
  0
LINE
  5
26C
330
1F
100
AcDbEntity
  8
0
  6
CONTINUOUS
 62
     7
100
AcDbLine
 10
1006.0059566464
 20
1173.13038227
 30
0.0
 11
573.996080872
 21
1173.13038227
 31
0.0
  0
LINE
  5
26D
330
1F
100
AcDbEntity
  8
0
  6
CONTINUOUS
 62
     7
100
AcDbLine
 10
1006.8387825455
 20
1157.2389716267
 30
0.0
 11
573.1632549729
 21
1157.2389716267
 31
0.0
  0
LINE
  5
26E
330
1F
100
AcDbEntity
  8
0
  6
CONTINUOUS
 62
     7
100
AcDbLine
 10
573.996080872
 20
1173.13038227
 30
0.0
 11
573.996080872
 21
1175.0165025688
 31
0.0
  0
LINE
  5
26F
330
1F
100
AcDbEntity
  8
0
  6
CONTINUOUS
 62
     7
100
AcDbLine
 10
1006.0059566464
 20
1175.0165025688
 30
0.0
 11
573.996080872
 21
1175.0165025688
 31
0.0
  0
LINE
  5
270
330
1F
100
AcDbEntity
  8
0
  6
CONTINUOUS
 62
     7
100
AcDbLine
 10
1006.0059566464
 20
1173.13038227
 30
0.0
 11
1006.0059566464
 21
1175.0165025688
 31
0.0
  0
LWPOLYLINE
  5
271
330
1F
100
AcDbEntity
  8
0
  6
CONTINUOUS
 62
     7
100
AcDbPolyline
 90
        3
 70
   128
 43
0.0
 10
1009.9913169112
 20
1175.1278258845
 10
1008.0796916451
 20
1175.0448804333
 10
1006.0059566464
 20
1175.0165025688
  0
ARC
  5
272
330
1F
100
AcDbEntity
  8
0
  6
CONTINUOUS
 62
     7
100
AcDbCircle
 10
1009.1610260304
 20
1173.4214164127
 30
0.0
 40
1.897693594067831
100
AcDbArc
 50
355.7622264666
 51
64.0533433119
  0
ARC
  5
273
330
1F
100
AcDbEntity
  8
0
  6
CONTINUOUS
 62
     7
100
AcDbCircle
 10
570.8406701225
 20
1173.4215745412
 30
0.0
 40
1.897335479650075
100
AcDbArc
 50
115.9404547773
 51
184.2435041446
  0
LWPOLYLINE
  5
274
330
1F
100
AcDbEntity
  8
0
  6
CONTINUOUS
 62
     7
100
AcDbPolyline
 90
        3
 70
   128
 43
0.0
 10
573.996080872
 20
1175.0165025688
 10
571.9238955941
 20
1175.0448329359
 10
570.0107206072
 20
1175.1278258845
  0
LINE
  5
275
330
1F
100
AcDbEntity
  8
0
  6
CONTINUOUS
 62
     7
100
AcDbLine
 10
1012.5312347378
 20
1175.1278258845
 30
0.0
 11
1012.312068459
 21
1175.1371684469
 31
0.0
  0
LINE
  5
276
330
1F
100
AcDbEntity
  8
0
  6
CONTINUOUS
 62
     7
100
AcDbLine
 10
1012.7854336466
 20
1175.0495947882
 30
0.0
 11
1012.5312198367
 21
1175.1277406685
 31
0.0
  0
LINE
  5
277
330
1F
100
AcDbEntity
  8
0
  6
CONTINUOUS
 62
     7
100
AcDbLine
 10
567.2165889706
 20
1175.0496339038
 30
0.0
 11
567.4708027806
 21
1175.1278258845
 31
0.0
  0
LINE
  5
278
330
1F
100
AcDbEntity
  8
0
  6
CONTINUOUS
 62
     7
100
AcDbLine
 10
567.6899690594
 20
1175.1371679812
 30
0.0
 11
567.4708027806
 21
1175.1278258845
 31
0.0
  0
LINE
  5
279
330
1F
100
AcDbEntity
  8
0
  6
CONTINUOUS
 62
     7
100
AcDbLine
 10
570.0107206072
 20
1175.1278258845
 30
0.0
 11
573.8969136443
 21
1175.5020247757
 31
0.0
  0
LINE
  5
27A
330
1F
100
AcDbEntity
  8
0
  6
CONTINUOUS
 62
     7
100
AcDbLine
 10
573.8969136443
 20
1175.5020247757
 30
0.0
 11
589.115514275
 21
1175.5020247757
 31
0.0
  0
LINE
  5
27B
330
1F
100
AcDbEntity
  8
0
  6
CONTINUOUS
 62
     7
100
AcDbLine
 10
589.1562093463
 20
1176.5980438314
 30
0.0
 11
589.115514275
 21
1175.5020247757
 31
0.0
  0
LINE
  5
27C
330
1F
100
AcDbEntity
  8
0
  6
CONTINUOUS
 62
     7
100
AcDbLine
 10
990.8458281722
 20
1176.5980438314
 30
0.0
 11
589.1562093463
 21
1176.5980438314
 31
0.0
  0
LINE
  5
27D
330
1F
100
AcDbEntity
  8
0
  6
CONTINUOUS
 62
     7
100
AcDbLine
 10
990.8458281722
 20
1176.5979926087
 30
0.0
 11
990.8865232434
 21
1175.5019335061
 31
0.0
  0
LINE
  5
27E
330
1F
100
AcDbEntity
  8
0
  6
CONTINUOUS
 62
     7
100
AcDbLine
 10
1006.1051238741
 20
1175.5020247757
 30
0.0
 11
990.8865232434
 21
1175.5020247757
 31
0.0
  0
LINE
  5
27F
330
1F
100
AcDbEntity
  8
0
  6
CONTINUOUS
 62
     7
100
AcDbLine
 10
1009.9913169112
 20
1175.1278258845
 30
0.0
 11
1006.1051238741
 21
1175.5020247757
 31
0.0
  0
LINE
  5
280
330
1F
100
AcDbEntity
  8
0
  6
CONTINUOUS
 62
     7
100
AcDbLine
 10
571.3570107188
 20
1175.5020247757
 30
0.0
 11
567.4708027806
 21
1175.1278258845
 31
0.0
  0
LWPOLYLINE
  5
281
330
1F
100
AcDbEntity
  8
0
  6
CONTINUOUS
 62
     7
100
AcDbPolyline
 90
        7
 70
   128
 43
0.0
 10
573.8969136443
 20
1175.5020247757
 10
572.7855999436
 20
1175.5019917138
 10
572.3490406241
 20
1175.5019670337
 10
571.9919939007
 20
1175.5019549265
 10
571.714325663
 20
1175.5019661024
 10
571.5158719983
 20
1175.5019907824
 10
571.3570107188
 20
1175.5020247757
  0
LINE
  5
282
330
1F
100
AcDbEntity
  8
0
  6
CONTINUOUS
 62
     7
100
AcDbLine
 10
1006.1051238741
 20
1175.5020247757
 30
0.0
 11
1008.6450267996
 21
1175.5020247757
 31
0.0
  0
LINE
  5
283
330
1F
100
AcDbEntity
  8
0
  6
CONTINUOUS
 62
     7
100
AcDbLine
 10
1008.6450267996
 20
1175.5020247757
 30
0.0
 11
1012.5312347378
 21
1175.1278258845
 31
0.0
  0
LINE
  5
284
330
1F
100
AcDbEntity
  8
0
  6
CONTINUOUS
 62
     7
100
AcDbLine
 10
566.4114941325
 20
1175.0258260391
 30
0.0
 11
566.314666387
 21
1175.0165025688
 31
0.0
  0
LINE
  5
285
330
1F
100
AcDbEntity
  8
0
  6
CONTINUOUS
 62
     7
100
AcDbLine
 10
1013.6873711314
 20
1175.0165025688
 30
0.0
 11
1013.5905433859
 21
1175.0258260391
 31
0.0
  0
LINE
  5
286
330
1F
100
AcDbEntity
  8
0
  6
CONTINUOUS
 62
     7
100
AcDbLine
 10
588.6640686955
 20
1176.1265138149
 30
0.0
 11
588.6313457455
 21
1175.5020247757
 31
0.0
  0
ARC
  5
287
330
1F
100
AcDbEntity
  8
0
  6
CONTINUOUS
 62
     7
100
AcDbCircle
 10
589.1620069315
 20
1176.0993515044
 30
0.0
 40
0.4986785317136198
100
AcDbArc
 50
90.6661298396
 51
176.8776351518
  0
ARC
  5
288
330
1F
100
AcDbEntity
  8
0
  6
CONTINUOUS
 62
     7
100
AcDbCircle
 10
990.8400305869
 20
1176.0993515044
 30
0.0
 40
0.498678531713764
100
AcDbArc
 50
3.1223648482
 51
89.3338701604
  0
LINE
  5
289
330
1F
100
AcDbEntity
  8
0
  6
CONTINUOUS
 62
     7
100
AcDbLine
 10
991.3379688229
 20
1176.1265138149
 30
0.0
 11
991.3706917729
 21
1175.5020247757
 31
0.0
  0
LWPOLYLINE
  5
28A
330
1F
100
AcDbEntity
  8
0
  6
CONTINUOUS
 62
     7
100
AcDbPolyline
 90
        3
 70
   128
 43
0.0
 10
588.7022305693
 20
1176.9962913341
 10
588.8946343627
 20
1177.7251411214
 10
589.2869372334
 20
1178.4841503933
  0
ARC
  5
28B
330
1F
100
AcDbEntity
  8
0
  6
CONTINUOUS
 62
     7
100
AcDbCircle
 10
502.5648221815
 20
1183.5473611321
 30
0.0
 40
86.86979533797802
100
AcDbArc
 50
355.411610487
 51
356.6586186945
  0
LWPOLYLINE
  5
28C
330
1F
100
AcDbEntity
  8
0
  6
CONTINUOUS
 62
     7
100
AcDbPolyline
 90
        3
 70
   128
 43
0.0
 10
588.6640686955
 20
1176.1265138149
 10
588.6788357462
 20
1176.4083054833
 10
588.7096364464
 20
1176.9959029726
  0
LWPOLYLINE
  5
28D
330
1F
100
AcDbEntity
  8
0
  6
CONTINUOUS
 62
     7
100
AcDbPolyline
 90
        3
 70
   128
 43
0.0
 10
991.2998069491
 20
1176.9962913341
 10
991.1074031558
 20
1177.7251411214
 10
990.715100285
 20
1178.4841503933
  0
ARC
  5
28E
330
1F
100
AcDbEntity
  8
0
  6
CONTINUOUS
 62
     7
100
AcDbCircle
 10
1086.3749026095
 20
1184.1668409626
 30
0.0
 40
95.82844438301254
100
AcDbArc
 50
183.3996724008
 51
184.5300984176
  0
LWPOLYLINE
  5
28F
330
1F
100
AcDbEntity
  8
0
  6
CONTINUOUS
 62
     7
100
AcDbPolyline
 90
        3
 70
   128
 43
0.0
 10
991.3379688229
 20
1176.1265138149
 10
991.3232017722
 20
1176.4083054833
 10
991.292401072
 20
1176.9959029726
  0
LINE
  5
290
330
1F
100
AcDbEntity
  8
0
  6
CONTINUOUS
 62
     7
100
AcDbLine
 10
990.715100285
 20
1178.4841503933
 30
0.0
 11
589.2869372334
 21
1178.4841503933
 31
0.0
  0
LINE
  5
291
330
1F
100
AcDbEntity
  8
0
  6
CONTINUOUS
 62
     7
100
AcDbLine
 10
588.1310392584
 20
1175.502029898
 30
0.0
 11
589.2968465056
 21
1197.7410374194
 31
0.0
  0
LINE
  5
292
330
1F
100
AcDbEntity
  8
0
  6
CONTINUOUS
 62
     7
100
AcDbLine
 10
589.2968465056
 20
1197.7410374194
 30
0.0
 11
589.4190360274
 21
1199.2389710605
 31
0.0
  0
LINE
  5
293
330
1F
100
AcDbEntity
  8
0
  6
CONTINUOUS
 62
     7
100
AcDbLine
 10
990.583001491
 20
1199.2389710605
 30
0.0
 11
589.4190360274
 21
1199.2389710605
 31
0.0
  0
LINE
  5
294
330
1F
100
AcDbEntity
  8
0
  6
CONTINUOUS
 62
     7
100
AcDbLine
 10
990.7051910128
 20
1197.7410281062
 30
0.0
 11
990.583001491
 21
1199.2389710605
 31
0.0
  0
LINE
  5
295
330
1F
100
AcDbEntity
  8
0
  6
CONTINUOUS
 62
     7
100
AcDbLine
 10
991.87099826
 20
1175.5020224474
 30
0.0
 11
990.7051910128
 21
1197.7410281062
 31
0.0
  0
LWPOLYLINE
  5
296
330
1F
100
AcDbEntity
  8
0
  6
CONTINUOUS
 62
     7
100
AcDbPolyline
 90
        7
 70
   128
 43
0.0
 10
996.119378921
 20
1199.239183402
 10
995.9938664403
 20
1199.2395522058
 10
995.6556994881
 20
1199.2396416127
 10
994.4714595046
 20
1199.2389058679
 10
992.739586946
 20
1199.2394087821
 10
991.6977573599
 20
1199.2392336934
 10
990.583001491
 20
1199.2389710605
  0
LINE
  5
297
330
1F
100
AcDbEntity
  8
0
  6
CONTINUOUS
 62
     7
100
AcDbLine
 10
996.178447124
 20
1198.1161443501
 30
0.0
 11
996.119378921
 21
1199.239183402
 31
0.0
  0
LINE
  5
298
330
1F
100
AcDbEntity
  8
0
  6
CONTINUOUS
 62
     7
100
AcDbLine
 10
996.1981017556
 20
1197.7410579085
 30
0.0
 11
996.178447124
 21
1198.1161443501
 31
0.0
  0
LINE
  5
299
330
1F
100
AcDbEntity
  8
0
  6
CONTINUOUS
 62
     7
100
AcDbLine
 10
996.1976547207
 20
1197.7410355568
 30
0.0
 11
997.3631490435
 21
1175.5020168595
 31
0.0
  0
LINE
  5
29A
330
1F
100
AcDbEntity
  8
0
  6
CONTINUOUS
 62
     7
100
AcDbLine
 10
583.8039357628
 20
1197.74104487
 30
0.0
 11
582.6384414401
 21
1175.5020406082
 31
0.0
  0
LINE
  5
29B
330
1F
100
AcDbEntity
  8
0
  6
CONTINUOUS
 62
     7
100
AcDbLine
 10
583.8043827977
 20
1197.7410206556
 30
0.0
 11
583.882897016
 21
1199.2391722262
 31
0.0
  0
LINE
  5
29C
330
1F
100
AcDbEntity
  8
0
  6
CONTINUOUS
 62
     7
100
AcDbLine
 10
583.882897016
 20
1199.2389710605
 30
0.0
 11
589.4190360274
 21
1199.2389710605
 31
0.0
  0
LINE
  5
29D
330
1F
100
AcDbEntity
  8
0
  6
CONTINUOUS
 62
     7
100
AcDbLine
 10
559.6411217417
 20
1157.7912319436
 30
0.0
 11
559.8745335307
 21
1162.2451750546
 31
0.0
  0
ARC
  5
29E
330
1F
100
AcDbEntity
  8
0
  6
CONTINUOUS
 62
     7
100
AcDbCircle
 10
561.9010187592
 20
1162.138971731
 30
0.0
 40
4.899999999996585
100
AcDbArc
 50
124.9999999998
 51
242.5351429392
  0
ARC
  5
29F
330
1F
100
AcDbEntity
  8
0
  6
CONTINUOUS
 62
     7
100
AcDbCircle
 10
561.9010187592
 20
1162.138971731
 30
0.0
 40
2.029261651166666
100
AcDbArc
 50
2.8712258839
 51
177.0000000001
  0
LINE
  5
2A0
330
1F
100
AcDbEntity
  8
0
  6
CONTINUOUS
 62
     7
100
AcDbLine
 10
559.0904940333
 20
1166.1528166834
 30
0.0
 11
564.3359113898
 21
1169.8256959891
 31
0.0
  0
ARC
  5
2A1
330
1F
100
AcDbEntity
  8
0
  6
CONTINUOUS
 62
     7
100
AcDbCircle
 10
1022.1575190346
 20
1173.8391258317
 30
0.0
 40
23.28068264192219
100
AcDbArc
 50
173.6136576165
 51
174.7801329952
  0
LINE
  5
2A2
330
1F
100
AcDbEntity
  8
0
  6
CONTINUOUS
 62
     7
100
AcDbLine
 10
1003.7000764575
 20
1175.5020247757
 30
0.0
 11
998.9733834233
 21
1175.9571532704
 31
0.0
  0
LINE
  5
2A3
330
1F
100
AcDbEntity
  8
0
  6
CONTINUOUS
 62
     7
100
AcDbLine
 10
1008.6450267996
 20
1175.5019595831
 30
0.0
 11
999.0212906565
 21
1176.4286488279
 31
0.0
  0
LINE
  5
2A4
330
1F
100
AcDbEntity
  8
0
  6
CONTINUOUS
 62
     7
100
AcDbLine
 10
576.301961061
 20
1175.5020247757
 30
0.0
 11
581.0286540951
 21
1175.9571532704
 31
0.0
  0
LWPOLYLINE
  5
2A5
330
1F
100
AcDbEntity
  8
0
  6
CONTINUOUS
 62
     7
100
AcDbPolyline
 90
        3
 70
   128
 43
0.0
 10
582.7092517581
 20
1176.8447805181
 10
581.9527496066
 20
1176.2368075534
 10
581.0286540951
 20
1175.9571532704
  0
LWPOLYLINE
  5
2A6
330
1F
100
AcDbEntity
  8
0
  6
CONTINUOUS
 62
     7
100
AcDbPolyline
 90
        3
 70
   128
 43
0.0
 10
997.2927857604
 20
1176.8447805181
 10
998.0492879119
 20
1176.2368075534
 10
998.9733834233
 20
1175.9571532704
  0
ARC
  5
2A7
330
1F
100
AcDbEntity
  8
0
  6
CONTINUOUS
 62
     7
100
AcDbCircle
 10
557.8445184866
 20
1173.839125832
 30
0.0
 40
23.28068263916901
100
AcDbArc
 50
5.2198670047
 51
6.3863423835
  0
LINE
  5
2A8
330
1F
100
AcDbEntity
  8
0
  6
CONTINUOUS
 62
     7
100
AcDbLine
 10
571.3570107188
 20
1175.5020247757
 30
0.0
 11
580.9807468619
 21
1176.4286856152
 31
0.0
  0
ARC
  5
2A9
330
1F
100
AcDbEntity
  8
0
  6
CONTINUOUS
 62
     7
100
AcDbCircle
 10
999.2130073404
 20
1178.4194771164
 30
0.0
 40
2.00000155999954
100
AcDbArc
 50
183.0000240418
 51
264.4988507841
  0
ARC
  5
2AA
330
1F
100
AcDbEntity
  8
0
  6
CONTINUOUS
 62
     7
100
AcDbCircle
 10
580.7890437681
 20
1178.4194641069
 30
0.0
 40
1.999987307635452
100
AcDbArc
 50
275.5007974062
 51
357.000327768
  0
ARC
  5
2AB
330
1F
100
AcDbEntity
  8
0
  6
CONTINUOUS
 62
     7
100
AcDbCircle
 10
561.9010187592
 20
1162.138971731
 30
0.0
 40
2.029261651125007
100
AcDbArc
 50
182.9999999999
 51
357.0000000001
  0
LINE
  5
2AC
330
1F
100
AcDbEntity
  8
0
  6
CONTINUOUS
 62
     7
100
AcDbLine
 10
559.8689753975
 20
1162.1389716848
 30
0.0
 11
559.8745335307
 21
1162.032768315
 31
0.0
  0
ARC
  5
2AD
330
1F
100
AcDbEntity
  8
0
  6
CONTINUOUS
 62
     7
100
AcDbCircle
 10
561.9010187592
 20
1162.138971731
 30
0.0
 40
4.900000000000111
100
AcDbArc
 50
242.5351429392
 51
291.8045324232
  0
LWPOLYLINE
  5
2AE
330
1F
100
AcDbEntity
  8
0
  6
CONTINUOUS
 62
     8
100
AcDbPolyline
 90
        3
 70
   128
 43
0.0
 10
1015.4009301629
 20
1173.1435092616
 10
1015.1163179841
 20
1173.1841207467
 10
1014.0279818739
 20
1173.2811911016
  0
LWPOLYLINE
  5
2AF
330
1F
100
AcDbEntity
  8
0
  6
CONTINUOUS
 62
     8
100
AcDbPolyline
 90
        3
 70
   128
 43
0.0
 10
565.9740556445
 20
1173.2811911016
 10
564.8857195344
 20
1173.1841207467
 10
564.6011073556
 20
1173.1435092616
  0
LWPOLYLINE
  5
2B0
330
1F
100
AcDbEntity
  8
0
  6
CONTINUOUS
 62
     8
100
AcDbPolyline
 90
        3
 70
   128
 43
0.0
 10
1012.312068459
 20
1175.1371684469
 10
1011.3919664588
 20
1175.1763883032
 10
1009.9913169112
 20
1175.1278258845
  0
ARC
  5
2B1
330
1F
100
AcDbEntity
  8
0
  6
CONTINUOUS
 62
     8
100
AcDbCircle
 10
1012.2956687014
 20
1173.3848650202
 30
0.0
 40
1.735279488189362
100
AcDbArc
 50
356.5744659709
 51
73.6060711099
  0
ARC
  5
2B2
330
1F
100
AcDbEntity
  8
0
  6
CONTINUOUS
 62
     8
100
AcDbCircle
 10
567.7063062794
 20
1173.3848772003
 30
0.0
 40
1.735291884475925
100
AcDbArc
 50
106.392168965
 51
183.4257583828
  0
LWPOLYLINE
  5
2B3
330
1F
100
AcDbEntity
  8
0
  6
CONTINUOUS
 62
     8
100
AcDbPolyline
 90
        3
 70
   128
 43
0.0
 10
570.0107206072
 20
1175.1278258845
 10
568.6100710597
 20
1175.1763883032
 10
567.6899690594
 20
1175.1371679812
  0
LINE
  5
2B4
330
1F
100
AcDbEntity
  8
0
  6
CONTINUOUS
 62
     7
100
AcDbLine
 10
1012.3494107689
 20
256.1419043192
 30
0.0
 11
1012.8181714978
 21
256.2050475241
 31
0.0
  0
LINE
  5
2B5
330
1F
100
AcDbEntity
  8
0
  6
CONTINUOUS
 62
     7
100
AcDbLine
 10
567.1838660206
 20
256.2050479897
 30
0.0
 11
567.6526267495
 21
256.1419043192
 31
0.0
  0
ARC
  5
2B6
330
1F
100
AcDbEntity
  8
0
  6
CONTINUOUS
 62
     7
100
AcDbCircle
 10
566.5293556568
 20
258.2486431602
 30
0.0
 40
2.000001028781746
100
AcDbArc
 50
182.5243328857
 51
244.9568185311
  0
LINE
  5
2B7
330
1F
100
AcDbEntity
  8
0
  6
CONTINUOUS
 62
     7
100
AcDbLine
 10
565.4315937724
 20
256.6124252477
 30
0.0
 11
565.9907300438
 21
256.3194302344
 31
0.0
  0
LWPOLYLINE
  5
2B8
330
1F
100
AcDbEntity
  8
0
  6
CONTINUOUS
 62
     7
100
AcDbPolyline
 90
        3
 70
   128
 43
0.0
 10
566.0594541993
 20
256.3139670961
 10
566.4690871205
 20
256.2739435085
 10
567.2119845118
 20
256.2018367895
  0
LWPOLYLINE
  5
2B9
330
1F
100
AcDbEntity
  8
0
  6
CONTINUOUS
 62
     7
100
AcDbPolyline
 90
        3
 70
   128
 43
0.0
 10
1012.7900530066
 20
256.2018367895
 10
1013.5329503979
 20
256.2739435085
 10
1013.9425833191
 20
256.3139670961
  0
LINE
  5
2BA
330
1F
100
AcDbEntity
  8
0
  6
CONTINUOUS
 62
     7
100
AcDbLine
 10
1014.0113074746
 20
256.3194302344
 30
0.0
 11
1014.570443746
 21
256.6124252477
 31
0.0
  0
ARC
  5
2BB
330
1F
100
AcDbEntity
  8
0
  6
CONTINUOUS
 62
     7
100
AcDbCircle
 10
1013.4726818616
 20
258.2486431602
 30
0.0
 40
2.000001028782041
100
AcDbArc
 50
295.0431814689
 51
357.4756671143
  0
LINE
  5
2BC
330
1F
100
AcDbEntity
  8
0
  6
CONTINUOUS
 62
     7
100
AcDbLine
 10
564.6011073556
 20
258.1339714085
 30
0.0
 11
564.5091075863
 21
258.1470984001
 31
0.0
  0
LINE
  5
2BD
330
1F
100
AcDbEntity
  8
0
  6
CONTINUOUS
 62
     7
100
AcDbLine
 10
564.5091075863
 20
258.1470984001
 30
0.0
 11
563.6762667861
 21
274.0385090434
 31
0.0
  0
LWPOLYLINE
  5
2BE
330
1F
100
AcDbEntity
  8
0
  6
CONTINUOUS
 62
     7
100
AcDbPolyline
 90
        5
 70
   128
 43
0.0
 10
573.1632549729
 20
274.0385090434
 10
569.5310820307
 20
274.032571862
 10
566.4539177384
 20
274.0278994166
 10
564.3982280459
 20
274.032571862
 10
563.6762667861
 20
274.0385090434
  0
LINE
  5
2BF
330
1F
100
AcDbEntity
  8
0
  6
CONTINUOUS
 62
     7
100
AcDbLine
 10
573.996080872
 20
258.1470984001
 30
0.0
 11
573.1632549729
 21
274.0385090434
 31
0.0
  0
LWPOLYLINE
  5
2C0
330
1F
100
AcDbEntity
  8
0
  6
CONTINUOUS
 62
     7
100
AcDbPolyline
 90
        3
 70
   128
 43
0.0
 10
573.996080872
 20
258.1470984001
 10
571.3603038754
 20
258.0933762216
 10
568.9484615292
 20
257.9962895685
  0
LWPOLYLINE
  5
2C1
330
1F
100
AcDbEntity
  8
0
  6
CONTINUOUS
 62
     7
100
AcDbPolyline
 90
        3
 70
   128
 43
0.0
 10
568.9484615292
 20
257.9962895685
 10
567.2967125144
 20
257.9486850151
 10
565.9740556445
 20
257.9962895685
  0
LWPOLYLINE
  5
2C2
330
1F
100
AcDbEntity
  8
0
  6
CONTINUOUS
 62
     7
100
AcDbPolyline
 90
        3
 70
   128
 43
0.0
 10
1011.0535759892
 20
257.9962895685
 10
1008.6427171197
 20
258.0933538698
 10
1006.0059566464
 20
258.1470984001
  0
LINE
  5
2C3
330
1F
100
AcDbEntity
  8
0
  6
CONTINUOUS
 62
     7
100
AcDbLine
 10
1006.0059566464
 20
258.1470984001
 30
0.0
 11
1006.8387825455
 21
274.0385090434
 31
0.0
  0
LINE
  5
2C4
330
1F
100
AcDbEntity
  8
0
  6
CONTINUOUS
 62
     7
100
AcDbLine
 10
1015.4929299321
 20
258.1470984001
 30
0.0
 11
1016.3257707324
 21
274.0385090434
 31
0.0
  0
LINE
  5
2C5
330
1F
100
AcDbEntity
  8
0
  6
CONTINUOUS
 62
     7
100
AcDbLine
 10
1015.4929299321
 20
258.1470984001
 30
0.0
 11
1015.4009301629
 21
258.1339714085
 31
0.0
  0
LWPOLYLINE
  5
2C6
330
1F
100
AcDbEntity
  8
0
  6
CONTINUOUS
 62
     7
100
AcDbPolyline
 90
        3
 70
   128
 43
0.0
 10
1014.0279818739
 20
257.9962895685
 10
1012.7053250041
 20
257.9486850151
 10
1011.0535759892
 20
257.9962895685
  0
LINE
  5
2C7
330
1F
100
AcDbEntity
  8
0
  6
CONTINUOUS
 62
     7
100
AcDbLine
 10
1006.8387825455
 20
274.0385090434
 30
0.0
 11
1016.3257707324
 21
274.0385090434
 31
0.0
  0
LINE
  5
2C8
330
1F
100
AcDbEntity
  8
0
  6
CONTINUOUS
 62
     7
100
AcDbLine
 10
1006.0059566464
 20
258.1470984001
 30
0.0
 11
573.996080872
 21
258.1470984001
 31
0.0
  0
LINE
  5
2C9
330
1F
100
AcDbEntity
  8
0
  6
CONTINUOUS
 62
     7
100
AcDbLine
 10
1006.8387825455
 20
274.0385090434
 30
0.0
 11
573.1632549729
 21
274.0385090434
 31
0.0
  0
LINE
  5
2CA
330
1F
100
AcDbEntity
  8
0
  6
CONTINUOUS
 62
     7
100
AcDbLine
 10
1006.0059566464
 20
258.1470984001
 30
0.0
 11
1006.0059566464
 21
256.2609781013
 31
0.0
  0
LINE
  5
2CB
330
1F
100
AcDbEntity
  8
0
  6
CONTINUOUS
 62
     7
100
AcDbLine
 10
1006.0059566464
 20
256.2609781013
 30
0.0
 11
573.996080872
 21
256.2609781013
 31
0.0
  0
LINE
  5
2CC
330
1F
100
AcDbEntity
  8
0
  6
CONTINUOUS
 62
     7
100
AcDbLine
 10
573.996080872
 20
258.1470984001
 30
0.0
 11
573.996080872
 21
256.2609781013
 31
0.0
  0
ARC
  5
2CD
330
1F
100
AcDbEntity
  8
0
  6
CONTINUOUS
 62
     7
100
AcDbCircle
 10
1009.1613279315
 20
257.8559140259
 30
0.0
 40
1.897359425684824
100
AcDbArc
 50
295.9414282768
 51
4.2432254662
  0
LWPOLYLINE
  5
2CE
330
1F
100
AcDbEntity
  8
0
  6
CONTINUOUS
 62
     7
100
AcDbPolyline
 90
        3
 70
   128
 43
0.0
 10
1009.9913169112
 20
256.1496547856
 10
1008.0796916451
 20
256.2326002368
 10
1006.0059566464
 20
256.2609781013
  0
LWPOLYLINE
  5
2CF
330
1F
100
AcDbEntity
  8
0
  6
CONTINUOUS
 62
     7
100
AcDbPolyline
 90
        3
 70
   128
 43
0.0
 10
573.996080872
 20
256.2609781013
 10
571.9238955941
 20
256.2326477342
 10
570.0107206072
 20
256.1496547856
  0
ARC
  5
2D0
330
1F
100
AcDbEntity
  8
0
  6
CONTINUOUS
 62
     7
100
AcDbCircle
 10
570.8409488348
 20
257.8560428826
 30
0.0
 40
1.897647380174362
100
AcDbArc
 50
175.7615464246
 51
244.054768104
  0
LINE
  5
2D1
330
1F
100
AcDbEntity
  8
0
  6
CONTINUOUS
 62
     7
100
AcDbLine
 10
1012.7854485478
 20
256.2278449037
 30
0.0
 11
1012.5312347378
 21
256.14965432
 31
0.0
  0
LINE
  5
2D2
330
1F
100
AcDbEntity
  8
0
  6
CONTINUOUS
 62
     7
100
AcDbLine
 10
1012.5312347378
 20
256.1496547856
 30
0.0
 11
1012.312068459
 21
256.1403122232
 31
0.0
  0
LINE
  5
2D3
330
1F
100
AcDbEntity
  8
0
  6
CONTINUOUS
 62
     7
100
AcDbLine
 10
567.6899690594
 20
256.1403126889
 30
0.0
 11
567.4708027806
 21
256.1496547856
 31
0.0
  0
LINE
  5
2D4
330
1F
100
AcDbEntity
  8
0
  6
CONTINUOUS
 62
     7
100
AcDbLine
 10
567.2165889706
 20
256.2278877445
 30
0.0
 11
567.4708176817
 21
256.1497404673
 31
0.0
  0
LINE
  5
2D5
330
1F
100
AcDbEntity
  8
0
  6
CONTINUOUS
 62
     7
100
AcDbLine
 10
1009.9913169112
 20
256.1496547856
 30
0.0
 11
1006.1051238741
 21
255.7754558944
 31
0.0
  0
LINE
  5
2D6
330
1F
100
AcDbEntity
  8
0
  6
CONTINUOUS
 62
     7
100
AcDbLine
 10
1006.1051238741
 20
255.7754558944
 30
0.0
 11
990.8865232434
 21
255.7754558944
 31
0.0
  0
LINE
  5
2D7
330
1F
100
AcDbEntity
  8
0
  6
CONTINUOUS
 62
     7
100
AcDbLine
 10
990.8458281722
 20
254.6794368387
 30
0.0
 11
990.8865232434
 21
255.7754558944
 31
0.0
  0
LINE
  5
2D8
330
1F
100
AcDbEntity
  8
0
  6
CONTINUOUS
 62
     7
100
AcDbLine
 10
990.8458281722
 20
254.6794368387
 30
0.0
 11
589.1562093463
 21
254.6794368387
 31
0.0
  0
LINE
  5
2D9
330
1F
100
AcDbEntity
  8
0
  6
CONTINUOUS
 62
     7
100
AcDbLine
 10
589.1562093463
 20
254.6794880614
 30
0.0
 11
589.115514275
 21
255.775547164
 31
0.0
  0
LINE
  5
2DA
330
1F
100
AcDbEntity
  8
0
  6
CONTINUOUS
 62
     7
100
AcDbLine
 10
573.8969136443
 20
255.7754558944
 30
0.0
 11
589.115514275
 21
255.7754558944
 31
0.0
  0
LINE
  5
2DB
330
1F
100
AcDbEntity
  8
0
  6
CONTINUOUS
 62
     7
100
AcDbLine
 10
570.0107206072
 20
256.1496547856
 30
0.0
 11
573.8969136443
 21
255.7754558944
 31
0.0
  0
LINE
  5
2DC
330
1F
100
AcDbEntity
  8
0
  6
CONTINUOUS
 62
     7
100
AcDbLine
 10
1008.6450267996
 20
255.7754558944
 30
0.0
 11
1012.5312347378
 21
256.1496547856
 31
0.0
  0
LWPOLYLINE
  5
2DD
330
1F
100
AcDbEntity
  8
0
  6
CONTINUOUS
 62
     7
100
AcDbPolyline
 90
        7
 70
   128
 43
0.0
 10
1006.1051238741
 20
255.7754558944
 10
1007.2164375748
 20
255.7754889563
 10
1007.6529968943
 20
255.7755136364
 10
1008.0100436177
 20
255.7755257436
 10
1008.2877118554
 20
255.7755145677
 10
1008.4861655202
 20
255.7754898877
 10
1008.6450267996
 20
255.7754558944
  0
LINE
  5
2DE
330
1F
100
AcDbEntity
  8
0
  6
CONTINUOUS
 62
     7
100
AcDbLine
 10
573.8969136443
 20
255.7754558944
 30
0.0
 11
571.3570107188
 21
255.7754558944
 31
0.0
  0
LINE
  5
2DF
330
1F
100
AcDbEntity
  8
0
  6
CONTINUOUS
 62
     7
100
AcDbLine
 10
571.3570107188
 20
255.7754558944
 30
0.0
 11
567.4708027806
 21
256.1496547856
 31
0.0
  0
LINE
  5
2E0
330
1F
100
AcDbEntity
  8
0
  6
CONTINUOUS
 62
     7
100
AcDbLine
 10
566.4114941325
 20
256.251654631
 30
0.0
 11
566.314666387
 21
256.2609781013
 31
0.0
  0
LINE
  5
2E1
330
1F
100
AcDbEntity
  8
0
  6
CONTINUOUS
 62
     7
100
AcDbLine
 10
1013.6873711314
 20
256.2609781013
 30
0.0
 11
1013.5905433859
 21
256.251654631
 31
0.0
  0
LINE
  5
2E2
330
1F
100
AcDbEntity
  8
0
  6
CONTINUOUS
 62
     7
100
AcDbLine
 10
991.3379688229
 20
255.1509668552
 30
0.0
 11
991.3706917729
 21
255.7754558944
 31
0.0
  0
ARC
  5
2E3
330
1F
100
AcDbEntity
  8
0
  6
CONTINUOUS
 62
     7
100
AcDbCircle
 10
990.8400305869
 20
255.1781291657
 30
0.0
 40
0.4986785317137625
100
AcDbArc
 50
270.6661298396
 51
356.8776351518
  0
ARC
  5
2E4
330
1F
100
AcDbEntity
  8
0
  6
CONTINUOUS
 62
     7
100
AcDbCircle
 10
589.1620069315
 20
255.1781291657
 30
0.0
 40
0.4986785317136474
100
AcDbArc
 50
183.1223648482
 51
269.3338701604
  0
LINE
  5
2E5
330
1F
100
AcDbEntity
  8
0
  6
CONTINUOUS
 62
     7
100
AcDbLine
 10
588.6640686955
 20
255.1509668552
 30
0.0
 11
588.6313457455
 21
255.7754558944
 31
0.0
  0
LWPOLYLINE
  5
2E6
330
1F
100
AcDbEntity
  8
0
  6
CONTINUOUS
 62
     7
100
AcDbPolyline
 90
        3
 70
   128
 43
0.0
 10
991.2998069491
 20
254.281189336
 10
991.1074031558
 20
253.5523395487
 10
990.715100285
 20
252.7933302768
  0
ARC
  5
2E7
330
1F
100
AcDbEntity
  8
0
  6
CONTINUOUS
 62
     7
100
AcDbCircle
 10
1077.4372779491
 20
247.7301151983
 30
0.0
 40
86.86985809670381
100
AcDbArc
 50
175.4116109375
 51
176.6586182441
  0
LWPOLYLINE
  5
2E8
330
1F
100
AcDbEntity
  8
0
  6
CONTINUOUS
 62
     7
100
AcDbPolyline
 90
        3
 70
   128
 43
0.0
 10
991.3379688229
 20
255.1509668552
 10
991.3232017722
 20
254.8691751868
 10
991.292401072
 20
254.2815776975
  0
LWPOLYLINE
  5
2E9
330
1F
100
AcDbEntity
  8
0
  6
CONTINUOUS
 62
     7
100
AcDbPolyline
 90
        3
 70
   128
 43
0.0
 10
588.7022305693
 20
254.281189336
 10
588.8946343627
 20
253.5523395487
 10
589.2869372334
 20
252.7933302768
  0
ARC
  5
2EA
330
1F
100
AcDbEntity
  8
0
  6
CONTINUOUS
 62
     7
100
AcDbCircle
 10
493.6271349116
 20
247.1106397077
 30
0.0
 40
95.8284443803566
100
AcDbArc
 50
3.3996724008
 51
4.5300984177
  0
LWPOLYLINE
  5
2EB
330
1F
100
AcDbEntity
  8
0
  6
CONTINUOUS
 62
     7
100
AcDbPolyline
 90
        3
 70
   128
 43
0.0
 10
588.6640686955
 20
255.1509668552
 10
588.6788357462
 20
254.8691751868
 10
588.7096364464
 20
254.2815776975
  0
LINE
  5
2EC
330
1F
100
AcDbEntity
  8
0
  6
CONTINUOUS
 62
     7
100
AcDbLine
 10
990.715100285
 20
252.7933302768
 30
0.0
 11
589.2869372334
 21
252.7933302768
 31
0.0
  0
LINE
  5
2ED
330
1F
100
AcDbEntity
  8
0
  6
CONTINUOUS
 62
     7
100
AcDbLine
 10
991.87099826
 20
255.7754507721
 30
0.0
 11
990.7051910128
 21
233.5364432507
 31
0.0
  0
LINE
  5
2EE
330
1F
100
AcDbEntity
  8
0
  6
CONTINUOUS
 62
     7
100
AcDbLine
 10
990.7051910128
 20
233.5364432507
 30
0.0
 11
990.583001491
 21
232.0385096096
 31
0.0
  0
LINE
  5
2EF
330
1F
100
AcDbEntity
  8
0
  6
CONTINUOUS
 62
     7
100
AcDbLine
 10
589.4190360274
 20
232.0385096096
 30
0.0
 11
990.583001491
 21
232.0385096096
 31
0.0
  0
LINE
  5
2F0
330
1F
100
AcDbEntity
  8
0
  6
CONTINUOUS
 62
     7
100
AcDbLine
 10
589.2968465056
 20
233.5364525639
 30
0.0
 11
589.4190360274
 21
232.0385096096
 31
0.0
  0
LINE
  5
2F1
330
1F
100
AcDbEntity
  8
0
  6
CONTINUOUS
 62
     7
100
AcDbLine
 10
588.1310392584
 20
255.7754582227
 30
0.0
 11
589.2968465056
 21
233.5364525639
 31
0.0
  0
LWPOLYLINE
  5
2F2
330
1F
100
AcDbEntity
  8
0
  6
CONTINUOUS
 62
     7
100
AcDbPolyline
 90
        7
 70
   128
 43
0.0
 10
583.8826585974
 20
232.0382972681
 10
584.0081710782
 20
232.0379284643
 10
584.3463380303
 20
232.0378390574
 10
585.5305780139
 20
232.0385748022
 10
587.2624505724
 20
232.038071888
 10
588.3042801585
 20
232.0382469767
 10
589.4190360274
 20
232.0385096096
  0
LINE
  5
2F3
330
1F
100
AcDbEntity
  8
0
  6
CONTINUOUS
 62
     7
100
AcDbLine
 10
583.8235903945
 20
233.16133632
 30
0.0
 11
583.8826585974
 21
232.0382972681
 31
0.0
  0
LINE
  5
2F4
330
1F
100
AcDbEntity
  8
0
  6
CONTINUOUS
 62
     7
100
AcDbLine
 10
583.8039357628
 20
233.5364227616
 30
0.0
 11
583.8235903945
 21
233.16133632
 31
0.0
  0
LINE
  5
2F5
330
1F
100
AcDbEntity
  8
0
  6
CONTINUOUS
 62
     7
100
AcDbLine
 10
583.8043827977
 20
233.5364451133
 30
0.0
 11
582.6388884749
 21
255.7754638106
 31
0.0
  0
LINE
  5
2F6
330
1F
100
AcDbEntity
  8
0
  6
CONTINUOUS
 62
     7
100
AcDbLine
 10
996.1981017556
 20
233.5364358001
 30
0.0
 11
997.3635960784
 21
255.7754400619
 31
0.0
  0
LINE
  5
2F7
330
1F
100
AcDbEntity
  8
0
  6
CONTINUOUS
 62
     7
100
AcDbLine
 10
996.1976547207
 20
233.5364600145
 30
0.0
 11
996.1191405024
 21
232.038308444
 31
0.0
  0
LINE
  5
2F8
330
1F
100
AcDbEntity
  8
0
  6
CONTINUOUS
 62
     7
100
AcDbLine
 10
996.1191405024
 20
232.0385096096
 30
0.0
 11
990.583001491
 21
232.0385096096
 31
0.0
  0
LINE
  5
2F9
330
1F
100
AcDbEntity
  8
0
  6
CONTINUOUS
 62
     7
100
AcDbLine
 10
559.6411217417
 20
273.4862487265
 30
0.0
 11
559.8745335307
 21
269.0323056155
 31
0.0
  0
ARC
  5
2FA
330
1F
100
AcDbEntity
  8
0
  6
CONTINUOUS
 62
     7
100
AcDbCircle
 10
561.9010187592
 20
269.1385089391
 30
0.0
 40
2.029261651166675
100
AcDbArc
 50
182.9999999999
 51
357.1287741161
  0
LINE
  5
2FB
330
1F
100
AcDbEntity
  8
0
  6
CONTINUOUS
 62
     7
100
AcDbLine
 10
559.0904940333
 20
265.1246639867
 30
0.0
 11
564.3359113898
 21
261.451784681
 31
0.0
  0
ARC
  5
2FC
330
1F
100
AcDbEntity
  8
0
  6
CONTINUOUS
 62
     7
100
AcDbCircle
 10
561.9010187592
 20
269.1385089391
 30
0.0
 40
4.899999999996434
100
AcDbArc
 50
117.4648570608
 51
235.0000000002
  0
ARC
  5
2FD
330
1F
100
AcDbEntity
  8
0
  6
CONTINUOUS
 62
     7
100
AcDbCircle
 10
557.8445184865
 20
257.4383548381
 30
0.0
 40
23.28068263920399
100
AcDbArc
 50
353.6136576165
 51
354.7801329953
  0
LINE
  5
2FE
330
1F
100
AcDbEntity
  8
0
  6
CONTINUOUS
 62
     7
100
AcDbLine
 10
576.301961061
 20
255.7754558944
 30
0.0
 11
581.0286540951
 21
255.3203273997
 31
0.0
  0
LINE
  5
2FF
330
1F
100
AcDbEntity
  8
0
  6
CONTINUOUS
 62
     7
100
AcDbLine
 10
571.3570107188
 20
255.775521087
 30
0.0
 11
580.9807468619
 21
254.8488318422
 31
0.0
  0
LINE
  5
300
330
1F
100
AcDbEntity
  8
0
  6
CONTINUOUS
 62
     7
100
AcDbLine
 10
1003.7000764575
 20
255.7754558944
 30
0.0
 11
998.9733834233
 21
255.3203273997
 31
0.0
  0
LWPOLYLINE
  5
301
330
1F
100
AcDbEntity
  8
0
  6
CONTINUOUS
 62
     7
100
AcDbPolyline
 90
        3
 70
   128
 43
0.0
 10
997.2927857604
 20
254.432700152
 10
998.0492879119
 20
255.0406731167
 10
998.9733834233
 20
255.3203273997
  0
ARC
  5
302
330
1F
100
AcDbEntity
  8
0
  6
CONTINUOUS
 62
     7
100
AcDbCircle
 10
1022.1575190346
 20
257.4383548384
 30
0.0
 40
23.28068264195707
100
AcDbArc
 50
185.2198670048
 51
186.3863423835
  0
LINE
  5
303
330
1F
100
AcDbEntity
  8
0
  6
CONTINUOUS
 62
     7
100
AcDbLine
 10
1008.6450267996
 20
255.7754558944
 30
0.0
 11
999.0212906565
 21
254.8487950549
 31
0.0
  0
LWPOLYLINE
  5
304
330
1F
100
AcDbEntity
  8
0
  6
CONTINUOUS
 62
     7
100
AcDbPolyline
 90
        3
 70
   128
 43
0.0
 10
582.7092517581
 20
254.432700152
 10
581.9527496066
 20
255.0406731167
 10
581.0286540951
 20
255.3203273997
  0
ARC
  5
305
330
1F
100
AcDbEntity
  8
0
  6
CONTINUOUS
 62
     7
100
AcDbCircle
 10
580.789030178
 20
252.8580035537
 30
0.0
 40
2.000001559999696
100
AcDbArc
 50
3.0000240418
 51
84.498850784
  0
ARC
  5
306
330
1F
100
AcDbEntity
  8
0
  6
CONTINUOUS
 62
     7
100
AcDbCircle
 10
999.2129937503
 20
252.8580165632
 30
0.0
 40
1.999987307635334
100
AcDbArc
 50
95.5007974061
 51
177.000327768
  0
ARC
  5
307
330
1F
100
AcDbEntity
  8
0
  6
CONTINUOUS
 62
     7
100
AcDbCircle
 10
561.9010187592
 20
269.1385089391
 30
0.0
 40
2.029261651125007
100
AcDbArc
 50
2.9999999999
 51
177.0000000001
  0
LINE
  5
308
330
1F
100
AcDbEntity
  8
0
  6
CONTINUOUS
 62
     7
100
AcDbLine
 10
559.8689753975
 20
269.1385089853
 30
0.0
 11
559.8745335307
 21
269.2447123551
 31
0.0
  0
ARC
  5
309
330
1F
100
AcDbEntity
  8
0
  6
CONTINUOUS
 62
     7
100
AcDbCircle
 10
561.9010187592
 20
269.1385089391
 30
0.0
 40
4.899999999999988
100
AcDbArc
 50
68.535142939
 51
117.4648570608
  0
LINE
  5
30A
330
1F
100
AcDbEntity
  8
0
  6
CONTINUOUS
 62
     7
100
AcDbLine
 10
559.8690051999
 20
269.1390864053
 30
0.0
 11
559.8746080365
 21
269.0322823324
 31
0.0
  0
LWPOLYLINE
  5
30B
330
1F
100
AcDbEntity
  8
0
  6
CONTINUOUS
 62
     8
100
AcDbPolyline
 90
        3
 70
   128
 43
0.0
 10
565.9740556445
 20
257.9962895685
 10
564.8857195344
 20
258.0933599234
 10
564.6011073556
 20
258.1339714085
  0
LWPOLYLINE
  5
30C
330
1F
100
AcDbEntity
  8
0
  6
CONTINUOUS
 62
     8
100
AcDbPolyline
 90
        3
 70
   128
 43
0.0
 10
1015.4009301629
 20
258.1339714085
 10
1015.1163179841
 20
258.0933599234
 10
1014.0279818739
 20
257.9962895685
  0
ARC
  5
30D
330
1F
100
AcDbEntity
  8
0
  6
CONTINUOUS
 62
     8
100
AcDbCircle
 10
1012.2957227837
 20
257.892593034
 30
0.0
 40
1.73528604597198
100
AcDbArc
 50
286.3925166813
 51
3.4260997082
  0
LWPOLYLINE
  5
30E
330
1F
100
AcDbEntity
  8
0
  6
CONTINUOUS
 62
     8
100
AcDbPolyline
 90
        3
 70
   128
 43
0.0
 10
1012.312068459
 20
256.1403122232
 10
1011.3919664588
 20
256.101092367
 10
1009.9913169112
 20
256.1496547856
  0
LWPOLYLINE
  5
30F
330
1F
100
AcDbEntity
  8
0
  6
CONTINUOUS
 62
     8
100
AcDbPolyline
 90
        3
 70
   128
 43
0.0
 10
570.0107206072
 20
256.1496547856
 10
568.6100710597
 20
256.101092367
 10
567.6899690594
 20
256.1403126889
  0
ARC
  5
310
330
1F
100
AcDbEntity
  8
0
  6
CONTINUOUS
 62
     8
100
AcDbCircle
 10
567.7063402809
 20
257.8925932556
 30
0.0
 40
1.735252369103776
100
AcDbArc
 50
176.5736562138
 51
253.6062769607
  0
LINE
  5
311
330
1F
100
AcDbEntity
  8
0
  6
CONTINUOUS
 62
     7
100
AcDbLine
 10
1233.2274410503
 20
840.5344252998
 30
0.0
 11
1233.2274410503
 21
817.5344233925
 31
0.0
  0
LINE
  5
312
330
1F
100
AcDbEntity
  8
0
  6
CONTINUOUS
 62
     7
100
AcDbLine
 10
1233.2274410503
 20
772.5344253296
 30
0.0
 11
1233.2274410503
 21
749.5344271476
 31
0.0
  0
LINE
  5
313
330
1F
100
AcDbEntity
  8
0
  6
CONTINUOUS
 62
     7
100
AcDbLine
 10
1233.2274410503
 20
971.534422558
 30
0.0
 11
1233.2274410503
 21
953.5344307835
 31
0.0
  0
LINE
  5
314
330
1F
100
AcDbEntity
  8
0
  6
CONTINUOUS
 62
     7
100
AcDbLine
 10
1233.2274410503
 20
908.5344289953
 30
0.0
 11
1233.2274410503
 21
885.534427088
 31
0.0
  0
LINE
  5
315
330
1F
100
AcDbEntity
  8
0
  6
CONTINUOUS
 62
     7
100
AcDbLine
 10
1233.2274410503
 20
500.5344217236
 30
0.0
 11
1233.2274410503
 21
482.534429949
 31
0.0
  0
LINE
  5
316
330
1F
100
AcDbEntity
  8
0
  6
CONTINUOUS
 62
     7
100
AcDbLine
 10
1233.2274410503
 20
704.5344253594
 30
0.0
 11
1233.2274410503
 21
681.5344271774
 31
0.0
  0
LINE
  5
317
330
1F
100
AcDbEntity
  8
0
  6
CONTINUOUS
 62
     7
100
AcDbLine
 10
1233.2274410503
 20
568.534425419
 30
0.0
 11
1233.2274410503
 21
545.5344235117
 31
0.0
  0
LINE
  5
318
330
1F
100
AcDbEntity
  8
0
  6
CONTINUOUS
 62
     7
100
AcDbLine
 10
1233.2274410503
 20
636.5344291145
 30
0.0
 11
1233.2274410503
 21
613.5344272072
 31
0.0
  0
LINE
  5
319
330
1F
100
AcDbEntity
  8
0
  6
CONTINUOUS
 62
     7
100
AcDbLine
 10
1251.1240248198
 20
1004.0330653603
 30
0.0
 11
1251.0608699734
 21
1004.5017068798
 31
0.0
  0
LINE
  5
31A
330
1F
100
AcDbEntity
  8
0
  6
CONTINUOUS
 62
     7
100
AcDbLine
 10
1251.0608699734
 20
449.5671456272
 30
0.0
 11
1251.1240248198
 21
450.0357871468
 31
0.0
  0
ARC
  5
31B
330
1F
100
AcDbEntity
  8
0
  6
CONTINUOUS
 62
     7
100
AcDbCircle
 10
1249.0173101821
 20
448.9126211469
 30
0.0
 40
1.999971896269507
100
AcDbArc
 50
272.5242765244
 51
334.9747788612
  0
LWPOLYLINE
  5
31C
330
1F
100
AcDbEntity
  8
0
  6
CONTINUOUS
 62
     7
100
AcDbPolyline
 90
        3
 70
   128
 43
0.0
 10
1250.9519988301
 20
448.4428530151
 10
1250.992053617
 20
448.8525753433
 10
1251.0642013142
 20
449.5956664497
  0
LINE
  5
31D
330
1F
100
AcDbEntity
  8
0
  6
CONTINUOUS
 62
     7
100
AcDbLine
 10
1250.653933231
 20
447.8154843266
 30
0.0
 11
1250.9466064724
 21
448.3743970806
 31
0.0
  0
LWPOLYLINE
  5
31E
330
1F
100
AcDbEntity
  8
0
  6
CONTINUOUS
 62
     7
100
AcDbPolyline
 90
        3
 70
   128
 43
0.0
 10
1251.0641975889
 20
1004.4731860573
 10
1250.9920512887
 20
1005.2162771637
 10
1250.9519978987
 20
1005.6259994919
  0
LINE
  5
31F
330
1F
100
AcDbEntity
  8
0
  6
CONTINUOUS
 62
     7
100
AcDbLine
 10
1250.9466022814
 20
1005.6944554264
 30
0.0
 11
1250.6539211238
 21
1006.2533979828
 31
0.0
  0
ARC
  5
320
330
1F
100
AcDbEntity
  8
0
  6
CONTINUOUS
 62
     7
100
AcDbCircle
 10
1249.0173315635
 20
1005.1562794935
 30
0.0
 40
1.999922878279118
100
AcDbArc
 50
25.0243548983
 51
87.4762680402
  0
LWPOLYLINE
  5
321
330
1F
100
AcDbEntity
  8
0
  6
CONTINUOUS
 62
     7
100
AcDbPolyline
 90
        3
 70
   128
 43
0.0
 10
1251.0641910697
 20
1004.4732158596
 10
1250.9920545483
 20
1005.2161877567
 10
1250.9519997614
 20
1005.6259398872
  0
LINE
  5
322
330
1F
100
AcDbEntity
  8
0
  6
CONTINUOUS
 62
     7
100
AcDbLine
 10
1233.2274410503
 20
840.5344252998
 30
0.0
 11
1233.7797013672
 21
840.5344252998
 31
0.0
  0
LINE
  5
323
330
1F
100
AcDbEntity
  8
0
  6
CONTINUOUS
 62
     7
100
AcDbLine
 10
1233.7797013672
 20
845.534427982
 30
0.0
 11
1233.7797013672
 21
840.5344252998
 31
0.0
  0
LINE
  5
324
330
1F
100
AcDbEntity
  8
0
  6
CONTINUOUS
 62
     7
100
AcDbLine
 10
1233.7797013672
 20
845.534427982
 30
0.0
 11
1242.141286107
 21
845.534427982
 31
0.0
  0
LINE
  5
325
330
1F
100
AcDbEntity
  8
0
  6
CONTINUOUS
 62
     7
100
AcDbLine
 10
1242.141286107
 20
845.534427982
 30
0.0
 11
1242.141286107
 21
812.5344281609
 31
0.0
  0
LINE
  5
326
330
1F
100
AcDbEntity
  8
0
  6
CONTINUOUS
 62
     7
100
AcDbLine
 10
1233.7796697023
 20
812.5344281609
 30
0.0
 11
1242.141286107
 21
812.5344281609
 31
0.0
  0
LINE
  5
327
330
1F
100
AcDbEntity
  8
0
  6
CONTINUOUS
 62
     7
100
AcDbLine
 10
1233.7796697023
 20
817.5344233925
 30
0.0
 11
1233.7796697023
 21
812.5344281609
 31
0.0
  0
LINE
  5
328
330
1F
100
AcDbEntity
  8
0
  6
CONTINUOUS
 62
     7
100
AcDbLine
 10
1233.2274410503
 20
817.5344233925
 30
0.0
 11
1233.7796697023
 21
817.5344233925
 31
0.0
  0
LINE
  5
329
330
1F
100
AcDbEntity
  8
0
  6
CONTINUOUS
 62
     7
100
AcDbLine
 10
1233.2274410503
 20
772.5344253296
 30
0.0
 11
1233.7797013672
 21
772.5344253296
 31
0.0
  0
LINE
  5
32A
330
1F
100
AcDbEntity
  8
0
  6
CONTINUOUS
 62
     7
100
AcDbLine
 10
1233.7797013672
 20
777.5344280119
 30
0.0
 11
1233.7797013672
 21
772.5344253296
 31
0.0
  0
LINE
  5
32B
330
1F
100
AcDbEntity
  8
0
  6
CONTINUOUS
 62
     7
100
AcDbLine
 10
1233.7797013672
 20
777.5344280119
 30
0.0
 11
1242.141286107
 21
777.5344280119
 31
0.0
  0
LINE
  5
32C
330
1F
100
AcDbEntity
  8
0
  6
CONTINUOUS
 62
     7
100
AcDbLine
 10
1242.141286107
 20
777.5344280119
 30
0.0
 11
1242.141286107
 21
744.534426328
 31
0.0
  0
LINE
  5
32D
330
1F
100
AcDbEntity
  8
0
  6
CONTINUOUS
 62
     7
100
AcDbLine
 10
1233.7796697023
 20
744.534426328
 30
0.0
 11
1242.141286107
 21
744.534426328
 31
0.0
  0
LINE
  5
32E
330
1F
100
AcDbEntity
  8
0
  6
CONTINUOUS
 62
     7
100
AcDbLine
 10
1233.7796697023
 20
749.5344271476
 30
0.0
 11
1233.7796697023
 21
744.534426328
 31
0.0
  0
LINE
  5
32F
330
1F
100
AcDbEntity
  8
0
  6
CONTINUOUS
 62
     7
100
AcDbLine
 10
1233.2274410503
 20
749.5344271476
 30
0.0
 11
1233.7796697023
 21
749.5344271476
 31
0.0
  0
LINE
  5
330
330
1F
100
AcDbEntity
  8
0
  6
CONTINUOUS
 62
     7
100
AcDbLine
 10
1233.2274410503
 20
971.534422558
 30
0.0
 11
1233.7797013672
 21
971.534422558
 31
0.0
  0
LINE
  5
331
330
1F
100
AcDbEntity
  8
0
  6
CONTINUOUS
 62
     7
100
AcDbLine
 10
1233.7797013672
 20
981.5344279224
 30
0.0
 11
1233.7797013672
 21
971.534422558
 31
0.0
  0
LINE
  5
332
330
1F
100
AcDbEntity
  8
0
  6
CONTINUOUS
 62
     7
100
AcDbLine
 10
1233.7797013672
 20
981.5344279224
 30
0.0
 11
1242.141286107
 21
981.5344279224
 31
0.0
  0
LINE
  5
333
330
1F
100
AcDbEntity
  8
0
  6
CONTINUOUS
 62
     7
100
AcDbLine
 10
1242.141286107
 20
981.5344279224
 30
0.0
 11
1242.141286107
 21
948.5344206507
 31
0.0
  0
LINE
  5
334
330
1F
100
AcDbEntity
  8
0
  6
CONTINUOUS
 62
     7
100
AcDbLine
 10
1233.7796697023
 20
948.5344206507
 30
0.0
 11
1242.141286107
 21
948.5344206507
 31
0.0
  0
LINE
  5
335
330
1F
100
AcDbEntity
  8
0
  6
CONTINUOUS
 62
     7
100
AcDbLine
 10
1233.7796697023
 20
953.5344307835
 30
0.0
 11
1233.7796697023
 21
948.5344206507
 31
0.0
  0
LINE
  5
336
330
1F
100
AcDbEntity
  8
0
  6
CONTINUOUS
 62
     7
100
AcDbLine
 10
1233.2274410503
 20
953.5344307835
 30
0.0
 11
1233.7796697023
 21
953.5344307835
 31
0.0
  0
LINE
  5
337
330
1F
100
AcDbEntity
  8
0
  6
CONTINUOUS
 62
     7
100
AcDbLine
 10
1233.2274410503
 20
908.5344289953
 30
0.0
 11
1233.7797013672
 21
908.5344289953
 31
0.0
  0
LINE
  5
338
330
1F
100
AcDbEntity
  8
0
  6
CONTINUOUS
 62
     7
100
AcDbLine
 10
1233.7797013672
 20
913.534424227
 30
0.0
 11
1233.7797013672
 21
908.5344289953
 31
0.0
  0
LINE
  5
339
330
1F
100
AcDbEntity
  8
0
  6
CONTINUOUS
 62
     7
100
AcDbLine
 10
1233.7797013672
 20
913.534424227
 30
0.0
 11
1242.141286107
 21
913.534424227
 31
0.0
  0
LINE
  5
33A
330
1F
100
AcDbEntity
  8
0
  6
CONTINUOUS
 62
     7
100
AcDbLine
 10
1242.141286107
 20
913.534424227
 30
0.0
 11
1242.141286107
 21
880.5344318564
 31
0.0
  0
LINE
  5
33B
330
1F
100
AcDbEntity
  8
0
  6
CONTINUOUS
 62
     7
100
AcDbLine
 10
1233.7796697023
 20
880.5344318564
 30
0.0
 11
1242.141286107
 21
880.5344318564
 31
0.0
  0
LINE
  5
33C
330
1F
100
AcDbEntity
  8
0
  6
CONTINUOUS
 62
     7
100
AcDbLine
 10
1233.7796697023
 20
885.534427088
 30
0.0
 11
1233.7796697023
 21
880.5344318564
 31
0.0
  0
LINE
  5
33D
330
1F
100
AcDbEntity
  8
0
  6
CONTINUOUS
 62
     7
100
AcDbLine
 10
1233.2274410503
 20
885.534427088
 30
0.0
 11
1233.7796697023
 21
885.534427088
 31
0.0
  0
LINE
  5
33E
330
1F
100
AcDbEntity
  8
0
  6
CONTINUOUS
 62
     7
100
AcDbLine
 10
1233.2274410503
 20
482.534429949
 30
0.0
 11
1233.7797013672
 21
482.534429949
 31
0.0
  0
LINE
  5
33F
330
1F
100
AcDbEntity
  8
0
  6
CONTINUOUS
 62
     7
100
AcDbLine
 10
1233.2274410503
 20
500.5344217236
 30
0.0
 11
1233.7796697023
 21
500.5344217236
 31
0.0
  0
LINE
  5
340
330
1F
100
AcDbEntity
  8
0
  6
CONTINUOUS
 62
     7
100
AcDbLine
 10
1233.7796697023
 20
500.5344217236
 30
0.0
 11
1233.7796697023
 21
505.5344318564
 31
0.0
  0
LINE
  5
341
330
1F
100
AcDbEntity
  8
0
  6
CONTINUOUS
 62
     7
100
AcDbLine
 10
1233.7796697023
 20
505.5344318564
 30
0.0
 11
1242.141286107
 21
505.5344318564
 31
0.0
  0
LINE
  5
342
330
1F
100
AcDbEntity
  8
0
  6
CONTINUOUS
 62
     7
100
AcDbLine
 10
1242.141286107
 20
472.5344245846
 30
0.0
 11
1242.141286107
 21
505.5344318564
 31
0.0
  0
LINE
  5
343
330
1F
100
AcDbEntity
  8
0
  6
CONTINUOUS
 62
     7
100
AcDbLine
 10
1233.7797013672
 20
472.5344245846
 30
0.0
 11
1242.141286107
 21
472.5344245846
 31
0.0
  0
LINE
  5
344
330
1F
100
AcDbEntity
  8
0
  6
CONTINUOUS
 62
     7
100
AcDbLine
 10
1233.7797013672
 20
472.5344245846
 30
0.0
 11
1233.7797013672
 21
482.534429949
 31
0.0
  0
LINE
  5
345
330
1F
100
AcDbEntity
  8
0
  6
CONTINUOUS
 62
     7
100
AcDbLine
 10
1233.2274410503
 20
681.5344271774
 30
0.0
 11
1233.7797013672
 21
681.5344271774
 31
0.0
  0
LINE
  5
346
330
1F
100
AcDbEntity
  8
0
  6
CONTINUOUS
 62
     7
100
AcDbLine
 10
1233.2274410503
 20
704.5344253594
 30
0.0
 11
1233.7796697023
 21
704.5344253594
 31
0.0
  0
LINE
  5
347
330
1F
100
AcDbEntity
  8
0
  6
CONTINUOUS
 62
     7
100
AcDbLine
 10
1233.7796697023
 20
704.5344253594
 30
0.0
 11
1233.7796697023
 21
709.534426179
 31
0.0
  0
LINE
  5
348
330
1F
100
AcDbEntity
  8
0
  6
CONTINUOUS
 62
     7
100
AcDbLine
 10
1233.7796697023
 20
709.534426179
 30
0.0
 11
1242.141286107
 21
709.534426179
 31
0.0
  0
LINE
  5
349
330
1F
100
AcDbEntity
  8
0
  6
CONTINUOUS
 62
     7
100
AcDbLine
 10
1242.141286107
 20
676.5344244952
 30
0.0
 11
1242.141286107
 21
709.534426179
 31
0.0
  0
LINE
  5
34A
330
1F
100
AcDbEntity
  8
0
  6
CONTINUOUS
 62
     7
100
AcDbLine
 10
1233.7797013672
 20
676.5344244952
 30
0.0
 11
1242.141286107
 21
676.5344244952
 31
0.0
  0
LINE
  5
34B
330
1F
100
AcDbEntity
  8
0
  6
CONTINUOUS
 62
     7
100
AcDbLine
 10
1233.7797013672
 20
676.5344244952
 30
0.0
 11
1233.7797013672
 21
681.5344271774
 31
0.0
  0
LINE
  5
34C
330
1F
100
AcDbEntity
  8
0
  6
CONTINUOUS
 62
     7
100
AcDbLine
 10
1233.2274410503
 20
545.5344235117
 30
0.0
 11
1233.7797013672
 21
545.5344235117
 31
0.0
  0
LINE
  5
34D
330
1F
100
AcDbEntity
  8
0
  6
CONTINUOUS
 62
     7
100
AcDbLine
 10
1233.2274410503
 20
568.534425419
 30
0.0
 11
1233.7796697023
 21
568.534425419
 31
0.0
  0
LINE
  5
34E
330
1F
100
AcDbEntity
  8
0
  6
CONTINUOUS
 62
     7
100
AcDbLine
 10
1233.7796697023
 20
568.534425419
 30
0.0
 11
1233.7796697023
 21
573.5344206507
 31
0.0
  0
LINE
  5
34F
330
1F
100
AcDbEntity
  8
0
  6
CONTINUOUS
 62
     7
100
AcDbLine
 10
1233.7796697023
 20
573.5344206507
 30
0.0
 11
1242.141286107
 21
573.5344206507
 31
0.0
  0
LINE
  5
350
330
1F
100
AcDbEntity
  8
0
  6
CONTINUOUS
 62
     7
100
AcDbLine
 10
1242.141286107
 20
540.5344282801
 30
0.0
 11
1242.141286107
 21
573.5344206507
 31
0.0
  0
LINE
  5
351
330
1F
100
AcDbEntity
  8
0
  6
CONTINUOUS
 62
     7
100
AcDbLine
 10
1233.7797013672
 20
540.5344282801
 30
0.0
 11
1242.141286107
 21
540.5344282801
 31
0.0
  0
LINE
  5
352
330
1F
100
AcDbEntity
  8
0
  6
CONTINUOUS
 62
     7
100
AcDbLine
 10
1233.7797013672
 20
540.5344282801
 30
0.0
 11
1233.7797013672
 21
545.5344235117
 31
0.0
  0
LINE
  5
353
330
1F
100
AcDbEntity
  8
0
  6
CONTINUOUS
 62
     7
100
AcDbLine
 10
1233.2274410503
 20
613.5344272072
 30
0.0
 11
1233.7797013672
 21
613.5344272072
 31
0.0
  0
LINE
  5
354
330
1F
100
AcDbEntity
  8
0
  6
CONTINUOUS
 62
     7
100
AcDbLine
 10
1233.2274410503
 20
636.5344291145
 30
0.0
 11
1233.7796697023
 21
636.5344291145
 31
0.0
  0
LINE
  5
355
330
1F
100
AcDbEntity
  8
0
  6
CONTINUOUS
 62
     7
100
AcDbLine
 10
1233.7796697023
 20
636.5344291145
 30
0.0
 11
1233.7796697023
 21
641.5344243462
 31
0.0
  0
LINE
  5
356
330
1F
100
AcDbEntity
  8
0
  6
CONTINUOUS
 62
     7
100
AcDbLine
 10
1233.7796697023
 20
641.5344243462
 30
0.0
 11
1242.141286107
 21
641.5344243462
 31
0.0
  0
LINE
  5
357
330
1F
100
AcDbEntity
  8
0
  6
CONTINUOUS
 62
     7
100
AcDbLine
 10
1242.141286107
 20
608.534424525
 30
0.0
 11
1242.141286107
 21
641.5344243462
 31
0.0
  0
LINE
  5
358
330
1F
100
AcDbEntity
  8
0
  6
CONTINUOUS
 62
     7
100
AcDbLine
 10
1233.7797013672
 20
608.534424525
 30
0.0
 11
1242.141286107
 21
608.534424525
 31
0.0
  0
LINE
  5
359
330
1F
100
AcDbEntity
  8
0
  6
CONTINUOUS
 62
     7
100
AcDbLine
 10
1233.7797013672
 20
608.534424525
 30
0.0
 11
1233.7797013672
 21
613.5344272072
 31
0.0
  0
LINE
  5
35A
330
1F
100
AcDbEntity
  8
0
  6
CONTINUOUS
 62
     7
100
AcDbLine
 10
1242.5250077716
 20
475.0344222004
 30
0.0
 11
1245.8141654127
 21
475.0344222004
 31
0.0
  0
LINE
  5
35B
330
1F
100
AcDbEntity
  8
0
  6
CONTINUOUS
 62
     7
100
AcDbLine
 10
1245.8141654127
 20
472.5344245846
 30
0.0
 11
1245.8141654127
 21
475.0344222004
 31
0.0
  0
LINE
  5
35C
330
1F
100
AcDbEntity
  8
0
  6
CONTINUOUS
 62
     7
100
AcDbLine
 10
1245.8141654127
 20
503.0344193394
 30
0.0
 11
1245.8141654127
 21
505.5344318564
 31
0.0
  0
LINE
  5
35D
330
1F
100
AcDbEntity
  8
0
  6
CONTINUOUS
 62
     7
100
AcDbLine
 10
1242.5250077716
 20
503.0344193394
 30
0.0
 11
1245.8141654127
 21
503.0344193394
 31
0.0
  0
LINE
  5
35E
330
1F
100
AcDbEntity
  8
0
  6
CONTINUOUS
 62
     7
100
AcDbLine
 10
1242.5250077716
 20
475.0344222004
 30
0.0
 11
1242.5250077716
 21
503.0344193394
 31
0.0
  0
LINE
  5
35F
330
1F
100
AcDbEntity
  8
0
  6
CONTINUOUS
 62
     7
100
AcDbLine
 10
1242.141286107
 20
472.5344245846
 30
0.0
 11
1245.8141654127
 21
472.5344245846
 31
0.0
  0
LINE
  5
360
330
1F
100
AcDbEntity
  8
0
  6
CONTINUOUS
 62
     7
100
AcDbLine
 10
1242.141286107
 20
505.5344318564
 30
0.0
 11
1245.8141654127
 21
505.5344318564
 31
0.0
  0
LINE
  5
361
330
1F
100
AcDbEntity
  8
0
  6
CONTINUOUS
 62
     7
100
AcDbLine
 10
1242.5250077716
 20
843.0344229157
 30
0.0
 11
1245.8141654127
 21
843.0344229157
 31
0.0
  0
LINE
  5
362
330
1F
100
AcDbEntity
  8
0
  6
CONTINUOUS
 62
     7
100
AcDbLine
 10
1242.5250077716
 20
843.0344229157
 30
0.0
 11
1242.5250077716
 21
815.0344257767
 31
0.0
  0
LINE
  5
363
330
1F
100
AcDbEntity
  8
0
  6
CONTINUOUS
 62
     7
100
AcDbLine
 10
1242.5250077716
 20
815.0344257767
 30
0.0
 11
1245.8141654127
 21
815.0344257767
 31
0.0
  0
LINE
  5
364
330
1F
100
AcDbEntity
  8
0
  6
CONTINUOUS
 62
     7
100
AcDbLine
 10
1245.8141654127
 20
815.0344257767
 30
0.0
 11
1245.8141654127
 21
812.5344281609
 31
0.0
  0
LINE
  5
365
330
1F
100
AcDbEntity
  8
0
  6
CONTINUOUS
 62
     7
100
AcDbLine
 10
1245.8141654127
 20
845.534427982
 30
0.0
 11
1245.8141654127
 21
843.0344229157
 31
0.0
  0
LINE
  5
366
330
1F
100
AcDbEntity
  8
0
  6
CONTINUOUS
 62
     7
100
AcDbLine
 10
1242.141286107
 20
845.534427982
 30
0.0
 11
1245.8141654127
 21
845.534427982
 31
0.0
  0
LINE
  5
367
330
1F
100
AcDbEntity
  8
0
  6
CONTINUOUS
 62
     7
100
AcDbLine
 10
1242.141286107
 20
812.5344281609
 30
0.0
 11
1245.8141654127
 21
812.5344281609
 31
0.0
  0
LINE
  5
368
330
1F
100
AcDbEntity
  8
0
  6
CONTINUOUS
 62
     7
100
AcDbLine
 10
1242.5250077716
 20
775.0344266707
 30
0.0
 11
1245.8141654127
 21
775.0344266707
 31
0.0
  0
LINE
  5
369
330
1F
100
AcDbEntity
  8
0
  6
CONTINUOUS
 62
     7
100
AcDbLine
 10
1242.5250077716
 20
775.0344266707
 30
0.0
 11
1242.5250077716
 21
747.0344258065
 31
0.0
  0
LINE
  5
36A
330
1F
100
AcDbEntity
  8
0
  6
CONTINUOUS
 62
     7
100
AcDbLine
 10
1242.5250077716
 20
747.0344258065
 30
0.0
 11
1245.8141654127
 21
747.0344258065
 31
0.0
  0
LINE
  5
36B
330
1F
100
AcDbEntity
  8
0
  6
CONTINUOUS
 62
     7
100
AcDbLine
 10
1245.8141654127
 20
747.0344258065
 30
0.0
 11
1245.8141654127
 21
744.534426328
 31
0.0
  0
LINE
  5
36C
330
1F
100
AcDbEntity
  8
0
  6
CONTINUOUS
 62
     7
100
AcDbLine
 10
1245.8141654127
 20
777.5344280119
 30
0.0
 11
1245.8141654127
 21
775.0344266707
 31
0.0
  0
LINE
  5
36D
330
1F
100
AcDbEntity
  8
0
  6
CONTINUOUS
 62
     7
100
AcDbLine
 10
1242.141286107
 20
777.5344280119
 30
0.0
 11
1245.8141654127
 21
777.5344280119
 31
0.0
  0
LINE
  5
36E
330
1F
100
AcDbEntity
  8
0
  6
CONTINUOUS
 62
     7
100
AcDbLine
 10
1242.141286107
 20
744.534426328
 30
0.0
 11
1245.8141654127
 21
744.534426328
 31
0.0
  0
LINE
  5
36F
330
1F
100
AcDbEntity
  8
0
  6
CONTINUOUS
 62
     7
100
AcDbLine
 10
1242.5250077716
 20
543.0344258959
 30
0.0
 11
1245.8141654127
 21
543.0344258959
 31
0.0
  0
LINE
  5
370
330
1F
100
AcDbEntity
  8
0
  6
CONTINUOUS
 62
     7
100
AcDbLine
 10
1245.8141654127
 20
540.5344282801
 30
0.0
 11
1245.8141654127
 21
543.0344258959
 31
0.0
  0
LINE
  5
371
330
1F
100
AcDbEntity
  8
0
  6
CONTINUOUS
 62
     7
100
AcDbLine
 10
1245.8141654127
 20
571.0344230349
 30
0.0
 11
1245.8141654127
 21
573.5344206507
 31
0.0
  0
LINE
  5
372
330
1F
100
AcDbEntity
  8
0
  6
CONTINUOUS
 62
     7
100
AcDbLine
 10
1242.5250077716
 20
571.0344230349
 30
0.0
 11
1245.8141654127
 21
571.0344230349
 31
0.0
  0
LINE
  5
373
330
1F
100
AcDbEntity
  8
0
  6
CONTINUOUS
 62
     7
100
AcDbLine
 10
1242.5250077716
 20
543.0344258959
 30
0.0
 11
1242.5250077716
 21
571.0344230349
 31
0.0
  0
LINE
  5
374
330
1F
100
AcDbEntity
  8
0
  6
CONTINUOUS
 62
     7
100
AcDbLine
 10
1242.141286107
 20
573.5344206507
 30
0.0
 11
1245.8141654127
 21
573.5344206507
 31
0.0
  0
LINE
  5
375
330
1F
100
AcDbEntity
  8
0
  6
CONTINUOUS
 62
     7
100
AcDbLine
 10
1242.141286107
 20
540.5344282801
 30
0.0
 11
1245.8141654127
 21
540.5344282801
 31
0.0
  0
LINE
  5
376
330
1F
100
AcDbEntity
  8
0
  6
CONTINUOUS
 62
     7
100
AcDbLine
 10
1242.5250077716
 20
911.0344266111
 30
0.0
 11
1245.8141654127
 21
911.0344266111
 31
0.0
  0
LINE
  5
377
330
1F
100
AcDbEntity
  8
0
  6
CONTINUOUS
 62
     7
100
AcDbLine
 10
1242.5250077716
 20
911.0344266111
 30
0.0
 11
1242.5250077716
 21
883.0344294722
 31
0.0
  0
LINE
  5
378
330
1F
100
AcDbEntity
  8
0
  6
CONTINUOUS
 62
     7
100
AcDbLine
 10
1242.5250077716
 20
883.0344294722
 30
0.0
 11
1245.8141654127
 21
883.0344294722
 31
0.0
  0
LINE
  5
379
330
1F
100
AcDbEntity
  8
0
  6
CONTINUOUS
 62
     7
100
AcDbLine
 10
1245.8141654127
 20
883.0344294722
 30
0.0
 11
1245.8141654127
 21
880.5344318564
 31
0.0
  0
LINE
  5
37A
330
1F
100
AcDbEntity
  8
0
  6
CONTINUOUS
 62
     7
100
AcDbLine
 10
1245.8141654127
 20
913.534424227
 30
0.0
 11
1245.8141654127
 21
911.0344266111
 31
0.0
  0
LINE
  5
37B
330
1F
100
AcDbEntity
  8
0
  6
CONTINUOUS
 62
     7
100
AcDbLine
 10
1242.141286107
 20
913.534424227
 30
0.0
 11
1245.8141654127
 21
913.534424227
 31
0.0
  0
LINE
  5
37C
330
1F
100
AcDbEntity
  8
0
  6
CONTINUOUS
 62
     7
100
AcDbLine
 10
1242.141286107
 20
880.5344318564
 30
0.0
 11
1245.8141654127
 21
880.5344318564
 31
0.0
  0
LINE
  5
37D
330
1F
100
AcDbEntity
  8
0
  6
CONTINUOUS
 62
     7
100
AcDbLine
 10
1242.5250077716
 20
679.0344258363
 30
0.0
 11
1245.8141654127
 21
679.0344258363
 31
0.0
  0
LINE
  5
37E
330
1F
100
AcDbEntity
  8
0
  6
CONTINUOUS
 62
     7
100
AcDbLine
 10
1245.8141654127
 20
676.5344244952
 30
0.0
 11
1245.8141654127
 21
679.0344258363
 31
0.0
  0
LINE
  5
37F
330
1F
100
AcDbEntity
  8
0
  6
CONTINUOUS
 62
     7
100
AcDbLine
 10
1245.8141654127
 20
707.0344267005
 30
0.0
 11
1245.8141654127
 21
709.534426179
 31
0.0
  0
LINE
  5
380
330
1F
100
AcDbEntity
  8
0
  6
CONTINUOUS
 62
     7
100
AcDbLine
 10
1242.5250077716
 20
707.0344267005
 30
0.0
 11
1245.8141654127
 21
707.0344267005
 31
0.0
  0
LINE
  5
381
330
1F
100
AcDbEntity
  8
0
  6
CONTINUOUS
 62
     7
100
AcDbLine
 10
1242.5250077716
 20
679.0344258363
 30
0.0
 11
1242.5250077716
 21
707.0344267005
 31
0.0
  0
LINE
  5
382
330
1F
100
AcDbEntity
  8
0
  6
CONTINUOUS
 62
     7
100
AcDbLine
 10
1242.141286107
 20
676.5344244952
 30
0.0
 11
1245.8141654127
 21
676.5344244952
 31
0.0
  0
LINE
  5
383
330
1F
100
AcDbEntity
  8
0
  6
CONTINUOUS
 62
     7
100
AcDbLine
 10
1242.141286107
 20
709.534426179
 30
0.0
 11
1245.8141654127
 21
709.534426179
 31
0.0
  0
LINE
  5
384
330
1F
100
AcDbEntity
  8
0
  6
CONTINUOUS
 62
     7
100
AcDbLine
 10
1242.5250077716
 20
611.0344295914
 30
0.0
 11
1245.8141654127
 21
611.0344295914
 31
0.0
  0
LINE
  5
385
330
1F
100
AcDbEntity
  8
0
  6
CONTINUOUS
 62
     7
100
AcDbLine
 10
1245.8141654127
 20
608.534424525
 30
0.0
 11
1245.8141654127
 21
611.0344295914
 31
0.0
  0
LINE
  5
386
330
1F
100
AcDbEntity
  8
0
  6
CONTINUOUS
 62
     7
100
AcDbLine
 10
1245.8141654127
 20
639.0344267304
 30
0.0
 11
1245.8141654127
 21
641.5344243462
 31
0.0
  0
LINE
  5
387
330
1F
100
AcDbEntity
  8
0
  6
CONTINUOUS
 62
     7
100
AcDbLine
 10
1242.5250077716
 20
639.0344267304
 30
0.0
 11
1245.8141654127
 21
639.0344267304
 31
0.0
  0
LINE
  5
388
330
1F
100
AcDbEntity
  8
0
  6
CONTINUOUS
 62
     7
100
AcDbLine
 10
1242.5250077716
 20
611.0344295914
 30
0.0
 11
1242.5250077716
 21
639.0344267304
 31
0.0
  0
LINE
  5
389
330
1F
100
AcDbEntity
  8
0
  6
CONTINUOUS
 62
     7
100
AcDbLine
 10
1242.141286107
 20
608.534424525
 30
0.0
 11
1245.8141654127
 21
608.534424525
 31
0.0
  0
LINE
  5
38A
330
1F
100
AcDbEntity
  8
0
  6
CONTINUOUS
 62
     7
100
AcDbLine
 10
1242.141286107
 20
641.5344243462
 30
0.0
 11
1245.8141654127
 21
641.5344243462
 31
0.0
  0
LINE
  5
38B
330
1F
100
AcDbEntity
  8
0
  6
CONTINUOUS
 62
     7
100
AcDbLine
 10
1242.5250077716
 20
979.0344303066
 30
0.0
 11
1245.8141654127
 21
979.0344303066
 31
0.0
  0
LINE
  5
38C
330
1F
100
AcDbEntity
  8
0
  6
CONTINUOUS
 62
     7
100
AcDbLine
 10
1242.5250077716
 20
979.0344303066
 30
0.0
 11
1242.5250077716
 21
951.0344331677
 31
0.0
  0
LINE
  5
38D
330
1F
100
AcDbEntity
  8
0
  6
CONTINUOUS
 62
     7
100
AcDbLine
 10
1242.5250077716
 20
951.0344331677
 30
0.0
 11
1245.8141654127
 21
951.0344331677
 31
0.0
  0
LINE
  5
38E
330
1F
100
AcDbEntity
  8
0
  6
CONTINUOUS
 62
     7
100
AcDbLine
 10
1245.8141654127
 20
951.0344331677
 30
0.0
 11
1245.8141654127
 21
948.5344206507
 31
0.0
  0
LINE
  5
38F
330
1F
100
AcDbEntity
  8
0
  6
CONTINUOUS
 62
     7
100
AcDbLine
 10
1245.8141654127
 20
981.5344279224
 30
0.0
 11
1245.8141654127
 21
979.0344303066
 31
0.0
  0
LINE
  5
390
330
1F
100
AcDbEntity
  8
0
  6
CONTINUOUS
 62
     7
100
AcDbLine
 10
1242.141286107
 20
981.5344279224
 30
0.0
 11
1245.8141654127
 21
981.5344279224
 31
0.0
  0
LINE
  5
391
330
1F
100
AcDbEntity
  8
0
  6
CONTINUOUS
 62
     7
100
AcDbLine
 10
1242.141286107
 20
948.5344206507
 30
0.0
 11
1245.8141654127
 21
948.5344206507
 31
0.0
  0
LWPOLYLINE
  5
392
330
1F
100
AcDbEntity
  8
0
  6
CONTINUOUS
 62
     7
100
AcDbPolyline
 90
        3
 70
   128
 43
0.0
 10
1249.2696605252
 20
1002.7369921619
 10
1249.1725901703
 20
1000.3260140831
 10
1249.1188516936
 20
997.6893728191
  0
LINE
  5
393
330
1F
100
AcDbEntity
  8
0
  6
CONTINUOUS
 62
     7
100
AcDbLine
 10
1249.1188516936
 20
997.6893728191
 30
0.0
 11
1233.2274410503
 21
998.5221987183
 31
0.0
  0
LWPOLYLINE
  5
394
330
1F
100
AcDbEntity
  8
0
  6
CONTINUOUS
 62
     7
100
AcDbPolyline
 90
        5
 70
   128
 43
0.0
 10
1233.2274410503
 20
1008.0091720039
 10
1233.2333782318
 20
1007.2872107441
 10
1233.2380506771
 20
1005.2315359528
 10
1233.2333782318
 20
1002.1543567593
 10
1233.2274410503
 20
998.5221987183
  0
LINE
  5
395
330
1F
100
AcDbEntity
  8
0
  6
CONTINUOUS
 62
     7
100
AcDbLine
 10
1249.1188516936
 20
1007.1763461048
 30
0.0
 11
1233.2274410503
 21
1008.0091720039
 31
0.0
  0
LINE
  5
396
330
1F
100
AcDbEntity
  8
0
  6
CONTINUOUS
 62
     7
100
AcDbLine
 10
1249.1188516936
 20
1007.1763461048
 30
0.0
 11
1249.1319882313
 21
1007.0843165333
 31
0.0
  0
LWPOLYLINE
  5
397
330
1F
100
AcDbEntity
  8
0
  6
CONTINUOUS
 62
     7
100
AcDbPolyline
 90
        3
 70
   128
 43
0.0
 10
1249.2696605252
 20
1005.7113831455
 10
1249.3172650787
 20
1004.3889646942
 10
1249.2696605252
 20
1002.7369921619
  0
LWPOLYLINE
  5
398
330
1F
100
AcDbEntity
  8
0
  6
CONTINUOUS
 62
     7
100
AcDbPolyline
 90
        3
 70
   128
 43
0.0
 10
1249.2696605252
 20
451.3318603451
 10
1249.1725901703
 20
453.7428384239
 10
1249.1188516936
 20
456.3794796879
  0
LWPOLYLINE
  5
399
330
1F
100
AcDbEntity
  8
0
  6
CONTINUOUS
 62
     7
100
AcDbPolyline
 90
        3
 70
   128
 43
0.0
 10
1249.2696605252
 20
448.3574693615
 10
1249.3172650787
 20
449.6798878128
 10
1249.2696605252
 20
451.3318603451
  0
LINE
  5
39A
330
1F
100
AcDbEntity
  8
0
  6
CONTINUOUS
 62
     7
100
AcDbLine
 10
1249.1188516936
 20
446.8925064022
 30
0.0
 11
1249.1319882313
 21
446.9845359737
 31
0.0
  0
LINE
  5
39B
330
1F
100
AcDbEntity
  8
0
  6
CONTINUOUS
 62
     7
100
AcDbLine
 10
1249.1188516936
 20
446.8925064022
 30
0.0
 11
1233.2274410503
 21
446.0596805031
 31
0.0
  0
LINE
  5
39C
330
1F
100
AcDbEntity
  8
0
  6
CONTINUOUS
 62
     7
100
AcDbLine
 10
1249.1188516936
 20
456.3794796879
 30
0.0
 11
1233.2274410503
 21
455.5466537888
 31
0.0
  0
LINE
  5
39D
330
1F
100
AcDbEntity
  8
0
  6
CONTINUOUS
 62
     7
100
AcDbLine
 10
1233.2274410503
 20
446.0596805031
 30
0.0
 11
1233.2274410503
 21
455.5466537888
 31
0.0
  0
LINE
  5
39E
330
1F
100
AcDbEntity
  8
0
  6
CONTINUOUS
 62
     7
100
AcDbLine
 10
1244.7814776017
 20
744.534426328
 30
0.0
 11
1244.7814776017
 21
709.534426179
 31
0.0
  0
LINE
  5
39F
330
1F
100
AcDbEntity
  8
0
  6
CONTINUOUS
 62
     7
100
AcDbLine
 10
1244.7814776017
 20
777.5344280119
 30
0.0
 11
1244.7814776017
 21
812.5344281609
 31
0.0
  0
LINE
  5
3A0
330
1F
100
AcDbEntity
  8
0
  6
CONTINUOUS
 62
     7
100
AcDbLine
 10
1244.7814776017
 20
845.534427982
 30
0.0
 11
1244.7814776017
 21
880.5344318564
 31
0.0
  0
LINE
  5
3A1
330
1F
100
AcDbEntity
  8
0
  6
CONTINUOUS
 62
     7
100
AcDbLine
 10
1244.7814776017
 20
913.534424227
 30
0.0
 11
1244.7814776017
 21
948.5344206507
 31
0.0
  0
LINE
  5
3A2
330
1F
100
AcDbEntity
  8
0
  6
CONTINUOUS
 62
     7
100
AcDbLine
 10
1233.4297010305
 20
981.5344279224
 30
0.0
 11
1233.2274410503
 21
981.5344279224
 31
0.0
  0
LINE
  5
3A3
330
1F
100
AcDbEntity
  8
0
  6
CONTINUOUS
 62
     7
100
AcDbLine
 10
1249.1188516936
 20
456.3794796879
 30
0.0
 11
1249.1188516936
 21
997.6893728191
 31
0.0
  0
LINE
  5
3A4
330
1F
100
AcDbEntity
  8
0
  6
CONTINUOUS
 62
     7
100
AcDbLine
 10
1233.7797013672
 20
472.5344245846
 30
0.0
 11
1233.2274410503
 21
472.5344245846
 31
0.0
  0
LINE
  5
3A5
330
1F
100
AcDbEntity
  8
0
  6
CONTINUOUS
 62
     7
100
AcDbLine
 10
1244.7814776017
 20
540.5344282801
 30
0.0
 11
1244.7814776017
 21
505.5344318564
 31
0.0
  0
LINE
  5
3A6
330
1F
100
AcDbEntity
  8
0
  6
CONTINUOUS
 62
     7
100
AcDbLine
 10
1244.7814776017
 20
608.534424525
 30
0.0
 11
1244.7814776017
 21
573.5344206507
 31
0.0
  0
LINE
  5
3A7
330
1F
100
AcDbEntity
  8
0
  6
CONTINUOUS
 62
     7
100
AcDbLine
 10
1244.7814776017
 20
676.5344244952
 30
0.0
 11
1244.7814776017
 21
641.5344243462
 31
0.0
  0
LINE
  5
3A8
330
1F
100
AcDbEntity
  8
0
  6
CONTINUOUS
 62
     7
100
AcDbLine
 10
1233.2274410503
 20
998.5221987183
 30
0.0
 11
1233.2274410503
 21
981.5344279224
 31
0.0
  0
LINE
  5
3A9
330
1F
100
AcDbEntity
  8
0
  6
CONTINUOUS
 62
     7
100
AcDbLine
 10
1233.2274410503
 20
455.5466537888
 30
0.0
 11
1233.2274410503
 21
472.5344245846
 31
0.0
  0
LINE
  5
3AA
330
1F
100
AcDbEntity
  8
0
  6
CONTINUOUS
 62
     7
100
AcDbLine
 10
1249.1188516936
 20
997.6893728191
 30
0.0
 11
1251.0049719924
 21
997.6893728191
 31
0.0
  0
LINE
  5
3AB
330
1F
100
AcDbEntity
  8
0
  6
CONTINUOUS
 62
     7
100
AcDbLine
 10
1251.0049719924
 20
997.6893728191
 30
0.0
 11
1251.0049719924
 21
456.3794796879
 31
0.0
  0
LINE
  5
3AC
330
1F
100
AcDbEntity
  8
0
  6
CONTINUOUS
 62
     7
100
AcDbLine
 10
1249.1188516936
 20
456.3794796879
 30
0.0
 11
1251.0049719924
 21
456.3794796879
 31
0.0
  0
ARC
  5
3AD
330
1F
100
AcDbEntity
  8
0
  6
CONTINUOUS
 62
     7
100
AcDbCircle
 10
1249.4100056704
 20
1000.844709272
 30
0.0
 40
1.897391948095443
100
AcDbArc
 50
25.9421202176
 51
94.2422462648
  0
LWPOLYLINE
  5
3AE
330
1F
100
AcDbEntity
  8
0
  6
CONTINUOUS
 62
     7
100
AcDbPolyline
 90
        3
 70
   128
 43
0.0
 10
1251.1162953081
 20
1001.6747181828
 10
1251.0332031737
 20
999.7597699577
 10
1251.0049719924
 20
997.6893728191
  0
LWPOLYLINE
  5
3AF
330
1F
100
AcDbEntity
  8
0
  6
CONTINUOUS
 62
     7
100
AcDbPolyline
 90
        3
 70
   128
 43
0.0
 10
1251.1162953081
 20
452.3941343243
 10
1251.0332031737
 20
454.3090825493
 10
1251.0049719924
 20
456.3794796879
  0
ARC
  5
3B0
330
1F
100
AcDbEntity
  8
0
  6
CONTINUOUS
 62
     7
100
AcDbCircle
 10
1249.4098979959
 20
453.2244156519
 30
0.0
 40
1.897685000096233
100
AcDbArc
 50
265.7618250063
 51
334.0530374849
  0
LINE
  5
3B1
330
1F
100
AcDbEntity
  8
0
  6
CONTINUOUS
 62
     7
100
AcDbLine
 10
1251.0380637462
 20
1004.4689839298
 30
0.0
 11
1251.1162957738
 21
1004.2146211083
 31
0.0
  0
LINE
  5
3B2
330
1F
100
AcDbEntity
  8
0
  6
CONTINUOUS
 62
     7
100
AcDbLine
 10
1251.1162953081
 20
1004.2146509106
 30
0.0
 11
1251.1256434584
 21
1003.9950375969
 31
0.0
  0
LINE
  5
3B3
330
1F
100
AcDbEntity
  8
0
  6
CONTINUOUS
 62
     7
100
AcDbLine
 10
1251.1162953081
 20
449.8542015965
 30
0.0
 11
1251.1256434584
 21
450.0738149101
 31
0.0
  0
LINE
  5
3B4
330
1F
100
AcDbEntity
  8
0
  6
CONTINUOUS
 62
     7
100
AcDbLine
 10
1251.0380306842
 20
449.5998685772
 30
0.0
 11
1251.116221268
 21
449.8542313988
 31
0.0
  0
LINE
  5
3B5
330
1F
100
AcDbEntity
  8
0
  6
CONTINUOUS
 62
     7
100
AcDbLine
 10
1251.4904941993
 20
997.7885251457
 30
0.0
 11
1251.1162953081
 21
1001.6747181828
 31
0.0
  0
LINE
  5
3B6
330
1F
100
AcDbEntity
  8
0
  6
CONTINUOUS
 62
     7
100
AcDbLine
 10
1251.4904941993
 20
980.8214073593
 30
0.0
 11
1251.4904941993
 21
997.7885251457
 31
0.0
  0
LINE
  5
3B7
330
1F
100
AcDbEntity
  8
0
  6
CONTINUOUS
 62
     7
100
AcDbLine
 10
1251.4904290067
 20
980.8214073593
 30
0.0
 11
1252.4171182515
 21
980.7870154793
 31
0.0
  0
LINE
  5
3B8
330
1F
100
AcDbEntity
  8
0
  6
CONTINUOUS
 62
     7
100
AcDbLine
 10
1252.4171531761
 20
980.7809358055
 30
0.0
 11
1252.4171531761
 21
473.2879167015
 31
0.0
  0
LINE
  5
3B9
330
1F
100
AcDbEntity
  8
0
  6
CONTINUOUS
 62
     7
100
AcDbLine
 10
1251.4904941993
 20
473.2474451477
 30
0.0
 11
1252.4171550388
 21
473.2818370277
 31
0.0
  0
LINE
  5
3BA
330
1F
100
AcDbEntity
  8
0
  6
CONTINUOUS
 62
     7
100
AcDbLine
 10
1251.4904941993
 20
473.2474451477
 30
0.0
 11
1251.4904941993
 21
456.2803273613
 31
0.0
  0
LINE
  5
3BB
330
1F
100
AcDbEntity
  8
0
  6
CONTINUOUS
 62
     7
100
AcDbLine
 10
1251.4904941993
 20
456.2803273613
 30
0.0
 11
1251.1162953081
 21
452.3941343243
 31
0.0
  0
LWPOLYLINE
  5
3BC
330
1F
100
AcDbEntity
  8
0
  6
CONTINUOUS
 62
     7
100
AcDbPolyline
 90
        7
 70
   128
 43
0.0
 10
1251.4904941993
 20
453.7404244358
 10
1251.4904611374
 20
453.8992708141
 10
1251.4904364573
 20
454.0977244789
 10
1251.4904243501
 20
454.3753927166
 10
1251.490435526
 20
454.7324245388
 10
1251.490460206
 20
455.1689689571
 10
1251.4904941993
 20
456.2803273613
  0
LINE
  5
3BD
330
1F
100
AcDbEntity
  8
0
  6
CONTINUOUS
 62
     7
100
AcDbLine
 10
1251.1162953081
 20
449.8542015965
 30
0.0
 11
1251.4904941993
 21
453.7404244358
 31
0.0
  0
LINE
  5
3BE
330
1F
100
AcDbEntity
  8
0
  6
CONTINUOUS
 62
     7
100
AcDbLine
 10
1251.1162953081
 20
1004.2146509106
 30
0.0
 11
1251.4904941993
 21
1000.3284280712
 31
0.0
  0
LINE
  5
3BF
330
1F
100
AcDbEntity
  8
0
  6
CONTINUOUS
 62
     7
100
AcDbLine
 10
1251.4904941993
 20
1000.3284280712
 30
0.0
 11
1251.4904941993
 21
997.7885251457
 31
0.0
  0
LINE
  5
3C0
330
1F
100
AcDbEntity
  8
0
  6
CONTINUOUS
 62
     7
100
AcDbLine
 10
1251.0049719924
 20
448.6980801041
 30
0.0
 11
1251.0143234024
 21
448.7952058727
 31
0.0
  0
LINE
  5
3C1
330
1F
100
AcDbEntity
  8
0
  6
CONTINUOUS
 62
     7
100
AcDbLine
 10
1251.0049719924
 20
1005.370772403
 30
0.0
 11
1251.0143234024
 21
1005.2736764366
 31
0.0
  0
ARC
  5
3C2
330
1F
100
AcDbEntity
  8
0
  6
CONTINUOUS
 62
     7
100
AcDbCircle
 10
1251.9184585824
 20
980.7822878556
 30
0.0
 40
0.4986964265898438
100
AcDbArc
 50
359.8446612971
 51
86.8775400604
  0
LINE
  5
3C3
330
1F
100
AcDbEntity
  8
0
  6
CONTINUOUS
 62
     7
100
AcDbLine
 10
1251.4904941993
 20
981.3040857727
 30
0.0
 11
1251.945622694
 21
981.2802439148
 31
0.0
  0
ARC
  5
3C4
330
1F
100
AcDbEntity
  8
0
  6
CONTINUOUS
 62
     7
100
AcDbCircle
 10
1251.9184585824
 20
473.2865646515
 30
0.0
 40
0.4986964265898436
100
AcDbArc
 50
273.1224599396
 51
0.1553387029
  0
LINE
  5
3C5
330
1F
100
AcDbEntity
  8
0
  6
CONTINUOUS
 62
     7
100
AcDbLine
 10
1251.4904941993
 20
472.7647667343
 30
0.0
 11
1251.945622694
 21
472.7886085922
 31
0.0
  0
LINE
  5
3C6
330
1F
100
AcDbEntity
  8
0
  6
CONTINUOUS
 62
     7
100
AcDbLine
 10
1241.2274409647
 20
913.534424227
 30
0.0
 11
1241.2274409647
 21
948.5344206507
 31
0.0
  0
LINE
  5
3C7
330
1F
100
AcDbEntity
  8
0
  6
CONTINUOUS
 62
     7
100
AcDbLine
 10
1241.2274409647
 20
709.534426179
 30
0.0
 11
1241.2274409647
 21
744.534426328
 31
0.0
  0
LINE
  5
3C8
330
1F
100
AcDbEntity
  8
0
  6
CONTINUOUS
 62
     7
100
AcDbLine
 10
1241.2274409647
 20
540.5344282801
 30
0.0
 11
1241.2274409647
 21
505.5344318564
 31
0.0
  0
LINE
  5
3C9
330
1F
100
AcDbEntity
  8
0
  6
CONTINUOUS
 62
     7
100
AcDbLine
 10
1241.2274409647
 20
676.5344244952
 30
0.0
 11
1241.2274409647
 21
641.5344243462
 31
0.0
  0
LINE
  5
3CA
330
1F
100
AcDbEntity
  8
0
  6
CONTINUOUS
 62
     7
100
AcDbLine
 10
1241.2274409647
 20
777.5344280119
 30
0.0
 11
1241.2274409647
 21
812.5344281609
 31
0.0
  0
LINE
  5
3CB
330
1F
100
AcDbEntity
  8
0
  6
CONTINUOUS
 62
     7
100
AcDbLine
 10
1241.2274409647
 20
845.534427982
 30
0.0
 11
1241.2274409647
 21
880.5344318564
 31
0.0
  0
LINE
  5
3CC
330
1F
100
AcDbEntity
  8
0
  6
CONTINUOUS
 62
     7
100
AcDbLine
 10
1241.2274409647
 20
608.534424525
 30
0.0
 11
1241.2274409647
 21
573.5344206507
 31
0.0
  0
ARC
  5
3CD
330
1F
100
AcDbEntity
  8
0
  6
CONTINUOUS
 62
     7
100
AcDbCircle
 10
1260.7869136057
 20
1088.7722827191
 30
0.0
 40
108.3091444705622
100
AcDbArc
 50
265.5679611541
 51
266.5680882073
  0
LINE
  5
3CE
330
1F
100
AcDbEntity
  8
0
  6
CONTINUOUS
 62
     7
100
AcDbLine
 10
1254.3032737079
 20
473.4114771301
 30
0.0
 11
1254.3032737079
 21
980.6573753769
 31
0.0
  0
ARC
  5
3CF
330
1F
100
AcDbEntity
  8
0
  6
CONTINUOUS
 62
     7
100
AcDbCircle
 10
1260.7819630614
 20
365.3685946235
 30
0.0
 40
108.2369524519412
100
AcDbArc
 50
93.4315782513
 51
94.4323723874
  0
LWPOLYLINE
  5
3D0
330
1F
100
AcDbEntity
  8
0
  6
CONTINUOUS
 62
     7
100
AcDbPolyline
 90
        3
 70
   128
 43
0.0
 10
1254.3032737079
 20
980.6573753769
 10
1253.5483734312
 20
981.0486500675
 10
1252.8332499417
 20
981.2337224896
  0
LWPOLYLINE
  5
3D1
330
1F
100
AcDbEntity
  8
0
  6
CONTINUOUS
 62
     7
100
AcDbPolyline
 90
        3
 70
   128
 43
0.0
 10
1252.8332499417
 20
981.2337224896
 10
1252.225276977
 20
981.2655811722
 10
1251.945622694
 20
981.2802439148
  0
LWPOLYLINE
  5
3D2
330
1F
100
AcDbEntity
  8
0
  6
CONTINUOUS
 62
     7
100
AcDbPolyline
 90
        3
 70
   128
 43
0.0
 10
1254.3032737079
 20
473.4114771301
 10
1253.5483734312
 20
473.0202024395
 10
1252.8332499417
 20
472.8351300175
  0
LWPOLYLINE
  5
3D3
330
1F
100
AcDbEntity
  8
0
  6
CONTINUOUS
 62
     7
100
AcDbPolyline
 90
        3
 70
   128
 43
0.0
 10
1252.8332499417
 20
472.8351300175
 10
1252.225276977
 20
472.8032713348
 10
1251.945622694
 20
472.7886085922
  0
LINE
  5
3D4
330
1F
100
AcDbEntity
  8
0
  6
CONTINUOUS
 62
     7
100
AcDbLine
 10
1251.490491871
 20
987.2965579445
 30
0.0
 11
1273.7294975298
 21
986.1310785229
 31
0.0
  0
LINE
  5
3D5
330
1F
100
AcDbEntity
  8
0
  6
CONTINUOUS
 62
     7
100
AcDbLine
 10
1273.7294975298
 20
986.1310785229
 30
0.0
 11
1275.2274404841
 21
986.0525494034
 31
0.0
  0
LWPOLYLINE
  5
3D6
330
1F
100
AcDbEntity
  8
0
  6
CONTINUOUS
 62
     7
100
AcDbPolyline
 90
        7
 70
   128
 43
0.0
 10
1275.2276528256
 20
980.6054597313
 10
1275.2280216294
 20
981.7264740879
 10
1275.2281110363
 20
982.7682738716
 10
1275.2273752915
 20
984.4826822693
 10
1275.2278782057
 20
985.6297140533
 10
1275.2277031171
 20
985.9469001705
 10
1275.2274404841
 20
986.0525494034
  0
LINE
  5
3D7
330
1F
100
AcDbEntity
  8
0
  6
CONTINUOUS
 62
     7
100
AcDbLine
 10
1274.1046137737
 20
980.6189601833
 30
0.0
 11
1275.2276528256
 21
980.6054597313
 31
0.0
  0
LINE
  5
3D8
330
1F
100
AcDbEntity
  8
0
  6
CONTINUOUS
 62
     7
100
AcDbLine
 10
1273.7295273321
 20
980.6385999138
 30
0.0
 11
1274.1046137737
 21
980.6189601833
 31
0.0
  0
LINE
  5
3D9
330
1F
100
AcDbEntity
  8
0
  6
CONTINUOUS
 62
     7
100
AcDbLine
 10
1273.7295049804
 20
980.6385999138
 30
0.0
 11
1251.4904862831
 21
981.8050330097
 31
0.0
  0
LINE
  5
3DA
330
1F
100
AcDbEntity
  8
0
  6
CONTINUOUS
 62
     7
100
AcDbLine
 10
1275.2276416498
 20
473.4633927757
 30
0.0
 11
1275.2276416498
 21
980.6054597313
 31
0.0
  0
LINE
  5
3DB
330
1F
100
AcDbEntity
  8
0
  6
CONTINUOUS
 62
     7
100
AcDbLine
 10
1273.7294900792
 20
473.4302525932
 30
0.0
 11
1275.2276416498
 21
473.4633927757
 31
0.0
  0
LINE
  5
3DC
330
1F
100
AcDbEntity
  8
0
  6
CONTINUOUS
 62
     7
100
AcDbLine
 10
1273.7295142936
 20
473.4302525932
 30
0.0
 11
1251.4905100318
 21
472.2638194973
 31
0.0
  0
LINE
  5
3DD
330
1F
100
AcDbEntity
  8
0
  6
CONTINUOUS
 62
     7
100
AcDbLine
 10
1275.2274404841
 20
473.4633927757
 30
0.0
 11
1275.2274404841
 21
468.0163031036
 31
0.0
  0
LINE
  5
3DE
330
1F
100
AcDbEntity
  8
0
  6
CONTINUOUS
 62
     7
100
AcDbLine
 10
1273.729506843
 20
467.9376547749
 30
0.0
 11
1275.2274404841
 21
468.0163031036
 31
0.0
  0
LINE
  5
3DF
330
1F
100
AcDbEntity
  8
0
  6
CONTINUOUS
 62
     7
100
AcDbLine
 10
1251.4904993216
 20
466.7721455509
 30
0.0
 11
1273.729506843
 21
467.9376547749
 31
0.0
  0
LINE
  5
3E0
330
1F
100
AcDbEntity
  8
0
  6
CONTINUOUS
 62
     7
100
AcDbLine
 10
1252.1149832385
 20
988.8979261334
 30
0.0
 11
1251.4904941993
 21
995.383477729
 31
0.0
  0
LWPOLYLINE
  5
3E1
330
1F
100
AcDbEntity
  8
0
  6
CONTINUOUS
 62
     7
100
AcDbPolyline
 90
        3
 70
   128
 43
0.0
 10
1252.1149832385
 20
988.8979261334
 10
1252.3967749069
 20
987.9739647324
 10
1252.9843723962
 20
987.2182672436
  0
LWPOLYLINE
  5
3E2
330
1F
100
AcDbEntity
  8
0
  6
CONTINUOUS
 62
     7
100
AcDbPolyline
 90
        3
 70
   128
 43
0.0
 10
1252.1149832385
 20
465.1709263737
 10
1252.3967749069
 20
466.0948877747
 10
1252.9843723962
 20
466.8505852634
  0
LINE
  5
3E3
330
1F
100
AcDbEntity
  8
0
  6
CONTINUOUS
 62
     7
100
AcDbLine
 10
1252.1149832385
 20
465.1709263737
 30
0.0
 11
1251.4904941993
 21
458.685374778
 31
0.0
  0
ARC
  5
3E4
330
1F
100
AcDbEntity
  8
0
  6
CONTINUOUS
 62
     7
100
AcDbCircle
 10
1249.9203021521
 20
441.2054764324
 30
0.0
 40
24.06573115366831
100
AcDbArc
 50
83.6393310487
 51
84.7676256164
  0
LINE
  5
3E5
330
1F
100
AcDbEntity
  8
0
  6
CONTINUOUS
 62
     7
100
AcDbLine
 10
1252.586513255
 20
465.1230042393
 30
0.0
 11
1251.4904941993
 21
453.7404244358
 31
0.0
  0
ARC
  5
3E6
330
1F
100
AcDbEntity
  8
0
  6
CONTINUOUS
 62
     7
100
AcDbCircle
 10
1249.9203021521
 20
1012.8633760747
 30
0.0
 40
24.06573115366819
100
AcDbArc
 50
275.2323743836
 51
276.3606689513
  0
LINE
  5
3E7
330
1F
100
AcDbEntity
  8
0
  6
CONTINUOUS
 62
     7
100
AcDbLine
 10
1252.5864620323
 20
988.9458482678
 30
0.0
 11
1251.4904029297
 21
1000.3284280712
 31
0.0
  0
ARC
  5
3E8
330
1F
100
AcDbEntity
  8
0
  6
CONTINUOUS
 62
     7
100
AcDbCircle
 10
1254.5773170117
 20
989.1375440433
 30
0.0
 40
2.000011717008042
100
AcDbArc
 50
185.5000905865
 51
266.999292315
  0
ARC
  5
3E9
330
1F
100
AcDbEntity
  8
0
  6
CONTINUOUS
 62
     7
100
AcDbCircle
 10
1254.5772941778
 20
464.9313323161
 30
0.0
 40
1.999986702143194
100
AcDbArc
 50
93.0000902048
 51
174.5005268937
  0
LINE
  5
3EA
330
1F
100
AcDbEntity
  8
0
  6
CONTINUOUS
 62
     7
100
AcDbLine
 10
1235.2246427538
 20
948.5344206507
 30
0.0
 11
1235.2246427538
 21
913.534424227
 31
0.0
  0
LINE
  5
3EB
330
1F
100
AcDbEntity
  8
0
  6
CONTINUOUS
 62
     7
100
AcDbLine
 10
1235.2246427538
 20
880.5344318564
 30
0.0
 11
1235.2246427538
 21
845.534427982
 31
0.0
  0
LINE
  5
3EC
330
1F
100
AcDbEntity
  8
0
  6
CONTINUOUS
 62
     7
100
AcDbLine
 10
1235.2246427538
 20
812.5344281609
 30
0.0
 11
1235.2246427538
 21
777.5344280119
 31
0.0
  0
LINE
  5
3ED
330
1F
100
AcDbEntity
  8
0
  6
CONTINUOUS
 62
     7
100
AcDbLine
 10
1235.2246427538
 20
744.534426328
 30
0.0
 11
1235.2246427538
 21
709.534426179
 31
0.0
  0
LINE
  5
3EE
330
1F
100
AcDbEntity
  8
0
  6
CONTINUOUS
 62
     7
100
AcDbLine
 10
1235.2246427538
 20
676.5344244952
 30
0.0
 11
1235.2246427538
 21
641.5344243462
 31
0.0
  0
LINE
  5
3EF
330
1F
100
AcDbEntity
  8
0
  6
CONTINUOUS
 62
     7
100
AcDbLine
 10
1235.2246427538
 20
608.534424525
 30
0.0
 11
1235.2246427538
 21
573.5344206507
 31
0.0
  0
LINE
  5
3F0
330
1F
100
AcDbEntity
  8
0
  6
CONTINUOUS
 62
     7
100
AcDbLine
 10
1235.2246427538
 20
540.5344282801
 30
0.0
 11
1235.2246427538
 21
505.5344318564
 31
0.0
  0
LINE
  5
3F1
330
1F
100
AcDbEntity
  8
0
  6
CONTINUOUS
 62
     7
100
AcDbLine
 10
1233.2274410503
 20
472.7094238216
 30
0.0
 11
1233.2274410503
 21
482.3594158108
 31
0.0
  0
LINE
  5
3F2
330
1F
100
AcDbEntity
  8
0
  6
CONTINUOUS
 62
     7
100
AcDbLine
 10
1233.2274410503
 20
500.7094358618
 30
0.0
 11
1233.2274410503
 21
545.3594093735
 31
0.0
  0
LINE
  5
3F3
330
1F
100
AcDbEntity
  8
0
  6
CONTINUOUS
 62
     7
100
AcDbLine
 10
1233.2274410503
 20
568.7094395573
 30
0.0
 11
1233.2274410503
 21
613.359413069
 31
0.0
  0
LINE
  5
3F4
330
1F
100
AcDbEntity
  8
0
  6
CONTINUOUS
 62
     7
100
AcDbLine
 10
1233.2274410503
 20
636.7094358022
 30
0.0
 11
1233.2274410503
 21
681.3594167645
 31
0.0
  0
LINE
  5
3F5
330
1F
100
AcDbEntity
  8
0
  6
CONTINUOUS
 62
     7
100
AcDbLine
 10
1233.2274410503
 20
704.7094357724
 30
0.0
 11
1233.2274410503
 21
749.3594167347
 31
0.0
  0
LINE
  5
3F6
330
1F
100
AcDbEntity
  8
0
  6
CONTINUOUS
 62
     7
100
AcDbLine
 10
1233.2274410503
 20
772.7094357426
 30
0.0
 11
1233.2274410503
 21
817.3594167049
 31
0.0
  0
LINE
  5
3F7
330
1F
100
AcDbEntity
  8
0
  6
CONTINUOUS
 62
     7
100
AcDbLine
 10
1233.2274410503
 20
840.7094394381
 30
0.0
 11
1233.2274410503
 21
885.3594129498
 31
0.0
  0
LINE
  5
3F8
330
1F
100
AcDbEntity
  8
0
  6
CONTINUOUS
 62
     7
100
AcDbLine
 10
1233.2274410503
 20
908.7094431335
 30
0.0
 11
1233.2274410503
 21
953.3594166452
 31
0.0
  0
LINE
  5
3F9
330
1F
100
AcDbEntity
  8
0
  6
CONTINUOUS
 62
     7
100
AcDbLine
 10
1233.2274410503
 20
971.7094366962
 30
0.0
 11
1233.2274410503
 21
981.3594286854
 31
0.0
  0
LWPOLYLINE
  5
3FA
330
1F
100
AcDbEntity
  8
0
  6
CONTINUOUS
 62
     8
100
AcDbPolyline
 90
        3
 70
   128
 43
0.0
 10
1249.1319882313
 20
1007.0843165333
 10
1249.1725738721
 20
1006.7999725754
 10
1249.2696605252
 20
1005.7113831455
  0
LWPOLYLINE
  5
3FB
330
1F
100
AcDbEntity
  8
0
  6
CONTINUOUS
 62
     8
100
AcDbPolyline
 90
        3
 70
   128
 43
0.0
 10
1249.1319882313
 20
446.9845359737
 10
1249.1725738721
 20
447.2688799316
 10
1249.2696605252
 20
448.3574693615
  0
ARC
  5
3FC
330
1F
100
AcDbEntity
  8
0
  6
CONTINUOUS
 62
     8
100
AcDbCircle
 10
1249.3733534745
 20
1003.9791837481
 30
0.0
 40
1.735270730075278
100
AcDbArc
 50
16.3952267277
 51
93.4259343792
  0
LWPOLYLINE
  5
3FD
330
1F
100
AcDbEntity
  8
0
  6
CONTINUOUS
 62
     8
100
AcDbPolyline
 90
        3
 70
   128
 43
0.0
 10
1251.1256434584
 20
1003.9950375969
 10
1251.1648577268
 20
1003.0738180096
 10
1251.1162953081
 20
1001.6747181828
  0
LWPOLYLINE
  5
3FE
330
1F
100
AcDbEntity
  8
0
  6
CONTINUOUS
 62
     8
100
AcDbPolyline
 90
        3
 70
   128
 43
0.0
 10
1251.1256434584
 20
450.0738149101
 10
1251.1648577268
 20
450.9950344975
 10
1251.1162953081
 20
452.3941343243
  0
ARC
  5
3FF
330
1F
100
AcDbEntity
  8
0
  6
CONTINUOUS
 62
     8
100
AcDbCircle
 10
1249.3733715268
 20
450.0897228357
 30
0.0
 40
1.735236959347692
100
AcDbArc
 50
266.573170684
 51
343.602583935
  0
LINE
  5
400
330
1F
100
AcDbEntity
  8
0
  6
CONTINUOUS
 62
     7
100
AcDbLine
 10
1929.76849393
 20
676.5344244952
 30
0.0
 11
1929.76849393
 21
709.534426179
 31
0.0
  0
LINE
  5
401
330
1F
100
AcDbEntity
  8
0
  6
CONTINUOUS
 62
     7
100
AcDbLine
 10
1929.76849393
 20
540.5344282801
 30
0.0
 11
1929.76849393
 21
573.5344206507
 31
0.0
  0
LINE
  5
402
330
1F
100
AcDbEntity
  8
0
  6
CONTINUOUS
 62
     7
100
AcDbLine
 10
1929.76849393
 20
608.534424525
 30
0.0
 11
1929.76849393
 21
641.5344243462
 31
0.0
  0
LINE
  5
403
330
1F
100
AcDbEntity
  8
0
  6
CONTINUOUS
 62
     7
100
AcDbLine
 10
1929.76849393
 20
472.5344245846
 30
0.0
 11
1929.76849393
 21
505.5344318564
 31
0.0
  0
LINE
  5
404
330
1F
100
AcDbEntity
  8
0
  6
CONTINUOUS
 62
     7
100
AcDbLine
 10
1929.76849393
 20
880.5344318564
 30
0.0
 11
1929.76849393
 21
913.534424227
 31
0.0
  0
LINE
  5
405
330
1F
100
AcDbEntity
  8
0
  6
CONTINUOUS
 62
     7
100
AcDbLine
 10
1929.76849393
 20
812.5344281609
 30
0.0
 11
1929.76849393
 21
845.534427982
 31
0.0
  0
LINE
  5
406
330
1F
100
AcDbEntity
  8
0
  6
CONTINUOUS
 62
     7
100
AcDbLine
 10
1929.76849393
 20
744.534426328
 30
0.0
 11
1929.76849393
 21
777.5344280119
 31
0.0
  0
LINE
  5
407
330
1F
100
AcDbEntity
  8
0
  6
CONTINUOUS
 62
     7
100
AcDbLine
 10
1929.76849393
 20
948.5344206507
 30
0.0
 11
1929.76849393
 21
981.5344279224
 31
0.0
  0
LINE
  5
408
330
1F
100
AcDbEntity
  8
0
  6
CONTINUOUS
 62
     7
100
AcDbLine
 10
1470.443746606
 20
998.5221987183
 30
0.0
 11
1470.443746606
 21
455.5466537888
 31
0.0
  0
ARC
  5
409
330
1F
100
AcDbEntity
  8
0
  6
CONTINUOUS
 62
     7
100
AcDbCircle
 10
1479.9083043597
 20
998.5446142854
 30
0.0
 40
9.46458429787432
100
AcDbArc
 50
89.8642126995
 51
180.1356973062
  0
LINE
  5
40A
330
1F
100
AcDbEntity
  8
0
  6
CONTINUOUS
 62
     7
100
AcDbLine
 10
1479.9307347928
 20
1008.0091720039
 30
0.0
 11
1913.6062623654
 21
1008.0091720039
 31
0.0
  0
ARC
  5
40B
330
1F
100
AcDbEntity
  8
0
  6
CONTINUOUS
 62
     7
100
AcDbCircle
 10
1913.609202823
 20
998.5251242793
 30
0.0
 40
9.484048180463178
100
AcDbArc
 50
359.9823258697
 51
90.0177641245
  0
LINE
  5
40C
330
1F
100
AcDbEntity
  8
0
  6
CONTINUOUS
 62
     7
100
AcDbLine
 10
1923.0932505523
 20
998.5221987183
 30
0.0
 11
1923.0932505523
 21
981.5344279224
 31
0.0
  0
LINE
  5
40D
330
1F
100
AcDbEntity
  8
0
  6
CONTINUOUS
 62
     7
100
AcDbLine
 10
1923.0932505523
 20
981.5344279224
 30
0.0
 11
1921.0891337787
 21
981.5344279224
 31
0.0
  0
LINE
  5
40E
330
1F
100
AcDbEntity
  8
0
  6
CONTINUOUS
 62
     7
100
AcDbLine
 10
1921.0891337787
 20
981.5344279224
 30
0.0
 11
1921.0891337787
 21
998.4093075211
 31
0.0
  0
ARC
  5
40F
330
1F
100
AcDbEntity
  8
0
  6
CONTINUOUS
 62
     7
100
AcDbCircle
 10
1913.497135366
 20
998.4132653354
 30
0.0
 40
7.59182063042257
100
AcDbArc
 50
359.9701302125
 51
90.0284085548
  0
LINE
  5
410
330
1F
100
AcDbEntity
  8
0
  6
CONTINUOUS
 62
     7
100
AcDbLine
 10
1913.4933711682
 20
1006.0050552303
 30
0.0
 11
1480.04362599
 21
1006.0050552303
 31
0.0
  0
ARC
  5
411
330
1F
100
AcDbEntity
  8
0
  6
CONTINUOUS
 62
     7
100
AcDbCircle
 10
1480.0398617923
 20
998.4132653354
 30
0.0
 40
7.591820630422343
100
AcDbArc
 50
89.9715914452
 51
180.0298697875
  0
LINE
  5
412
330
1F
100
AcDbEntity
  8
0
  6
CONTINUOUS
 62
     7
100
AcDbLine
 10
1472.4480421935
 20
455.659544986
 30
0.0
 11
1472.4480421935
 21
998.4093075211
 31
0.0
  0
ARC
  5
413
330
1F
100
AcDbEntity
  8
0
  6
CONTINUOUS
 62
     7
100
AcDbCircle
 10
1480.0398617923
 20
455.6555871716
 30
0.0
 40
7.591820630422463
100
AcDbArc
 50
179.9701302125
 51
270.0284085548
  0
LINE
  5
414
330
1F
100
AcDbEntity
  8
0
  6
CONTINUOUS
 62
     7
100
AcDbLine
 10
1913.4933711682
 20
448.0637674744
 30
0.0
 11
1480.04362599
 21
448.0637674744
 31
0.0
  0
ARC
  5
415
330
1F
100
AcDbEntity
  8
0
  6
CONTINUOUS
 62
     7
100
AcDbCircle
 10
1913.497135366
 20
455.6555871716
 30
0.0
 40
7.59182063042257
100
AcDbArc
 50
269.9715914452
 51
0.0298697875
  0
LINE
  5
416
330
1F
100
AcDbEntity
  8
0
  6
CONTINUOUS
 62
     7
100
AcDbLine
 10
1921.0891337787
 20
472.5344245846
 30
0.0
 11
1921.0889549647
 21
455.659544986
 31
0.0
  0
LINE
  5
417
330
1F
100
AcDbEntity
  8
0
  6
CONTINUOUS
 62
     7
100
AcDbLine
 10
1923.0932505523
 20
472.5344245846
 30
0.0
 11
1921.0891337787
 21
472.5344245846
 31
0.0
  0
LINE
  5
418
330
1F
100
AcDbEntity
  8
0
  6
CONTINUOUS
 62
     7
100
AcDbLine
 10
1923.0932505523
 20
455.5466537888
 30
0.0
 11
1923.0932505523
 21
472.5344245846
 31
0.0
  0
ARC
  5
419
330
1F
100
AcDbEntity
  8
0
  6
CONTINUOUS
 62
     7
100
AcDbCircle
 10
1913.6286927985
 20
455.5242382216
 30
0.0
 40
9.46458429787354
100
AcDbArc
 50
269.8642126995
 51
0.1356973062
  0
LINE
  5
41A
330
1F
100
AcDbEntity
  8
0
  6
CONTINUOUS
 62
     7
100
AcDbLine
 10
1479.9307347928
 20
446.0596805031
 30
0.0
 11
1913.6062623654
 21
446.0596805031
 31
0.0
  0
ARC
  5
41B
330
1F
100
AcDbEntity
  8
0
  6
CONTINUOUS
 62
     7
100
AcDbCircle
 10
1479.9277943352
 20
455.5437282277
 30
0.0
 40
9.484048180462903
100
AcDbArc
 50
179.9823258697
 51
270.0177641245
  0
LINE
  5
41C
330
1F
100
AcDbEntity
  8
0
  6
CONTINUOUS
 62
     7
100
AcDbLine
 10
1480.04362599
 20
1006.0050552303
 30
0.0
 11
1480.04362599
 21
1004.9004023487
 31
0.0
  0
ARC
  5
41D
330
1F
100
AcDbEntity
  8
0
  6
CONTINUOUS
 62
     7
100
AcDbCircle
 10
1480.0365749244
 20
998.4163585866
 30
0.0
 40
6.48404759592533
100
AcDbArc
 50
89.9376937983
 51
180.0623062017
  0
LINE
  5
41E
330
1F
100
AcDbEntity
  8
0
  6
CONTINUOUS
 62
     7
100
AcDbLine
 10
1472.4478633796
 20
998.4093075211
 30
0.0
 11
1473.5525311624
 21
998.4093075211
 31
0.0
  0
LINE
  5
41F
330
1F
100
AcDbEntity
  8
0
  6
CONTINUOUS
 62
     7
100
AcDbLine
 10
1472.4478633796
 20
455.659544986
 30
0.0
 11
1473.5525311624
 21
455.659544986
 31
0.0
  0
ARC
  5
420
330
1F
100
AcDbEntity
  8
0
  6
CONTINUOUS
 62
     7
100
AcDbCircle
 10
1480.0365749244
 20
455.6524939204
 30
0.0
 40
6.484047595925556
100
AcDbArc
 50
179.9376937983
 51
270.0623062017
  0
LINE
  5
421
330
1F
100
AcDbEntity
  8
0
  6
CONTINUOUS
 62
     7
100
AcDbLine
 10
1480.04362599
 20
448.0637972767
 30
0.0
 11
1480.04362599
 21
449.1684501583
 31
0.0
  0
LINE
  5
422
330
1F
100
AcDbEntity
  8
0
  6
CONTINUOUS
 62
     7
100
AcDbLine
 10
1913.4933711682
 20
448.0637972767
 30
0.0
 11
1913.4933711682
 21
449.1684501583
 31
0.0
  0
ARC
  5
423
330
1F
100
AcDbEntity
  8
0
  6
CONTINUOUS
 62
     7
100
AcDbCircle
 10
1913.5004222338
 20
455.6524939204
 30
0.0
 40
6.484047595926464
100
AcDbArc
 50
269.9376937983
 51
0.0623062017
  0
LINE
  5
424
330
1F
100
AcDbEntity
  8
0
  6
CONTINUOUS
 62
     7
100
AcDbLine
 10
1921.0891337787
 20
455.659544986
 30
0.0
 11
1919.9844659959
 21
455.659544986
 31
0.0
  0
LINE
  5
425
330
1F
100
AcDbEntity
  8
0
  6
CONTINUOUS
 62
     7
100
AcDbLine
 10
1921.0891337787
 20
998.4093075211
 30
0.0
 11
1919.9844659959
 21
998.4093075211
 31
0.0
  0
ARC
  5
426
330
1F
100
AcDbEntity
  8
0
  6
CONTINUOUS
 62
     7
100
AcDbCircle
 10
1913.5004222338
 20
998.4163585866
 30
0.0
 40
6.484047595926465
100
AcDbArc
 50
359.9376937983
 51
90.0623062017
  0
LINE
  5
427
330
1F
100
AcDbEntity
  8
0
  6
CONTINUOUS
 62
     7
100
AcDbLine
 10
1913.4933711682
 20
1006.0050552303
 30
0.0
 11
1913.4933711682
 21
1004.9004023487
 31
0.0
  0
LINE
  5
428
330
1F
100
AcDbEntity
  8
0
  6
CONTINUOUS
 62
     7
100
AcDbLine
 10
1473.5525311624
 20
998.4093075211
 30
0.0
 11
1473.5525311624
 21
455.659544986
 31
0.0
  0
LINE
  5
429
330
1F
100
AcDbEntity
  8
0
  6
CONTINUOUS
 62
     7
100
AcDbLine
 10
1919.9844659959
 20
981.5344279224
 30
0.0
 11
1919.9844659959
 21
998.4093075211
 31
0.0
  0
LINE
  5
42A
330
1F
100
AcDbEntity
  8
0
  6
CONTINUOUS
 62
     7
100
AcDbLine
 10
1919.9844659959
 20
981.5344279224
 30
0.0
 11
1921.0891337787
 21
981.5344279224
 31
0.0
  0
LINE
  5
42B
330
1F
100
AcDbEntity
  8
0
  6
CONTINUOUS
 62
     7
100
AcDbLine
 10
1919.9844659959
 20
472.5344245846
 30
0.0
 11
1921.0891337787
 21
472.5344245846
 31
0.0
  0
LINE
  5
42C
330
1F
100
AcDbEntity
  8
0
  6
CONTINUOUS
 62
     7
100
AcDbLine
 10
1919.9844659959
 20
472.5344245846
 30
0.0
 11
1919.9844659959
 21
455.659544986
 31
0.0
  0
LINE
  5
42D
330
1F
100
AcDbEntity
  8
0
  6
CONTINUOUS
 62
     7
100
AcDbLine
 10
1913.4933711682
 20
449.1684501583
 30
0.0
 11
1480.04362599
 21
449.1684501583
 31
0.0
  0
LINE
  5
42E
330
1F
100
AcDbEntity
  8
0
  6
CONTINUOUS
 62
     7
100
AcDbLine
 10
1913.4933711682
 20
1004.9004023487
 30
0.0
 11
1480.04362599
 21
1004.9004023487
 31
0.0
  0
LINE
  5
42F
330
1F
100
AcDbEntity
  8
0
  6
CONTINUOUS
 62
     7
100
AcDbLine
 10
1922.6085902844
 20
681.5344271774
 30
0.0
 11
1927.1283955966
 21
681.5344271774
 31
0.0
  0
LINE
  5
430
330
1F
100
AcDbEntity
  8
0
  6
CONTINUOUS
 62
     7
100
AcDbLine
 10
1922.6085902844
 20
676.5344244952
 30
0.0
 11
1922.6085902844
 21
681.5344271774
 31
0.0
  0
LINE
  5
431
330
1F
100
AcDbEntity
  8
0
  6
CONTINUOUS
 62
     7
100
AcDbLine
 10
1922.0579774772
 20
676.5344244952
 30
0.0
 11
1922.6085902844
 21
676.5344244952
 31
0.0
  0
LINE
  5
432
330
1F
100
AcDbEntity
  8
0
  6
CONTINUOUS
 62
     7
100
AcDbLine
 10
1922.0579774772
 20
676.5344244952
 30
0.0
 11
1922.0579774772
 21
709.534426179
 31
0.0
  0
LINE
  5
433
330
1F
100
AcDbEntity
  8
0
  6
CONTINUOUS
 62
     7
100
AcDbLine
 10
1922.0579774772
 20
709.534426179
 30
0.0
 11
1922.6086498891
 21
709.534426179
 31
0.0
  0
LINE
  5
434
330
1F
100
AcDbEntity
  8
0
  6
CONTINUOUS
 62
     7
100
AcDbLine
 10
1922.6086498891
 20
704.5344253594
 30
0.0
 11
1922.6086498891
 21
709.534426179
 31
0.0
  0
LINE
  5
435
330
1F
100
AcDbEntity
  8
0
  6
CONTINUOUS
 62
     7
100
AcDbLine
 10
1922.6086498891
 20
704.5344253594
 30
0.0
 11
1927.128335992
 21
704.5344253594
 31
0.0
  0
LINE
  5
436
330
1F
100
AcDbEntity
  8
0
  6
CONTINUOUS
 62
     7
100
AcDbLine
 10
1927.128335992
 20
704.5344253594
 30
0.0
 11
1927.128335992
 21
709.534426179
 31
0.0
  0
LINE
  5
437
330
1F
100
AcDbEntity
  8
0
  6
CONTINUOUS
 62
     7
100
AcDbLine
 10
1927.128335992
 20
709.534426179
 30
0.0
 11
1929.76849393
 21
709.534426179
 31
0.0
  0
LINE
  5
438
330
1F
100
AcDbEntity
  8
0
  6
CONTINUOUS
 62
     7
100
AcDbLine
 10
1927.1283955966
 20
676.5344244952
 30
0.0
 11
1929.76849393
 21
676.5344244952
 31
0.0
  0
LINE
  5
439
330
1F
100
AcDbEntity
  8
0
  6
CONTINUOUS
 62
     7
100
AcDbLine
 10
1927.1283955966
 20
676.5344244952
 30
0.0
 11
1927.1283955966
 21
681.5344271774
 31
0.0
  0
LINE
  5
43A
330
1F
100
AcDbEntity
  8
0
  6
CONTINUOUS
 62
     7
100
AcDbLine
 10
1922.6085902844
 20
545.5344235117
 30
0.0
 11
1927.1283955966
 21
545.5344235117
 31
0.0
  0
LINE
  5
43B
330
1F
100
AcDbEntity
  8
0
  6
CONTINUOUS
 62
     7
100
AcDbLine
 10
1922.6085902844
 20
540.5344282801
 30
0.0
 11
1922.6085902844
 21
545.5344235117
 31
0.0
  0
LINE
  5
43C
330
1F
100
AcDbEntity
  8
0
  6
CONTINUOUS
 62
     7
100
AcDbLine
 10
1922.0579774772
 20
540.5344282801
 30
0.0
 11
1922.6085902844
 21
540.5344282801
 31
0.0
  0
LINE
  5
43D
330
1F
100
AcDbEntity
  8
0
  6
CONTINUOUS
 62
     7
100
AcDbLine
 10
1922.0579774772
 20
540.5344282801
 30
0.0
 11
1922.0579774772
 21
573.5344206507
 31
0.0
  0
LINE
  5
43E
330
1F
100
AcDbEntity
  8
0
  6
CONTINUOUS
 62
     7
100
AcDbLine
 10
1922.0579774772
 20
573.5344206507
 30
0.0
 11
1922.6086498891
 21
573.5344206507
 31
0.0
  0
LINE
  5
43F
330
1F
100
AcDbEntity
  8
0
  6
CONTINUOUS
 62
     7
100
AcDbLine
 10
1922.6086498891
 20
568.534425419
 30
0.0
 11
1922.6086498891
 21
573.5344206507
 31
0.0
  0
LINE
  5
440
330
1F
100
AcDbEntity
  8
0
  6
CONTINUOUS
 62
     7
100
AcDbLine
 10
1922.6086498891
 20
568.534425419
 30
0.0
 11
1927.128335992
 21
568.534425419
 31
0.0
  0
LINE
  5
441
330
1F
100
AcDbEntity
  8
0
  6
CONTINUOUS
 62
     7
100
AcDbLine
 10
1927.128335992
 20
568.534425419
 30
0.0
 11
1927.128335992
 21
573.5344206507
 31
0.0
  0
LINE
  5
442
330
1F
100
AcDbEntity
  8
0
  6
CONTINUOUS
 62
     7
100
AcDbLine
 10
1927.128335992
 20
573.5344206507
 30
0.0
 11
1929.76849393
 21
573.5344206507
 31
0.0
  0
LINE
  5
443
330
1F
100
AcDbEntity
  8
0
  6
CONTINUOUS
 62
     7
100
AcDbLine
 10
1927.1283955966
 20
540.5344282801
 30
0.0
 11
1929.76849393
 21
540.5344282801
 31
0.0
  0
LINE
  5
444
330
1F
100
AcDbEntity
  8
0
  6
CONTINUOUS
 62
     7
100
AcDbLine
 10
1927.1283955966
 20
540.5344282801
 30
0.0
 11
1927.1283955966
 21
545.5344235117
 31
0.0
  0
LINE
  5
445
330
1F
100
AcDbEntity
  8
0
  6
CONTINUOUS
 62
     7
100
AcDbLine
 10
1922.6085902844
 20
613.5344272072
 30
0.0
 11
1927.1283955966
 21
613.5344272072
 31
0.0
  0
LINE
  5
446
330
1F
100
AcDbEntity
  8
0
  6
CONTINUOUS
 62
     7
100
AcDbLine
 10
1922.6085902844
 20
608.534424525
 30
0.0
 11
1922.6085902844
 21
613.5344272072
 31
0.0
  0
LINE
  5
447
330
1F
100
AcDbEntity
  8
0
  6
CONTINUOUS
 62
     7
100
AcDbLine
 10
1922.0579774772
 20
608.534424525
 30
0.0
 11
1922.6085902844
 21
608.534424525
 31
0.0
  0
LINE
  5
448
330
1F
100
AcDbEntity
  8
0
  6
CONTINUOUS
 62
     7
100
AcDbLine
 10
1922.0579774772
 20
608.534424525
 30
0.0
 11
1922.0579774772
 21
641.5344243462
 31
0.0
  0
LINE
  5
449
330
1F
100
AcDbEntity
  8
0
  6
CONTINUOUS
 62
     7
100
AcDbLine
 10
1922.0579774772
 20
641.5344243462
 30
0.0
 11
1922.6086498891
 21
641.5344243462
 31
0.0
  0
LINE
  5
44A
330
1F
100
AcDbEntity
  8
0
  6
CONTINUOUS
 62
     7
100
AcDbLine
 10
1922.6086498891
 20
636.5344291145
 30
0.0
 11
1922.6086498891
 21
641.5344243462
 31
0.0
  0
LINE
  5
44B
330
1F
100
AcDbEntity
  8
0
  6
CONTINUOUS
 62
     7
100
AcDbLine
 10
1922.6086498891
 20
636.5344291145
 30
0.0
 11
1927.128335992
 21
636.5344291145
 31
0.0
  0
LINE
  5
44C
330
1F
100
AcDbEntity
  8
0
  6
CONTINUOUS
 62
     7
100
AcDbLine
 10
1927.128335992
 20
636.5344291145
 30
0.0
 11
1927.128335992
 21
641.5344243462
 31
0.0
  0
LINE
  5
44D
330
1F
100
AcDbEntity
  8
0
  6
CONTINUOUS
 62
     7
100
AcDbLine
 10
1927.128335992
 20
641.5344243462
 30
0.0
 11
1929.76849393
 21
641.5344243462
 31
0.0
  0
LINE
  5
44E
330
1F
100
AcDbEntity
  8
0
  6
CONTINUOUS
 62
     7
100
AcDbLine
 10
1927.1283955966
 20
608.534424525
 30
0.0
 11
1929.76849393
 21
608.534424525
 31
0.0
  0
LINE
  5
44F
330
1F
100
AcDbEntity
  8
0
  6
CONTINUOUS
 62
     7
100
AcDbLine
 10
1927.1283955966
 20
608.534424525
 30
0.0
 11
1927.1283955966
 21
613.5344272072
 31
0.0
  0
LINE
  5
450
330
1F
100
AcDbEntity
  8
0
  6
CONTINUOUS
 62
     7
100
AcDbLine
 10
1922.6085902844
 20
482.534429949
 30
0.0
 11
1927.1283955966
 21
482.534429949
 31
0.0
  0
LINE
  5
451
330
1F
100
AcDbEntity
  8
0
  6
CONTINUOUS
 62
     7
100
AcDbLine
 10
1922.6085902844
 20
472.5344245846
 30
0.0
 11
1922.6085902844
 21
482.534429949
 31
0.0
  0
LINE
  5
452
330
1F
100
AcDbEntity
  8
0
  6
CONTINUOUS
 62
     7
100
AcDbLine
 10
1922.0579774772
 20
472.5344245846
 30
0.0
 11
1922.0579774772
 21
505.5344318564
 31
0.0
  0
LINE
  5
453
330
1F
100
AcDbEntity
  8
0
  6
CONTINUOUS
 62
     7
100
AcDbLine
 10
1922.0579774772
 20
505.5344318564
 30
0.0
 11
1922.6086498891
 21
505.5344318564
 31
0.0
  0
LINE
  5
454
330
1F
100
AcDbEntity
  8
0
  6
CONTINUOUS
 62
     7
100
AcDbLine
 10
1922.6086498891
 20
500.5344217236
 30
0.0
 11
1922.6086498891
 21
505.5344318564
 31
0.0
  0
LINE
  5
455
330
1F
100
AcDbEntity
  8
0
  6
CONTINUOUS
 62
     7
100
AcDbLine
 10
1922.6086498891
 20
500.5344217236
 30
0.0
 11
1927.128335992
 21
500.5344217236
 31
0.0
  0
LINE
  5
456
330
1F
100
AcDbEntity
  8
0
  6
CONTINUOUS
 62
     7
100
AcDbLine
 10
1927.128335992
 20
500.5344217236
 30
0.0
 11
1927.128335992
 21
505.5344318564
 31
0.0
  0
LINE
  5
457
330
1F
100
AcDbEntity
  8
0
  6
CONTINUOUS
 62
     7
100
AcDbLine
 10
1927.128335992
 20
505.5344318564
 30
0.0
 11
1929.76849393
 21
505.5344318564
 31
0.0
  0
LINE
  5
458
330
1F
100
AcDbEntity
  8
0
  6
CONTINUOUS
 62
     7
100
AcDbLine
 10
1927.1283955966
 20
472.5344245846
 30
0.0
 11
1929.76849393
 21
472.5344245846
 31
0.0
  0
LINE
  5
459
330
1F
100
AcDbEntity
  8
0
  6
CONTINUOUS
 62
     7
100
AcDbLine
 10
1927.1283955966
 20
472.5344245846
 30
0.0
 11
1927.1283955966
 21
482.534429949
 31
0.0
  0
LINE
  5
45A
330
1F
100
AcDbEntity
  8
0
  6
CONTINUOUS
 62
     7
100
AcDbLine
 10
1922.6085902844
 20
908.5344289953
 30
0.0
 11
1927.1283955966
 21
908.5344289953
 31
0.0
  0
LINE
  5
45B
330
1F
100
AcDbEntity
  8
0
  6
CONTINUOUS
 62
     7
100
AcDbLine
 10
1927.1283955966
 20
913.534424227
 30
0.0
 11
1927.1283955966
 21
908.5344289953
 31
0.0
  0
LINE
  5
45C
330
1F
100
AcDbEntity
  8
0
  6
CONTINUOUS
 62
     7
100
AcDbLine
 10
1927.1283955966
 20
913.534424227
 30
0.0
 11
1929.76849393
 21
913.534424227
 31
0.0
  0
LINE
  5
45D
330
1F
100
AcDbEntity
  8
0
  6
CONTINUOUS
 62
     7
100
AcDbLine
 10
1927.128335992
 20
880.5344318564
 30
0.0
 11
1929.76849393
 21
880.5344318564
 31
0.0
  0
LINE
  5
45E
330
1F
100
AcDbEntity
  8
0
  6
CONTINUOUS
 62
     7
100
AcDbLine
 10
1927.128335992
 20
885.534427088
 30
0.0
 11
1927.128335992
 21
880.5344318564
 31
0.0
  0
LINE
  5
45F
330
1F
100
AcDbEntity
  8
0
  6
CONTINUOUS
 62
     7
100
AcDbLine
 10
1922.6086498891
 20
885.534427088
 30
0.0
 11
1927.128335992
 21
885.534427088
 31
0.0
  0
LINE
  5
460
330
1F
100
AcDbEntity
  8
0
  6
CONTINUOUS
 62
     7
100
AcDbLine
 10
1922.6086498891
 20
885.534427088
 30
0.0
 11
1922.6086498891
 21
880.5344318564
 31
0.0
  0
LINE
  5
461
330
1F
100
AcDbEntity
  8
0
  6
CONTINUOUS
 62
     7
100
AcDbLine
 10
1922.0579774772
 20
880.5344318564
 30
0.0
 11
1922.6086498891
 21
880.5344318564
 31
0.0
  0
LINE
  5
462
330
1F
100
AcDbEntity
  8
0
  6
CONTINUOUS
 62
     7
100
AcDbLine
 10
1922.0579774772
 20
913.534424227
 30
0.0
 11
1922.0579774772
 21
880.5344318564
 31
0.0
  0
LINE
  5
463
330
1F
100
AcDbEntity
  8
0
  6
CONTINUOUS
 62
     7
100
AcDbLine
 10
1922.0579774772
 20
913.534424227
 30
0.0
 11
1922.6085902844
 21
913.534424227
 31
0.0
  0
LINE
  5
464
330
1F
100
AcDbEntity
  8
0
  6
CONTINUOUS
 62
     7
100
AcDbLine
 10
1922.6085902844
 20
913.534424227
 30
0.0
 11
1922.6085902844
 21
908.5344289953
 31
0.0
  0
LINE
  5
465
330
1F
100
AcDbEntity
  8
0
  6
CONTINUOUS
 62
     7
100
AcDbLine
 10
1922.6085902844
 20
840.5344252998
 30
0.0
 11
1927.1283955966
 21
840.5344252998
 31
0.0
  0
LINE
  5
466
330
1F
100
AcDbEntity
  8
0
  6
CONTINUOUS
 62
     7
100
AcDbLine
 10
1927.1283955966
 20
845.534427982
 30
0.0
 11
1927.1283955966
 21
840.5344252998
 31
0.0
  0
LINE
  5
467
330
1F
100
AcDbEntity
  8
0
  6
CONTINUOUS
 62
     7
100
AcDbLine
 10
1927.1283955966
 20
845.534427982
 30
0.0
 11
1929.76849393
 21
845.534427982
 31
0.0
  0
LINE
  5
468
330
1F
100
AcDbEntity
  8
0
  6
CONTINUOUS
 62
     7
100
AcDbLine
 10
1927.128335992
 20
812.5344281609
 30
0.0
 11
1929.76849393
 21
812.5344281609
 31
0.0
  0
LINE
  5
469
330
1F
100
AcDbEntity
  8
0
  6
CONTINUOUS
 62
     7
100
AcDbLine
 10
1927.128335992
 20
817.5344233925
 30
0.0
 11
1927.128335992
 21
812.5344281609
 31
0.0
  0
LINE
  5
46A
330
1F
100
AcDbEntity
  8
0
  6
CONTINUOUS
 62
     7
100
AcDbLine
 10
1922.6086498891
 20
817.5344233925
 30
0.0
 11
1927.128335992
 21
817.5344233925
 31
0.0
  0
LINE
  5
46B
330
1F
100
AcDbEntity
  8
0
  6
CONTINUOUS
 62
     7
100
AcDbLine
 10
1922.6086498891
 20
817.5344233925
 30
0.0
 11
1922.6086498891
 21
812.5344281609
 31
0.0
  0
LINE
  5
46C
330
1F
100
AcDbEntity
  8
0
  6
CONTINUOUS
 62
     7
100
AcDbLine
 10
1922.0579774772
 20
812.5344281609
 30
0.0
 11
1922.6086498891
 21
812.5344281609
 31
0.0
  0
LINE
  5
46D
330
1F
100
AcDbEntity
  8
0
  6
CONTINUOUS
 62
     7
100
AcDbLine
 10
1922.0579774772
 20
845.534427982
 30
0.0
 11
1922.0579774772
 21
812.5344281609
 31
0.0
  0
LINE
  5
46E
330
1F
100
AcDbEntity
  8
0
  6
CONTINUOUS
 62
     7
100
AcDbLine
 10
1922.0579774772
 20
845.534427982
 30
0.0
 11
1922.6085902844
 21
845.534427982
 31
0.0
  0
LINE
  5
46F
330
1F
100
AcDbEntity
  8
0
  6
CONTINUOUS
 62
     7
100
AcDbLine
 10
1922.6085902844
 20
845.534427982
 30
0.0
 11
1922.6085902844
 21
840.5344252998
 31
0.0
  0
LINE
  5
470
330
1F
100
AcDbEntity
  8
0
  6
CONTINUOUS
 62
     7
100
AcDbLine
 10
1922.6085902844
 20
772.5344253296
 30
0.0
 11
1927.1283955966
 21
772.5344253296
 31
0.0
  0
LINE
  5
471
330
1F
100
AcDbEntity
  8
0
  6
CONTINUOUS
 62
     7
100
AcDbLine
 10
1927.1283955966
 20
777.5344280119
 30
0.0
 11
1927.1283955966
 21
772.5344253296
 31
0.0
  0
LINE
  5
472
330
1F
100
AcDbEntity
  8
0
  6
CONTINUOUS
 62
     7
100
AcDbLine
 10
1927.1283955966
 20
777.5344280119
 30
0.0
 11
1929.76849393
 21
777.5344280119
 31
0.0
  0
LINE
  5
473
330
1F
100
AcDbEntity
  8
0
  6
CONTINUOUS
 62
     7
100
AcDbLine
 10
1927.128335992
 20
744.534426328
 30
0.0
 11
1929.76849393
 21
744.534426328
 31
0.0
  0
LINE
  5
474
330
1F
100
AcDbEntity
  8
0
  6
CONTINUOUS
 62
     7
100
AcDbLine
 10
1927.128335992
 20
749.5344271476
 30
0.0
 11
1927.128335992
 21
744.534426328
 31
0.0
  0
LINE
  5
475
330
1F
100
AcDbEntity
  8
0
  6
CONTINUOUS
 62
     7
100
AcDbLine
 10
1922.6086498891
 20
749.5344271476
 30
0.0
 11
1927.128335992
 21
749.5344271476
 31
0.0
  0
LINE
  5
476
330
1F
100
AcDbEntity
  8
0
  6
CONTINUOUS
 62
     7
100
AcDbLine
 10
1922.6086498891
 20
749.5344271476
 30
0.0
 11
1922.6086498891
 21
744.534426328
 31
0.0
  0
LINE
  5
477
330
1F
100
AcDbEntity
  8
0
  6
CONTINUOUS
 62
     7
100
AcDbLine
 10
1922.0579774772
 20
744.534426328
 30
0.0
 11
1922.6086498891
 21
744.534426328
 31
0.0
  0
LINE
  5
478
330
1F
100
AcDbEntity
  8
0
  6
CONTINUOUS
 62
     7
100
AcDbLine
 10
1922.0579774772
 20
777.5344280119
 30
0.0
 11
1922.0579774772
 21
744.534426328
 31
0.0
  0
LINE
  5
479
330
1F
100
AcDbEntity
  8
0
  6
CONTINUOUS
 62
     7
100
AcDbLine
 10
1922.0579774772
 20
777.5344280119
 30
0.0
 11
1922.6085902844
 21
777.5344280119
 31
0.0
  0
LINE
  5
47A
330
1F
100
AcDbEntity
  8
0
  6
CONTINUOUS
 62
     7
100
AcDbLine
 10
1922.6085902844
 20
777.5344280119
 30
0.0
 11
1922.6085902844
 21
772.5344253296
 31
0.0
  0
LINE
  5
47B
330
1F
100
AcDbEntity
  8
0
  6
CONTINUOUS
 62
     7
100
AcDbLine
 10
1922.6085902844
 20
971.534422558
 30
0.0
 11
1927.1283955966
 21
971.534422558
 31
0.0
  0
LINE
  5
47C
330
1F
100
AcDbEntity
  8
0
  6
CONTINUOUS
 62
     7
100
AcDbLine
 10
1927.1283955966
 20
981.5344279224
 30
0.0
 11
1927.1283955966
 21
971.534422558
 31
0.0
  0
LINE
  5
47D
330
1F
100
AcDbEntity
  8
0
  6
CONTINUOUS
 62
     7
100
AcDbLine
 10
1927.1283955966
 20
981.5344279224
 30
0.0
 11
1929.76849393
 21
981.5344279224
 31
0.0
  0
LINE
  5
47E
330
1F
100
AcDbEntity
  8
0
  6
CONTINUOUS
 62
     7
100
AcDbLine
 10
1927.128335992
 20
948.5344206507
 30
0.0
 11
1929.76849393
 21
948.5344206507
 31
0.0
  0
LINE
  5
47F
330
1F
100
AcDbEntity
  8
0
  6
CONTINUOUS
 62
     7
100
AcDbLine
 10
1927.128335992
 20
953.5344307835
 30
0.0
 11
1927.128335992
 21
948.5344206507
 31
0.0
  0
LINE
  5
480
330
1F
100
AcDbEntity
  8
0
  6
CONTINUOUS
 62
     7
100
AcDbLine
 10
1922.6086498891
 20
953.5344307835
 30
0.0
 11
1927.128335992
 21
953.5344307835
 31
0.0
  0
LINE
  5
481
330
1F
100
AcDbEntity
  8
0
  6
CONTINUOUS
 62
     7
100
AcDbLine
 10
1922.6086498891
 20
953.5344307835
 30
0.0
 11
1922.6086498891
 21
948.5344206507
 31
0.0
  0
LINE
  5
482
330
1F
100
AcDbEntity
  8
0
  6
CONTINUOUS
 62
     7
100
AcDbLine
 10
1922.0579774772
 20
948.5344206507
 30
0.0
 11
1922.6086498891
 21
948.5344206507
 31
0.0
  0
LINE
  5
483
330
1F
100
AcDbEntity
  8
0
  6
CONTINUOUS
 62
     7
100
AcDbLine
 10
1922.0579774772
 20
981.5344279224
 30
0.0
 11
1922.0579774772
 21
948.5344206507
 31
0.0
  0
LINE
  5
484
330
1F
100
AcDbEntity
  8
0
  6
CONTINUOUS
 62
     7
100
AcDbLine
 10
1922.6085902844
 20
981.5344279224
 30
0.0
 11
1922.6085902844
 21
971.534422558
 31
0.0
  0
LINE
  5
485
330
1F
100
AcDbEntity
  8
0
  6
CONTINUOUS
 62
     7
100
AcDbLine
 10
1927.1283955966
 20
540.5344282801
 30
0.0
 11
1926.8949838077
 21
540.5344282801
 31
0.0
  0
LINE
  5
486
330
1F
100
AcDbEntity
  8
0
  6
CONTINUOUS
 62
     7
100
AcDbLine
 10
1926.8949838077
 20
540.5344282801
 30
0.0
 11
1926.8949838077
 21
543.0344258959
 31
0.0
  0
LINE
  5
487
330
1F
100
AcDbEntity
  8
0
  6
CONTINUOUS
 62
     7
100
AcDbLine
 10
1926.9005419408
 20
543.0344258959
 30
0.0
 11
1926.8949838077
 21
543.0344258959
 31
0.0
  0
LINE
  5
488
330
1F
100
AcDbEntity
  8
0
  6
CONTINUOUS
 62
     7
100
AcDbLine
 10
1926.9005419408
 20
543.0344258959
 30
0.0
 11
1926.9005419408
 21
545.5344235117
 31
0.0
  0
LINE
  5
489
330
1F
100
AcDbEntity
  8
0
  6
CONTINUOUS
 62
     7
100
AcDbLine
 10
1927.1283955966
 20
676.5344244952
 30
0.0
 11
1926.8949838077
 21
676.5344244952
 31
0.0
  0
LINE
  5
48A
330
1F
100
AcDbEntity
  8
0
  6
CONTINUOUS
 62
     7
100
AcDbLine
 10
1926.8949838077
 20
676.5344244952
 30
0.0
 11
1926.8949838077
 21
679.0344258363
 31
0.0
  0
LINE
  5
48B
330
1F
100
AcDbEntity
  8
0
  6
CONTINUOUS
 62
     7
100
AcDbLine
 10
1926.9005419408
 20
679.0344258363
 30
0.0
 11
1926.8949838077
 21
679.0344258363
 31
0.0
  0
LINE
  5
48C
330
1F
100
AcDbEntity
  8
0
  6
CONTINUOUS
 62
     7
100
AcDbLine
 10
1926.9005419408
 20
679.0344258363
 30
0.0
 11
1926.9005419408
 21
681.5344271774
 31
0.0
  0
LINE
  5
48D
330
1F
100
AcDbEntity
  8
0
  6
CONTINUOUS
 62
     7
100
AcDbLine
 10
1927.1283955966
 20
608.534424525
 30
0.0
 11
1926.8949838077
 21
608.534424525
 31
0.0
  0
LINE
  5
48E
330
1F
100
AcDbEntity
  8
0
  6
CONTINUOUS
 62
     7
100
AcDbLine
 10
1926.8949838077
 20
608.534424525
 30
0.0
 11
1926.8949838077
 21
611.0344295914
 31
0.0
  0
LINE
  5
48F
330
1F
100
AcDbEntity
  8
0
  6
CONTINUOUS
 62
     7
100
AcDbLine
 10
1926.9005419408
 20
611.0344295914
 30
0.0
 11
1926.8949838077
 21
611.0344295914
 31
0.0
  0
LINE
  5
490
330
1F
100
AcDbEntity
  8
0
  6
CONTINUOUS
 62
     7
100
AcDbLine
 10
1926.9005419408
 20
611.0344295914
 30
0.0
 11
1926.9005419408
 21
613.5344272072
 31
0.0
  0
LINE
  5
491
330
1F
100
AcDbEntity
  8
0
  6
CONTINUOUS
 62
     7
100
AcDbLine
 10
1922.8420765792
 20
571.0344230349
 30
0.0
 11
1922.8420765792
 21
573.5344206507
 31
0.0
  0
LINE
  5
492
330
1F
100
AcDbEntity
  8
0
  6
CONTINUOUS
 62
     7
100
AcDbLine
 10
1922.8364886437
 20
571.0344230349
 30
0.0
 11
1922.8420765792
 21
571.0344230349
 31
0.0
  0
LINE
  5
493
330
1F
100
AcDbEntity
  8
0
  6
CONTINUOUS
 62
     7
100
AcDbLine
 10
1922.8364886437
 20
568.534425419
 30
0.0
 11
1922.8364886437
 21
571.0344230349
 31
0.0
  0
LINE
  5
494
330
1F
100
AcDbEntity
  8
0
  6
CONTINUOUS
 62
     7
100
AcDbLine
 10
1922.8420765792
 20
639.0344267304
 30
0.0
 11
1922.8420765792
 21
641.5344243462
 31
0.0
  0
LINE
  5
495
330
1F
100
AcDbEntity
  8
0
  6
CONTINUOUS
 62
     7
100
AcDbLine
 10
1922.8364886437
 20
639.0344267304
 30
0.0
 11
1922.8420765792
 21
639.0344267304
 31
0.0
  0
LINE
  5
496
330
1F
100
AcDbEntity
  8
0
  6
CONTINUOUS
 62
     7
100
AcDbLine
 10
1922.8364886437
 20
636.5344291145
 30
0.0
 11
1922.8364886437
 21
639.0344267304
 31
0.0
  0
LINE
  5
497
330
1F
100
AcDbEntity
  8
0
  6
CONTINUOUS
 62
     7
100
AcDbLine
 10
1922.8420765792
 20
707.0344267005
 30
0.0
 11
1922.8420765792
 21
709.534426179
 31
0.0
  0
LINE
  5
498
330
1F
100
AcDbEntity
  8
0
  6
CONTINUOUS
 62
     7
100
AcDbLine
 10
1922.8364886437
 20
707.0344267005
 30
0.0
 11
1922.8420765792
 21
707.0344267005
 31
0.0
  0
LINE
  5
499
330
1F
100
AcDbEntity
  8
0
  6
CONTINUOUS
 62
     7
100
AcDbLine
 10
1922.8364886437
 20
704.5344253594
 30
0.0
 11
1922.8364886437
 21
707.0344267005
 31
0.0
  0
LINE
  5
49A
330
1F
100
AcDbEntity
  8
0
  6
CONTINUOUS
 62
     7
100
AcDbLine
 10
1922.8420765792
 20
503.0344193394
 30
0.0
 11
1922.8420765792
 21
505.5344318564
 31
0.0
  0
LINE
  5
49B
330
1F
100
AcDbEntity
  8
0
  6
CONTINUOUS
 62
     7
100
AcDbLine
 10
1922.8364886437
 20
503.0344193394
 30
0.0
 11
1922.8420765792
 21
503.0344193394
 31
0.0
  0
LINE
  5
49C
330
1F
100
AcDbEntity
  8
0
  6
CONTINUOUS
 62
     7
100
AcDbLine
 10
1922.8364886437
 20
500.5344217236
 30
0.0
 11
1922.8364886437
 21
503.0344193394
 31
0.0
  0
LINE
  5
49D
330
1F
100
AcDbEntity
  8
0
  6
CONTINUOUS
 62
     7
100
AcDbLine
 10
1922.6085902844
 20
676.5344244952
 30
0.0
 11
1922.8420169745
 21
676.5344244952
 31
0.0
  0
LINE
  5
49E
330
1F
100
AcDbEntity
  8
0
  6
CONTINUOUS
 62
     7
100
AcDbLine
 10
1922.8364588414
 20
679.0344258363
 30
0.0
 11
1922.8420169745
 21
679.0344258363
 31
0.0
  0
LINE
  5
49F
330
1F
100
AcDbEntity
  8
0
  6
CONTINUOUS
 62
     7
100
AcDbLine
 10
1922.8420169745
 20
676.5344244952
 30
0.0
 11
1922.8420169745
 21
679.0344258363
 31
0.0
  0
LINE
  5
4A0
330
1F
100
AcDbEntity
  8
0
  6
CONTINUOUS
 62
     7
100
AcDbLine
 10
1922.8364588414
 20
681.5344271774
 30
0.0
 11
1922.8364588414
 21
679.0344258363
 31
0.0
  0
LINE
  5
4A1
330
1F
100
AcDbEntity
  8
0
  6
CONTINUOUS
 62
     7
100
AcDbLine
 10
1922.8364588414
 20
543.0344258959
 30
0.0
 11
1922.8420169745
 21
543.0344258959
 31
0.0
  0
LINE
  5
4A2
330
1F
100
AcDbEntity
  8
0
  6
CONTINUOUS
 62
     7
100
AcDbLine
 10
1922.8420169745
 20
540.5344282801
 30
0.0
 11
1922.8420169745
 21
543.0344258959
 31
0.0
  0
LINE
  5
4A3
330
1F
100
AcDbEntity
  8
0
  6
CONTINUOUS
 62
     7
100
AcDbLine
 10
1922.6085902844
 20
540.5344282801
 30
0.0
 11
1922.8420169745
 21
540.5344282801
 31
0.0
  0
LINE
  5
4A4
330
1F
100
AcDbEntity
  8
0
  6
CONTINUOUS
 62
     7
100
AcDbLine
 10
1922.8364588414
 20
545.5344235117
 30
0.0
 11
1922.8364588414
 21
543.0344258959
 31
0.0
  0
LINE
  5
4A5
330
1F
100
AcDbEntity
  8
0
  6
CONTINUOUS
 62
     7
100
AcDbLine
 10
1922.8364588414
 20
611.0344295914
 30
0.0
 11
1922.8420169745
 21
611.0344295914
 31
0.0
  0
LINE
  5
4A6
330
1F
100
AcDbEntity
  8
0
  6
CONTINUOUS
 62
     7
100
AcDbLine
 10
1922.8420169745
 20
608.534424525
 30
0.0
 11
1922.8420169745
 21
611.0344295914
 31
0.0
  0
LINE
  5
4A7
330
1F
100
AcDbEntity
  8
0
  6
CONTINUOUS
 62
     7
100
AcDbLine
 10
1922.6085902844
 20
608.534424525
 30
0.0
 11
1922.8420169745
 21
608.534424525
 31
0.0
  0
LINE
  5
4A8
330
1F
100
AcDbEntity
  8
0
  6
CONTINUOUS
 62
     7
100
AcDbLine
 10
1922.8364588414
 20
613.5344272072
 30
0.0
 11
1922.8364588414
 21
611.0344295914
 31
0.0
  0
LINE
  5
4A9
330
1F
100
AcDbEntity
  8
0
  6
CONTINUOUS
 62
     7
100
AcDbLine
 10
1926.9005121385
 20
503.0344193394
 30
0.0
 11
1926.9005121385
 21
500.5344217236
 31
0.0
  0
LINE
  5
4AA
330
1F
100
AcDbEntity
  8
0
  6
CONTINUOUS
 62
     7
100
AcDbLine
 10
1926.9005121385
 20
503.0344193394
 30
0.0
 11
1926.8949540053
 21
503.0344193394
 31
0.0
  0
LINE
  5
4AB
330
1F
100
AcDbEntity
  8
0
  6
CONTINUOUS
 62
     7
100
AcDbLine
 10
1926.8949838077
 20
503.0344193394
 30
0.0
 11
1926.8949838077
 21
505.5344318564
 31
0.0
  0
LINE
  5
4AC
330
1F
100
AcDbEntity
  8
0
  6
CONTINUOUS
 62
     7
100
AcDbLine
 10
1927.128335992
 20
505.5344318564
 30
0.0
 11
1926.894924203
 21
505.5344318564
 31
0.0
  0
LINE
  5
4AD
330
1F
100
AcDbEntity
  8
0
  6
CONTINUOUS
 62
     7
100
AcDbLine
 10
1926.9005121385
 20
571.0344230349
 30
0.0
 11
1926.9005121385
 21
568.534425419
 31
0.0
  0
LINE
  5
4AE
330
1F
100
AcDbEntity
  8
0
  6
CONTINUOUS
 62
     7
100
AcDbLine
 10
1926.9005121385
 20
571.0344230349
 30
0.0
 11
1926.8949540053
 21
571.0344230349
 31
0.0
  0
LINE
  5
4AF
330
1F
100
AcDbEntity
  8
0
  6
CONTINUOUS
 62
     7
100
AcDbLine
 10
1926.8949838077
 20
571.0344230349
 30
0.0
 11
1926.8949838077
 21
573.5344206507
 31
0.0
  0
LINE
  5
4B0
330
1F
100
AcDbEntity
  8
0
  6
CONTINUOUS
 62
     7
100
AcDbLine
 10
1927.128335992
 20
573.5344206507
 30
0.0
 11
1926.894924203
 21
573.5344206507
 31
0.0
  0
LINE
  5
4B1
330
1F
100
AcDbEntity
  8
0
  6
CONTINUOUS
 62
     7
100
AcDbLine
 10
1926.9005121385
 20
639.0344267304
 30
0.0
 11
1926.9005121385
 21
636.5344291145
 31
0.0
  0
LINE
  5
4B2
330
1F
100
AcDbEntity
  8
0
  6
CONTINUOUS
 62
     7
100
AcDbLine
 10
1926.9005121385
 20
639.0344267304
 30
0.0
 11
1926.8949540053
 21
639.0344267304
 31
0.0
  0
LINE
  5
4B3
330
1F
100
AcDbEntity
  8
0
  6
CONTINUOUS
 62
     7
100
AcDbLine
 10
1926.8949838077
 20
639.0344267304
 30
0.0
 11
1926.8949838077
 21
641.5344243462
 31
0.0
  0
LINE
  5
4B4
330
1F
100
AcDbEntity
  8
0
  6
CONTINUOUS
 62
     7
100
AcDbLine
 10
1927.128335992
 20
641.5344243462
 30
0.0
 11
1926.894924203
 21
641.5344243462
 31
0.0
  0
LINE
  5
4B5
330
1F
100
AcDbEntity
  8
0
  6
CONTINUOUS
 62
     7
100
AcDbLine
 10
1927.128335992
 20
709.534426179
 30
0.0
 11
1926.894924203
 21
709.534426179
 31
0.0
  0
LINE
  5
4B6
330
1F
100
AcDbEntity
  8
0
  6
CONTINUOUS
 62
     7
100
AcDbLine
 10
1926.9005121385
 20
707.0344267005
 30
0.0
 11
1926.9005121385
 21
704.5344253594
 31
0.0
  0
LINE
  5
4B7
330
1F
100
AcDbEntity
  8
0
  6
CONTINUOUS
 62
     7
100
AcDbLine
 10
1926.9005121385
 20
707.0344267005
 30
0.0
 11
1926.8949540053
 21
707.0344267005
 31
0.0
  0
LINE
  5
4B8
330
1F
100
AcDbEntity
  8
0
  6
CONTINUOUS
 62
     7
100
AcDbLine
 10
1926.8949838077
 20
707.0344267005
 30
0.0
 11
1926.8949838077
 21
709.534426179
 31
0.0
  0
LINE
  5
4B9
330
1F
100
AcDbEntity
  8
0
  6
CONTINUOUS
 62
     7
100
AcDbLine
 10
1922.841778556
 20
981.5344279224
 30
0.0
 11
1922.8420169745
 21
979.0344303066
 31
0.0
  0
LINE
  5
4BA
330
1F
100
AcDbEntity
  8
0
  6
CONTINUOUS
 62
     7
100
AcDbLine
 10
1922.8364588414
 20
979.0344303066
 30
0.0
 11
1922.8420169745
 21
979.0344303066
 31
0.0
  0
LINE
  5
4BB
330
1F
100
AcDbEntity
  8
0
  6
CONTINUOUS
 62
     7
100
AcDbLine
 10
1922.8364588414
 20
971.534422558
 30
0.0
 11
1922.8364588414
 21
979.0344303066
 31
0.0
  0
LINE
  5
4BC
330
1F
100
AcDbEntity
  8
0
  6
CONTINUOUS
 62
     7
100
AcDbLine
 10
1926.8949093019
 20
883.0344294722
 30
0.0
 11
1926.894924203
 21
880.5344318564
 31
0.0
  0
LINE
  5
4BD
330
1F
100
AcDbEntity
  8
0
  6
CONTINUOUS
 62
     7
100
AcDbLine
 10
1926.9005121385
 20
883.0344294722
 30
0.0
 11
1926.8949093019
 21
883.0344294722
 31
0.0
  0
LINE
  5
4BE
330
1F
100
AcDbEntity
  8
0
  6
CONTINUOUS
 62
     7
100
AcDbLine
 10
1926.9005121385
 20
883.0344294722
 30
0.0
 11
1926.9005121385
 21
885.534427088
 31
0.0
  0
LINE
  5
4BF
330
1F
100
AcDbEntity
  8
0
  6
CONTINUOUS
 62
     7
100
AcDbLine
 10
1926.8949093019
 20
747.0344258065
 30
0.0
 11
1926.894924203
 21
744.534426328
 31
0.0
  0
LINE
  5
4C0
330
1F
100
AcDbEntity
  8
0
  6
CONTINUOUS
 62
     7
100
AcDbLine
 10
1926.9005121385
 20
747.0344258065
 30
0.0
 11
1926.8949093019
 21
747.0344258065
 31
0.0
  0
LINE
  5
4C1
330
1F
100
AcDbEntity
  8
0
  6
CONTINUOUS
 62
     7
100
AcDbLine
 10
1926.9005121385
 20
747.0344258065
 30
0.0
 11
1926.9005121385
 21
749.5344271476
 31
0.0
  0
LINE
  5
4C2
330
1F
100
AcDbEntity
  8
0
  6
CONTINUOUS
 62
     7
100
AcDbLine
 10
1926.8949093019
 20
951.0344331677
 30
0.0
 11
1926.894924203
 21
948.5344206507
 31
0.0
  0
LINE
  5
4C3
330
1F
100
AcDbEntity
  8
0
  6
CONTINUOUS
 62
     7
100
AcDbLine
 10
1926.9005121385
 20
951.0344331677
 30
0.0
 11
1926.8949093019
 21
951.0344331677
 31
0.0
  0
LINE
  5
4C4
330
1F
100
AcDbEntity
  8
0
  6
CONTINUOUS
 62
     7
100
AcDbLine
 10
1926.9005121385
 20
951.0344331677
 30
0.0
 11
1926.9005121385
 21
953.5344307835
 31
0.0
  0
LINE
  5
4C5
330
1F
100
AcDbEntity
  8
0
  6
CONTINUOUS
 62
     7
100
AcDbLine
 10
1926.8949093019
 20
815.0344257767
 30
0.0
 11
1926.894924203
 21
812.5344281609
 31
0.0
  0
LINE
  5
4C6
330
1F
100
AcDbEntity
  8
0
  6
CONTINUOUS
 62
     7
100
AcDbLine
 10
1926.9005121385
 20
815.0344257767
 30
0.0
 11
1926.8949093019
 21
815.0344257767
 31
0.0
  0
LINE
  5
4C7
330
1F
100
AcDbEntity
  8
0
  6
CONTINUOUS
 62
     7
100
AcDbLine
 10
1926.9005121385
 20
815.0344257767
 30
0.0
 11
1926.9005121385
 21
817.5344233925
 31
0.0
  0
LINE
  5
4C8
330
1F
100
AcDbEntity
  8
0
  6
CONTINUOUS
 62
     7
100
AcDbLine
 10
1922.8364886437
 20
747.0344258065
 30
0.0
 11
1922.8420467769
 21
747.0344258065
 31
0.0
  0
LINE
  5
4C9
330
1F
100
AcDbEntity
  8
0
  6
CONTINUOUS
 62
     7
100
AcDbLine
 10
1922.8420169745
 20
747.0344258065
 30
0.0
 11
1922.8420169745
 21
744.534426328
 31
0.0
  0
LINE
  5
4CA
330
1F
100
AcDbEntity
  8
0
  6
CONTINUOUS
 62
     7
100
AcDbLine
 10
1922.6086498891
 20
744.534426328
 30
0.0
 11
1922.8420765792
 21
744.534426328
 31
0.0
  0
LINE
  5
4CB
330
1F
100
AcDbEntity
  8
0
  6
CONTINUOUS
 62
     7
100
AcDbLine
 10
1922.8364886437
 20
749.5344271476
 30
0.0
 11
1922.8364886437
 21
747.0344258065
 31
0.0
  0
LINE
  5
4CC
330
1F
100
AcDbEntity
  8
0
  6
CONTINUOUS
 62
     7
100
AcDbLine
 10
1922.8364886437
 20
815.0344257767
 30
0.0
 11
1922.8420467769
 21
815.0344257767
 31
0.0
  0
LINE
  5
4CD
330
1F
100
AcDbEntity
  8
0
  6
CONTINUOUS
 62
     7
100
AcDbLine
 10
1922.8420169745
 20
815.0344257767
 30
0.0
 11
1922.8420169745
 21
812.5344281609
 31
0.0
  0
LINE
  5
4CE
330
1F
100
AcDbEntity
  8
0
  6
CONTINUOUS
 62
     7
100
AcDbLine
 10
1922.6086498891
 20
812.5344281609
 30
0.0
 11
1922.8420765792
 21
812.5344281609
 31
0.0
  0
LINE
  5
4CF
330
1F
100
AcDbEntity
  8
0
  6
CONTINUOUS
 62
     7
100
AcDbLine
 10
1922.8364886437
 20
817.5344233925
 30
0.0
 11
1922.8364886437
 21
815.0344257767
 31
0.0
  0
LINE
  5
4D0
330
1F
100
AcDbEntity
  8
0
  6
CONTINUOUS
 62
     7
100
AcDbLine
 10
1922.8364886437
 20
951.0344331677
 30
0.0
 11
1922.8420467769
 21
951.0344331677
 31
0.0
  0
LINE
  5
4D1
330
1F
100
AcDbEntity
  8
0
  6
CONTINUOUS
 62
     7
100
AcDbLine
 10
1922.8420169745
 20
951.0344331677
 30
0.0
 11
1922.8420169745
 21
948.5344206507
 31
0.0
  0
LINE
  5
4D2
330
1F
100
AcDbEntity
  8
0
  6
CONTINUOUS
 62
     7
100
AcDbLine
 10
1922.6086498891
 20
948.5344206507
 30
0.0
 11
1922.8420765792
 21
948.5344206507
 31
0.0
  0
LINE
  5
4D3
330
1F
100
AcDbEntity
  8
0
  6
CONTINUOUS
 62
     7
100
AcDbLine
 10
1922.8364886437
 20
953.5344307835
 30
0.0
 11
1922.8364886437
 21
951.0344331677
 31
0.0
  0
LINE
  5
4D4
330
1F
100
AcDbEntity
  8
0
  6
CONTINUOUS
 62
     7
100
AcDbLine
 10
1922.8364886437
 20
883.0344294722
 30
0.0
 11
1922.8420467769
 21
883.0344294722
 31
0.0
  0
LINE
  5
4D5
330
1F
100
AcDbEntity
  8
0
  6
CONTINUOUS
 62
     7
100
AcDbLine
 10
1922.8420169745
 20
883.0344294722
 30
0.0
 11
1922.8420169745
 21
880.5344318564
 31
0.0
  0
LINE
  5
4D6
330
1F
100
AcDbEntity
  8
0
  6
CONTINUOUS
 62
     7
100
AcDbLine
 10
1922.6086498891
 20
880.5344318564
 30
0.0
 11
1922.8420765792
 21
880.5344318564
 31
0.0
  0
LINE
  5
4D7
330
1F
100
AcDbEntity
  8
0
  6
CONTINUOUS
 62
     7
100
AcDbLine
 10
1922.8364886437
 20
885.534427088
 30
0.0
 11
1922.8364886437
 21
883.0344294722
 31
0.0
  0
LINE
  5
4D8
330
1F
100
AcDbEntity
  8
0
  6
CONTINUOUS
 62
     7
100
AcDbLine
 10
1922.6085902844
 20
845.534427982
 30
0.0
 11
1922.8420169745
 21
845.534427982
 31
0.0
  0
LINE
  5
4D9
330
1F
100
AcDbEntity
  8
0
  6
CONTINUOUS
 62
     7
100
AcDbLine
 10
1922.8420169745
 20
845.534427982
 30
0.0
 11
1922.8420169745
 21
843.0344229157
 31
0.0
  0
LINE
  5
4DA
330
1F
100
AcDbEntity
  8
0
  6
CONTINUOUS
 62
     7
100
AcDbLine
 10
1922.8364588414
 20
843.0344229157
 30
0.0
 11
1922.8420169745
 21
843.0344229157
 31
0.0
  0
LINE
  5
4DB
330
1F
100
AcDbEntity
  8
0
  6
CONTINUOUS
 62
     7
100
AcDbLine
 10
1922.8364588414
 20
840.5344252998
 30
0.0
 11
1922.8364588414
 21
843.0344229157
 31
0.0
  0
LINE
  5
4DC
330
1F
100
AcDbEntity
  8
0
  6
CONTINUOUS
 62
     7
100
AcDbLine
 10
1922.8364588414
 20
475.0344222004
 30
0.0
 11
1922.8420169745
 21
475.0344222004
 31
0.0
  0
LINE
  5
4DD
330
1F
100
AcDbEntity
  8
0
  6
CONTINUOUS
 62
     7
100
AcDbLine
 10
1922.841778556
 20
472.5344245846
 30
0.0
 11
1922.8420169745
 21
475.0344222004
 31
0.0
  0
LINE
  5
4DE
330
1F
100
AcDbEntity
  8
0
  6
CONTINUOUS
 62
     7
100
AcDbLine
 10
1922.8364588414
 20
482.534429949
 30
0.0
 11
1922.8364588414
 21
475.0344222004
 31
0.0
  0
LINE
  5
4DF
330
1F
100
AcDbEntity
  8
0
  6
CONTINUOUS
 62
     7
100
AcDbLine
 10
1922.6085902844
 20
777.5344280119
 30
0.0
 11
1922.8420169745
 21
777.5344280119
 31
0.0
  0
LINE
  5
4E0
330
1F
100
AcDbEntity
  8
0
  6
CONTINUOUS
 62
     7
100
AcDbLine
 10
1922.8420169745
 20
777.5344280119
 30
0.0
 11
1922.8420169745
 21
775.0344266707
 31
0.0
  0
LINE
  5
4E1
330
1F
100
AcDbEntity
  8
0
  6
CONTINUOUS
 62
     7
100
AcDbLine
 10
1922.8364588414
 20
775.0344266707
 30
0.0
 11
1922.8420169745
 21
775.0344266707
 31
0.0
  0
LINE
  5
4E2
330
1F
100
AcDbEntity
  8
0
  6
CONTINUOUS
 62
     7
100
AcDbLine
 10
1922.8364588414
 20
772.5344253296
 30
0.0
 11
1922.8364588414
 21
775.0344266707
 31
0.0
  0
LINE
  5
4E3
330
1F
100
AcDbEntity
  8
0
  6
CONTINUOUS
 62
     7
100
AcDbLine
 10
1922.6085902844
 20
913.534424227
 30
0.0
 11
1922.8420169745
 21
913.534424227
 31
0.0
  0
LINE
  5
4E4
330
1F
100
AcDbEntity
  8
0
  6
CONTINUOUS
 62
     7
100
AcDbLine
 10
1922.8420169745
 20
913.534424227
 30
0.0
 11
1922.8420169745
 21
911.0344266111
 31
0.0
  0
LINE
  5
4E5
330
1F
100
AcDbEntity
  8
0
  6
CONTINUOUS
 62
     7
100
AcDbLine
 10
1922.8364588414
 20
911.0344266111
 30
0.0
 11
1922.8420169745
 21
911.0344266111
 31
0.0
  0
LINE
  5
4E6
330
1F
100
AcDbEntity
  8
0
  6
CONTINUOUS
 62
     7
100
AcDbLine
 10
1922.8364588414
 20
908.5344289953
 30
0.0
 11
1922.8364588414
 21
911.0344266111
 31
0.0
  0
LINE
  5
4E7
330
1F
100
AcDbEntity
  8
0
  6
CONTINUOUS
 62
     7
100
AcDbLine
 10
1926.9005419408
 20
911.0344266111
 30
0.0
 11
1926.9005419408
 21
908.5344289953
 31
0.0
  0
LINE
  5
4E8
330
1F
100
AcDbEntity
  8
0
  6
CONTINUOUS
 62
     7
100
AcDbLine
 10
1926.9005419408
 20
911.0344266111
 30
0.0
 11
1926.8949838077
 21
911.0344266111
 31
0.0
  0
LINE
  5
4E9
330
1F
100
AcDbEntity
  8
0
  6
CONTINUOUS
 62
     7
100
AcDbLine
 10
1926.8949838077
 20
913.534424227
 30
0.0
 11
1926.8949838077
 21
911.0344266111
 31
0.0
  0
LINE
  5
4EA
330
1F
100
AcDbEntity
  8
0
  6
CONTINUOUS
 62
     7
100
AcDbLine
 10
1927.1283955966
 20
913.534424227
 30
0.0
 11
1926.8949838077
 21
913.534424227
 31
0.0
  0
LINE
  5
4EB
330
1F
100
AcDbEntity
  8
0
  6
CONTINUOUS
 62
     7
100
AcDbLine
 10
1926.9005419408
 20
843.0344229157
 30
0.0
 11
1926.9005419408
 21
840.5344252998
 31
0.0
  0
LINE
  5
4EC
330
1F
100
AcDbEntity
  8
0
  6
CONTINUOUS
 62
     7
100
AcDbLine
 10
1926.9005419408
 20
843.0344229157
 30
0.0
 11
1926.8949838077
 21
843.0344229157
 31
0.0
  0
LINE
  5
4ED
330
1F
100
AcDbEntity
  8
0
  6
CONTINUOUS
 62
     7
100
AcDbLine
 10
1926.8949838077
 20
845.534427982
 30
0.0
 11
1926.8949838077
 21
843.0344229157
 31
0.0
  0
LINE
  5
4EE
330
1F
100
AcDbEntity
  8
0
  6
CONTINUOUS
 62
     7
100
AcDbLine
 10
1927.1283955966
 20
845.534427982
 30
0.0
 11
1926.8949838077
 21
845.534427982
 31
0.0
  0
LINE
  5
4EF
330
1F
100
AcDbEntity
  8
0
  6
CONTINUOUS
 62
     7
100
AcDbLine
 10
1927.1283955966
 20
777.5344280119
 30
0.0
 11
1926.8949838077
 21
777.5344280119
 31
0.0
  0
LINE
  5
4F0
330
1F
100
AcDbEntity
  8
0
  6
CONTINUOUS
 62
     7
100
AcDbLine
 10
1926.9005419408
 20
775.0344266707
 30
0.0
 11
1926.9005419408
 21
772.5344253296
 31
0.0
  0
LINE
  5
4F1
330
1F
100
AcDbEntity
  8
0
  6
CONTINUOUS
 62
     7
100
AcDbLine
 10
1926.9005419408
 20
775.0344266707
 30
0.0
 11
1926.8949838077
 21
775.0344266707
 31
0.0
  0
LINE
  5
4F2
330
1F
100
AcDbEntity
  8
0
  6
CONTINUOUS
 62
     7
100
AcDbLine
 10
1926.8949838077
 20
777.5344280119
 30
0.0
 11
1926.8949838077
 21
775.0344266707
 31
0.0
  0
LINE
  5
4F3
330
1F
100
AcDbEntity
  8
0
  6
CONTINUOUS
 62
     7
100
AcDbLine
 10
1926.8949838077
 20
472.5344245846
 30
0.0
 11
1926.8949838077
 21
475.0344222004
 31
0.0
  0
LINE
  5
4F4
330
1F
100
AcDbEntity
  8
0
  6
CONTINUOUS
 62
     7
100
AcDbLine
 10
1926.9005419408
 20
475.0344222004
 30
0.0
 11
1926.8949838077
 21
475.0344222004
 31
0.0
  0
LINE
  5
4F5
330
1F
100
AcDbEntity
  8
0
  6
CONTINUOUS
 62
     7
100
AcDbLine
 10
1926.9005419408
 20
482.534429949
 30
0.0
 11
1926.9005419408
 21
475.0344222004
 31
0.0
  0
LINE
  5
4F6
330
1F
100
AcDbEntity
  8
0
  6
CONTINUOUS
 62
     7
100
AcDbLine
 10
1927.1283955966
 20
472.5344245846
 30
0.0
 11
1926.8949838077
 21
472.5344245846
 31
0.0
  0
LINE
  5
4F7
330
1F
100
AcDbEntity
  8
0
  6
CONTINUOUS
 62
     7
100
AcDbLine
 10
1926.9005419408
 20
979.0344303066
 30
0.0
 11
1926.9005419408
 21
971.534422558
 31
0.0
  0
LINE
  5
4F8
330
1F
100
AcDbEntity
  8
0
  6
CONTINUOUS
 62
     7
100
AcDbLine
 10
1926.9005419408
 20
979.0344303066
 30
0.0
 11
1926.8949838077
 21
979.0344303066
 31
0.0
  0
LINE
  5
4F9
330
1F
100
AcDbEntity
  8
0
  6
CONTINUOUS
 62
     7
100
AcDbLine
 10
1926.8949838077
 20
981.5344279224
 30
0.0
 11
1926.8949838077
 21
979.0344303066
 31
0.0
  0
LINE
  5
4FA
330
1F
100
AcDbEntity
  8
0
  6
CONTINUOUS
 62
     7
100
AcDbLine
 10
1927.1283955966
 20
981.5344279224
 30
0.0
 11
1926.8949838077
 21
981.5344279224
 31
0.0
  0
LINE
  5
4FB
330
1F
100
AcDbEntity
  8
0
  6
CONTINUOUS
 62
     7
100
AcDbLine
 10
1917.8685011064
 20
571.0344230349
 30
0.0
 11
1919.9659140502
 21
571.0344230349
 31
0.0
  0
LINE
  5
4FC
330
1F
100
AcDbEntity
  8
0
  6
CONTINUOUS
 62
     7
100
AcDbLine
 10
1917.8685011064
 20
571.0344230349
 30
0.0
 11
1917.8685011064
 21
573.5344206507
 31
0.0
  0
LINE
  5
4FD
330
1F
100
AcDbEntity
  8
0
  6
CONTINUOUS
 62
     7
100
AcDbLine
 10
1917.8685011064
 20
540.5344282801
 30
0.0
 11
1917.8685011064
 21
543.0344258959
 31
0.0
  0
LINE
  5
4FE
330
1F
100
AcDbEntity
  8
0
  6
CONTINUOUS
 62
     7
100
AcDbLine
 10
1917.8685011064
 20
543.0344258959
 30
0.0
 11
1919.9659140502
 21
543.0344258959
 31
0.0
  0
LINE
  5
4FF
330
1F
100
AcDbEntity
  8
0
  6
CONTINUOUS
 62
     7
100
AcDbLine
 10
1919.9659140502
 20
571.0344230349
 30
0.0
 11
1919.9659140502
 21
543.0344258959
 31
0.0
  0
LINE
  5
500
330
1F
100
AcDbEntity
  8
0
  6
CONTINUOUS
 62
     7
100
AcDbLine
 10
1917.8685011064
 20
540.5344282801
 30
0.0
 11
1922.0579774772
 21
540.5344282801
 31
0.0
  0
LINE
  5
501
330
1F
100
AcDbEntity
  8
0
  6
CONTINUOUS
 62
     7
100
AcDbLine
 10
1917.8685011064
 20
573.5344206507
 30
0.0
 11
1922.0579774772
 21
573.5344206507
 31
0.0
  0
LINE
  5
502
330
1F
100
AcDbEntity
  8
0
  6
CONTINUOUS
 62
     7
100
AcDbLine
 10
1917.8685011064
 20
639.0344267304
 30
0.0
 11
1919.9659140502
 21
639.0344267304
 31
0.0
  0
LINE
  5
503
330
1F
100
AcDbEntity
  8
0
  6
CONTINUOUS
 62
     7
100
AcDbLine
 10
1917.8685011064
 20
639.0344267304
 30
0.0
 11
1917.8685011064
 21
641.5344243462
 31
0.0
  0
LINE
  5
504
330
1F
100
AcDbEntity
  8
0
  6
CONTINUOUS
 62
     7
100
AcDbLine
 10
1917.8685011064
 20
608.534424525
 30
0.0
 11
1917.8685011064
 21
611.0344295914
 31
0.0
  0
LINE
  5
505
330
1F
100
AcDbEntity
  8
0
  6
CONTINUOUS
 62
     7
100
AcDbLine
 10
1917.8685011064
 20
611.0344295914
 30
0.0
 11
1919.9659140502
 21
611.0344295914
 31
0.0
  0
LINE
  5
506
330
1F
100
AcDbEntity
  8
0
  6
CONTINUOUS
 62
     7
100
AcDbLine
 10
1919.9659140502
 20
639.0344267304
 30
0.0
 11
1919.9659140502
 21
611.0344295914
 31
0.0
  0
LINE
  5
507
330
1F
100
AcDbEntity
  8
0
  6
CONTINUOUS
 62
     7
100
AcDbLine
 10
1917.8685011064
 20
608.534424525
 30
0.0
 11
1922.0579774772
 21
608.534424525
 31
0.0
  0
LINE
  5
508
330
1F
100
AcDbEntity
  8
0
  6
CONTINUOUS
 62
     7
100
AcDbLine
 10
1917.8685011064
 20
641.5344243462
 30
0.0
 11
1922.0579774772
 21
641.5344243462
 31
0.0
  0
LINE
  5
509
330
1F
100
AcDbEntity
  8
0
  6
CONTINUOUS
 62
     7
100
AcDbLine
 10
1917.8685011064
 20
951.0344331677
 30
0.0
 11
1919.9659140502
 21
951.0344331677
 31
0.0
  0
LINE
  5
50A
330
1F
100
AcDbEntity
  8
0
  6
CONTINUOUS
 62
     7
100
AcDbLine
 10
1919.9659140502
 20
951.0344331677
 30
0.0
 11
1919.9659140502
 21
979.0344303066
 31
0.0
  0
LINE
  5
50B
330
1F
100
AcDbEntity
  8
0
  6
CONTINUOUS
 62
     7
100
AcDbLine
 10
1917.8685011064
 20
979.0344303066
 30
0.0
 11
1919.9659140502
 21
979.0344303066
 31
0.0
  0
LINE
  5
50C
330
1F
100
AcDbEntity
  8
0
  6
CONTINUOUS
 62
     7
100
AcDbLine
 10
1917.8685011064
 20
981.5344279224
 30
0.0
 11
1917.8685011064
 21
979.0344303066
 31
0.0
  0
LINE
  5
50D
330
1F
100
AcDbEntity
  8
0
  6
CONTINUOUS
 62
     7
100
AcDbLine
 10
1917.8685011064
 20
981.5344279224
 30
0.0
 11
1919.9659140502
 21
981.5344279224
 31
0.0
  0
LINE
  5
50E
330
1F
100
AcDbEntity
  8
0
  6
CONTINUOUS
 62
     7
100
AcDbLine
 10
1917.8685011064
 20
951.0344331677
 30
0.0
 11
1917.8685011064
 21
948.5344206507
 31
0.0
  0
LINE
  5
50F
330
1F
100
AcDbEntity
  8
0
  6
CONTINUOUS
 62
     7
100
AcDbLine
 10
1917.8685011064
 20
948.5344206507
 30
0.0
 11
1922.0579774772
 21
948.5344206507
 31
0.0
  0
LINE
  5
510
330
1F
100
AcDbEntity
  8
0
  6
CONTINUOUS
 62
     7
100
AcDbLine
 10
1917.8685011064
 20
707.0344267005
 30
0.0
 11
1919.9659140502
 21
707.0344267005
 31
0.0
  0
LINE
  5
511
330
1F
100
AcDbEntity
  8
0
  6
CONTINUOUS
 62
     7
100
AcDbLine
 10
1917.8685011064
 20
707.0344267005
 30
0.0
 11
1917.8685011064
 21
709.534426179
 31
0.0
  0
LINE
  5
512
330
1F
100
AcDbEntity
  8
0
  6
CONTINUOUS
 62
     7
100
AcDbLine
 10
1917.8685011064
 20
676.5344244952
 30
0.0
 11
1917.8685011064
 21
679.0344258363
 31
0.0
  0
LINE
  5
513
330
1F
100
AcDbEntity
  8
0
  6
CONTINUOUS
 62
     7
100
AcDbLine
 10
1917.8685011064
 20
679.0344258363
 30
0.0
 11
1919.9659140502
 21
679.0344258363
 31
0.0
  0
LINE
  5
514
330
1F
100
AcDbEntity
  8
0
  6
CONTINUOUS
 62
     7
100
AcDbLine
 10
1919.9659140502
 20
707.0344267005
 30
0.0
 11
1919.9659140502
 21
679.0344258363
 31
0.0
  0
LINE
  5
515
330
1F
100
AcDbEntity
  8
0
  6
CONTINUOUS
 62
     7
100
AcDbLine
 10
1917.8685011064
 20
676.5344244952
 30
0.0
 11
1922.0579774772
 21
676.5344244952
 31
0.0
  0
LINE
  5
516
330
1F
100
AcDbEntity
  8
0
  6
CONTINUOUS
 62
     7
100
AcDbLine
 10
1917.8685011064
 20
709.534426179
 30
0.0
 11
1922.0579774772
 21
709.534426179
 31
0.0
  0
LINE
  5
517
330
1F
100
AcDbEntity
  8
0
  6
CONTINUOUS
 62
     7
100
AcDbLine
 10
1917.8685011064
 20
883.0344294722
 30
0.0
 11
1919.9659140502
 21
883.0344294722
 31
0.0
  0
LINE
  5
518
330
1F
100
AcDbEntity
  8
0
  6
CONTINUOUS
 62
     7
100
AcDbLine
 10
1919.9659140502
 20
883.0344294722
 30
0.0
 11
1919.9659140502
 21
911.0344266111
 31
0.0
  0
LINE
  5
519
330
1F
100
AcDbEntity
  8
0
  6
CONTINUOUS
 62
     7
100
AcDbLine
 10
1917.8685011064
 20
911.0344266111
 30
0.0
 11
1919.9659140502
 21
911.0344266111
 31
0.0
  0
LINE
  5
51A
330
1F
100
AcDbEntity
  8
0
  6
CONTINUOUS
 62
     7
100
AcDbLine
 10
1917.8685011064
 20
913.534424227
 30
0.0
 11
1917.8685011064
 21
911.0344266111
 31
0.0
  0
LINE
  5
51B
330
1F
100
AcDbEntity
  8
0
  6
CONTINUOUS
 62
     7
100
AcDbLine
 10
1917.8685011064
 20
883.0344294722
 30
0.0
 11
1917.8685011064
 21
880.5344318564
 31
0.0
  0
LINE
  5
51C
330
1F
100
AcDbEntity
  8
0
  6
CONTINUOUS
 62
     7
100
AcDbLine
 10
1917.8685011064
 20
913.534424227
 30
0.0
 11
1922.0579774772
 21
913.534424227
 31
0.0
  0
LINE
  5
51D
330
1F
100
AcDbEntity
  8
0
  6
CONTINUOUS
 62
     7
100
AcDbLine
 10
1917.8685011064
 20
880.5344318564
 30
0.0
 11
1922.0579774772
 21
880.5344318564
 31
0.0
  0
LINE
  5
51E
330
1F
100
AcDbEntity
  8
0
  6
CONTINUOUS
 62
     7
100
AcDbLine
 10
1917.8685011064
 20
747.0344258065
 30
0.0
 11
1919.9659140502
 21
747.0344258065
 31
0.0
  0
LINE
  5
51F
330
1F
100
AcDbEntity
  8
0
  6
CONTINUOUS
 62
     7
100
AcDbLine
 10
1919.9659140502
 20
747.0344258065
 30
0.0
 11
1919.9659140502
 21
775.0344266707
 31
0.0
  0
LINE
  5
520
330
1F
100
AcDbEntity
  8
0
  6
CONTINUOUS
 62
     7
100
AcDbLine
 10
1917.8685011064
 20
775.0344266707
 30
0.0
 11
1919.9659140502
 21
775.0344266707
 31
0.0
  0
LINE
  5
521
330
1F
100
AcDbEntity
  8
0
  6
CONTINUOUS
 62
     7
100
AcDbLine
 10
1917.8685011064
 20
777.5344280119
 30
0.0
 11
1917.8685011064
 21
775.0344266707
 31
0.0
  0
LINE
  5
522
330
1F
100
AcDbEntity
  8
0
  6
CONTINUOUS
 62
     7
100
AcDbLine
 10
1917.8685011064
 20
747.0344258065
 30
0.0
 11
1917.8685011064
 21
744.534426328
 31
0.0
  0
LINE
  5
523
330
1F
100
AcDbEntity
  8
0
  6
CONTINUOUS
 62
     7
100
AcDbLine
 10
1917.8685011064
 20
777.5344280119
 30
0.0
 11
1922.0579774772
 21
777.5344280119
 31
0.0
  0
LINE
  5
524
330
1F
100
AcDbEntity
  8
0
  6
CONTINUOUS
 62
     7
100
AcDbLine
 10
1917.8685011064
 20
744.534426328
 30
0.0
 11
1922.0579774772
 21
744.534426328
 31
0.0
  0
LINE
  5
525
330
1F
100
AcDbEntity
  8
0
  6
CONTINUOUS
 62
     7
100
AcDbLine
 10
1917.8685011064
 20
503.0344193394
 30
0.0
 11
1919.9659140502
 21
503.0344193394
 31
0.0
  0
LINE
  5
526
330
1F
100
AcDbEntity
  8
0
  6
CONTINUOUS
 62
     7
100
AcDbLine
 10
1917.8685011064
 20
503.0344193394
 30
0.0
 11
1917.8685011064
 21
505.5344318564
 31
0.0
  0
LINE
  5
527
330
1F
100
AcDbEntity
  8
0
  6
CONTINUOUS
 62
     7
100
AcDbLine
 10
1917.8685011064
 20
472.5344245846
 30
0.0
 11
1919.9659140502
 21
472.5344245846
 31
0.0
  0
LINE
  5
528
330
1F
100
AcDbEntity
  8
0
  6
CONTINUOUS
 62
     7
100
AcDbLine
 10
1917.8685011064
 20
472.5344245846
 30
0.0
 11
1917.8685011064
 21
475.0344222004
 31
0.0
  0
LINE
  5
529
330
1F
100
AcDbEntity
  8
0
  6
CONTINUOUS
 62
     7
100
AcDbLine
 10
1917.8685011064
 20
475.0344222004
 30
0.0
 11
1919.9659140502
 21
475.0344222004
 31
0.0
  0
LINE
  5
52A
330
1F
100
AcDbEntity
  8
0
  6
CONTINUOUS
 62
     7
100
AcDbLine
 10
1919.9659140502
 20
503.0344193394
 30
0.0
 11
1919.9659140502
 21
475.0344222004
 31
0.0
  0
LINE
  5
52B
330
1F
100
AcDbEntity
  8
0
  6
CONTINUOUS
 62
     7
100
AcDbLine
 10
1917.8685011064
 20
505.5344318564
 30
0.0
 11
1922.0579774772
 21
505.5344318564
 31
0.0
  0
LINE
  5
52C
330
1F
100
AcDbEntity
  8
0
  6
CONTINUOUS
 62
     7
100
AcDbLine
 10
1917.8685011064
 20
815.0344257767
 30
0.0
 11
1919.9659140502
 21
815.0344257767
 31
0.0
  0
LINE
  5
52D
330
1F
100
AcDbEntity
  8
0
  6
CONTINUOUS
 62
     7
100
AcDbLine
 10
1919.9659140502
 20
815.0344257767
 30
0.0
 11
1919.9659140502
 21
843.0344229157
 31
0.0
  0
LINE
  5
52E
330
1F
100
AcDbEntity
  8
0
  6
CONTINUOUS
 62
     7
100
AcDbLine
 10
1917.8685011064
 20
843.0344229157
 30
0.0
 11
1919.9659140502
 21
843.0344229157
 31
0.0
  0
LINE
  5
52F
330
1F
100
AcDbEntity
  8
0
  6
CONTINUOUS
 62
     7
100
AcDbLine
 10
1917.8685011064
 20
845.534427982
 30
0.0
 11
1917.8685011064
 21
843.0344229157
 31
0.0
  0
LINE
  5
530
330
1F
100
AcDbEntity
  8
0
  6
CONTINUOUS
 62
     7
100
AcDbLine
 10
1917.8685011064
 20
815.0344257767
 30
0.0
 11
1917.8685011064
 21
812.5344281609
 31
0.0
  0
LINE
  5
531
330
1F
100
AcDbEntity
  8
0
  6
CONTINUOUS
 62
     7
100
AcDbLine
 10
1917.8685011064
 20
845.534427982
 30
0.0
 11
1922.0579774772
 21
845.534427982
 31
0.0
  0
LINE
  5
532
330
1F
100
AcDbEntity
  8
0
  6
CONTINUOUS
 62
     7
100
AcDbLine
 10
1917.8685011064
 20
812.5344281609
 30
0.0
 11
1922.0579774772
 21
812.5344281609
 31
0.0
  0
LINE
  5
533
330
1F
100
AcDbEntity
  8
0
  6
CONTINUOUS
 62
     7
100
AcDbLine
 10
1480.6920053159
 20
1004.2520230228
 30
0.0
 11
1480.04362599
 21
1004.9004023487
 31
0.0
  0
LWPOLYLINE
  5
534
330
1F
100
AcDbEntity
  8
0
  6
CONTINUOUS
 62
     7
100
AcDbPolyline
 90
        3
 70
   128
 43
0.0
 10
1480.6920053159
 20
1004.2520230228
 10
1478.9506854211
 20
1004.0177469666
 10
1477.3424775992
 20
1003.3148889954
  0
LWPOLYLINE
  5
535
330
1F
100
AcDbEntity
  8
0
  6
CONTINUOUS
 62
     7
100
AcDbPolyline
 90
        3
 70
   128
 43
0.0
 10
1475.1380296145
 20
1001.1104410107
 10
1476.1078716908
 20
1002.3450618202
 10
1477.3424775992
 20
1003.3148889954
  0
ELLIPSE
  5
536
330
1F
100
AcDbEntity
  8
0
  6
CONTINUOUS
 62
     7
100
AcDbEllipse
 10
1480.7428477277
 20
997.7100771049
 30
0.0
 11
5.755673463793074
 21
-3.138546041767086
 31
0.0
210
0.0
220
0.0
230
1.0
 40
0.990751384
 41
3.095066020288577
 42
3.63692164007262
  0
LINE
  5
537
330
1F
100
AcDbEntity
  8
0
  6
CONTINUOUS
 62
     7
100
AcDbLine
 10
1474.2009104882
 20
997.7609281952
 30
0.0
 11
1473.5525311624
 21
998.4093075211
 31
0.0
  0
LINE
  5
538
330
1F
100
AcDbEntity
  8
0
  6
CONTINUOUS
 62
     7
100
AcDbLine
 10
1474.2009104882
 20
456.3079243118
 30
0.0
 11
1473.5525311624
 21
455.659544986
 31
0.0
  0
LWPOLYLINE
  5
539
330
1F
100
AcDbEntity
  8
0
  6
CONTINUOUS
 62
     7
100
AcDbPolyline
 90
        3
 70
   128
 43
0.0
 10
1475.1380296145
 20
452.9584114964
 10
1474.4409681951
 20
454.5628195221
 10
1474.2009104882
 20
456.3079243118
  0
LWPOLYLINE
  5
53A
330
1F
100
AcDbEntity
  8
0
  6
CONTINUOUS
 62
     7
100
AcDbPolyline
 90
        3
 70
   128
 43
0.0
 10
1475.1380296145
 20
452.9584114964
 10
1476.1078716908
 20
451.7237906868
 10
1477.3424775992
 20
450.7539635117
  0
LWPOLYLINE
  5
53B
330
1F
100
AcDbEntity
  8
0
  6
CONTINUOUS
 62
     7
100
AcDbPolyline
 90
        3
 70
   128
 43
0.0
 10
1480.6920053159
 20
449.8168294842
 10
1478.946885625
 20
450.056887191
 10
1477.3424775992
 20
450.7539635117
  0
LINE
  5
53C
330
1F
100
AcDbEntity
  8
0
  6
CONTINUOUS
 62
     7
100
AcDbLine
 10
1480.6920053159
 20
449.8168294842
 30
0.0
 11
1480.04362599
 21
449.1684501583
 31
0.0
  0
LINE
  5
53D
330
1F
100
AcDbEntity
  8
0
  6
CONTINUOUS
 62
     7
100
AcDbLine
 10
1912.8449918424
 20
449.8168294842
 30
0.0
 11
1913.4933711682
 21
449.1684501583
 31
0.0
  0
LWPOLYLINE
  5
53E
330
1F
100
AcDbEntity
  8
0
  6
CONTINUOUS
 62
     7
100
AcDbPolyline
 90
        3
 70
   128
 43
0.0
 10
1912.8449918424
 20
449.8168294842
 10
1914.5863117372
 20
450.0511055405
 10
1916.194519559
 20
450.7539635117
  0
LWPOLYLINE
  5
53F
330
1F
100
AcDbEntity
  8
0
  6
CONTINUOUS
 62
     7
100
AcDbPolyline
 90
        3
 70
   128
 43
0.0
 10
1918.3989675437
 20
452.9584114964
 10
1917.4291254674
 20
451.7237906868
 10
1916.194519559
 20
450.7539635117
  0
LWPOLYLINE
  5
540
330
1F
100
AcDbEntity
  8
0
  6
CONTINUOUS
 62
     7
100
AcDbPolyline
 90
        3
 70
   128
 43
0.0
 10
1918.3989675437
 20
452.9584114964
 10
1919.1018106137
 20
454.566604417
 10
1919.33608667
 20
456.3079243118
  0
LINE
  5
541
330
1F
100
AcDbEntity
  8
0
  6
CONTINUOUS
 62
     7
100
AcDbLine
 10
1919.33608667
 20
456.3079243118
 30
0.0
 11
1919.9844659959
 21
455.659544986
 31
0.0
  0
LINE
  5
542
330
1F
100
AcDbEntity
  8
0
  6
CONTINUOUS
 62
     7
100
AcDbLine
 10
1919.33608667
 20
997.7609281952
 30
0.0
 11
1919.9844659959
 21
998.4093075211
 31
0.0
  0
LWPOLYLINE
  5
543
330
1F
100
AcDbEntity
  8
0
  6
CONTINUOUS
 62
     7
100
AcDbPolyline
 90
        3
 70
   128
 43
0.0
 10
1918.3989675437
 20
1001.1104410107
 10
1919.0960289632
 20
999.5060329849
 10
1919.33608667
 20
997.7609281952
  0
LWPOLYLINE
  5
544
330
1F
100
AcDbEntity
  8
0
  6
CONTINUOUS
 62
     7
100
AcDbPolyline
 90
        3
 70
   128
 43
0.0
 10
1918.3989675437
 20
1001.1104410107
 10
1917.4291254674
 20
1002.3450618202
 10
1916.194519559
 20
1003.3148889954
  0
LWPOLYLINE
  5
545
330
1F
100
AcDbEntity
  8
0
  6
CONTINUOUS
 62
     7
100
AcDbPolyline
 90
        3
 70
   128
 43
0.0
 10
1912.8449918424
 20
1004.2520230228
 10
1914.5901115333
 20
1004.011965316
 10
1916.194519559
 20
1003.3148889954
  0
LINE
  5
546
330
1F
100
AcDbEntity
  8
0
  6
CONTINUOUS
 62
     7
100
AcDbLine
 10
1912.8449918424
 20
1004.2520230228
 30
0.0
 11
1913.4933711682
 21
1004.9004023487
 31
0.0
  0
LINE
  5
547
330
1F
100
AcDbEntity
  8
0
  6
CONTINUOUS
 62
     7
100
AcDbLine
 10
1474.2009104882
 20
997.7609281952
 30
0.0
 11
1474.2009104882
 21
456.3079243118
 31
0.0
  0
LINE
  5
548
330
1F
100
AcDbEntity
  8
0
  6
CONTINUOUS
 62
     7
100
AcDbLine
 10
1919.33608667
 20
981.5344279224
 30
0.0
 11
1919.33608667
 21
997.7609281952
 31
0.0
  0
LINE
  5
549
330
1F
100
AcDbEntity
  8
0
  6
CONTINUOUS
 62
     7
100
AcDbLine
 10
1919.9844659959
 20
981.5344279224
 30
0.0
 11
1919.9659140502
 21
981.5344279224
 31
0.0
  0
LINE
  5
54A
330
1F
100
AcDbEntity
  8
0
  6
CONTINUOUS
 62
     7
100
AcDbLine
 10
1919.33608667
 20
472.5344245846
 30
0.0
 11
1919.33608667
 21
456.3079243118
 31
0.0
  0
LINE
  5
54B
330
1F
100
AcDbEntity
  8
0
  6
CONTINUOUS
 62
     7
100
AcDbLine
 10
1919.9844659959
 20
472.5344245846
 30
0.0
 11
1919.9659140502
 21
472.5344245846
 31
0.0
  0
LINE
  5
54C
330
1F
100
AcDbEntity
  8
0
  6
CONTINUOUS
 62
     7
100
AcDbLine
 10
1480.6920053159
 20
1004.2520230228
 30
0.0
 11
1912.8449918424
 21
1004.2520230228
 31
0.0
  0
LINE
  5
54D
330
1F
100
AcDbEntity
  8
0
  6
CONTINUOUS
 62
     7
100
AcDbLine
 10
1480.6920053159
 20
449.8168294842
 30
0.0
 11
1912.8449918424
 21
449.8168294842
 31
0.0
  0
LINE
  5
54E
330
1F
100
AcDbEntity
  8
0
  6
CONTINUOUS
 62
     7
100
AcDbLine
 10
1919.33608667
 20
979.0344303066
 30
0.0
 11
1919.33608667
 21
951.0344331677
 31
0.0
  0
LINE
  5
54F
330
1F
100
AcDbEntity
  8
0
  6
CONTINUOUS
 62
     7
100
AcDbLine
 10
1919.33608667
 20
775.0344266707
 30
0.0
 11
1919.33608667
 21
747.0344258065
 31
0.0
  0
LINE
  5
550
330
1F
100
AcDbEntity
  8
0
  6
CONTINUOUS
 62
     7
100
AcDbLine
 10
1919.33608667
 20
543.0344258959
 30
0.0
 11
1919.33608667
 21
571.0344230349
 31
0.0
  0
LINE
  5
551
330
1F
100
AcDbEntity
  8
0
  6
CONTINUOUS
 62
     7
100
AcDbLine
 10
1919.33608667
 20
611.0344295914
 30
0.0
 11
1919.33608667
 21
639.0344267304
 31
0.0
  0
LINE
  5
552
330
1F
100
AcDbEntity
  8
0
  6
CONTINUOUS
 62
     7
100
AcDbLine
 10
1919.33608667
 20
679.0344258363
 30
0.0
 11
1919.33608667
 21
707.0344267005
 31
0.0
  0
LINE
  5
553
330
1F
100
AcDbEntity
  8
0
  6
CONTINUOUS
 62
     7
100
AcDbLine
 10
1919.33608667
 20
475.0344222004
 30
0.0
 11
1919.33608667
 21
503.0344193394
 31
0.0
  0
LINE
  5
554
330
1F
100
AcDbEntity
  8
0
  6
CONTINUOUS
 62
     7
100
AcDbLine
 10
1919.33608667
 20
911.0344266111
 30
0.0
 11
1919.33608667
 21
883.0344294722
 31
0.0
  0
LINE
  5
555
330
1F
100
AcDbEntity
  8
0
  6
CONTINUOUS
 62
     7
100
AcDbLine
 10
1919.33608667
 20
843.0344229157
 30
0.0
 11
1919.33608667
 21
815.0344257767
 31
0.0
  0
LINE
  5
556
330
1F
100
AcDbEntity
  8
0
  6
CONTINUOUS
 62
     7
100
AcDbLine
 10
1915.454974929
 20
913.534424227
 30
0.0
 11
1915.454974929
 21
911.0344266111
 31
0.0
  0
LINE
  5
557
330
1F
100
AcDbEntity
  8
0
  6
CONTINUOUS
 62
     7
100
AcDbLine
 10
1915.454974929
 20
911.0344266111
 30
0.0
 11
1917.8685011064
 21
911.0344266111
 31
0.0
  0
LINE
  5
558
330
1F
100
AcDbEntity
  8
0
  6
CONTINUOUS
 62
     7
100
AcDbLine
 10
1915.454974929
 20
913.534424227
 30
0.0
 11
1917.8685011064
 21
913.534424227
 31
0.0
  0
LINE
  5
559
330
1F
100
AcDbEntity
  8
0
  6
CONTINUOUS
 62
     7
100
AcDbLine
 10
1915.454974929
 20
639.0344267304
 30
0.0
 11
1915.454974929
 21
641.5344243462
 31
0.0
  0
LINE
  5
55A
330
1F
100
AcDbEntity
  8
0
  6
CONTINUOUS
 62
     7
100
AcDbLine
 10
1915.454974929
 20
639.0344267304
 30
0.0
 11
1917.8685011064
 21
639.0344267304
 31
0.0
  0
LINE
  5
55B
330
1F
100
AcDbEntity
  8
0
  6
CONTINUOUS
 62
     7
100
AcDbLine
 10
1915.454974929
 20
641.5344243462
 30
0.0
 11
1917.8685011064
 21
641.5344243462
 31
0.0
  0
LINE
  5
55C
330
1F
100
AcDbEntity
  8
0
  6
CONTINUOUS
 62
     7
100
AcDbLine
 10
1915.454974929
 20
707.0344267005
 30
0.0
 11
1915.454974929
 21
709.534426179
 31
0.0
  0
LINE
  5
55D
330
1F
100
AcDbEntity
  8
0
  6
CONTINUOUS
 62
     7
100
AcDbLine
 10
1915.454974929
 20
707.0344267005
 30
0.0
 11
1917.8685011064
 21
707.0344267005
 31
0.0
  0
LINE
  5
55E
330
1F
100
AcDbEntity
  8
0
  6
CONTINUOUS
 62
     7
100
AcDbLine
 10
1915.454974929
 20
709.534426179
 30
0.0
 11
1917.8685011064
 21
709.534426179
 31
0.0
  0
LINE
  5
55F
330
1F
100
AcDbEntity
  8
0
  6
CONTINUOUS
 62
     7
100
AcDbLine
 10
1915.454974929
 20
883.0344294722
 30
0.0
 11
1915.454974929
 21
880.5344318564
 31
0.0
  0
LINE
  5
560
330
1F
100
AcDbEntity
  8
0
  6
CONTINUOUS
 62
     7
100
AcDbLine
 10
1915.454974929
 20
883.0344294722
 30
0.0
 11
1917.8685011064
 21
883.0344294722
 31
0.0
  0
LINE
  5
561
330
1F
100
AcDbEntity
  8
0
  6
CONTINUOUS
 62
     7
100
AcDbLine
 10
1915.454974929
 20
880.5344318564
 30
0.0
 11
1917.8685011064
 21
880.5344318564
 31
0.0
  0
LINE
  5
562
330
1F
100
AcDbEntity
  8
0
  6
CONTINUOUS
 62
     7
100
AcDbLine
 10
1915.454974929
 20
815.0344257767
 30
0.0
 11
1915.454974929
 21
812.5344281609
 31
0.0
  0
LINE
  5
563
330
1F
100
AcDbEntity
  8
0
  6
CONTINUOUS
 62
     7
100
AcDbLine
 10
1915.454974929
 20
815.0344257767
 30
0.0
 11
1917.8685011064
 21
815.0344257767
 31
0.0
  0
LINE
  5
564
330
1F
100
AcDbEntity
  8
0
  6
CONTINUOUS
 62
     7
100
AcDbLine
 10
1915.454974929
 20
812.5344281609
 30
0.0
 11
1917.8685011064
 21
812.5344281609
 31
0.0
  0
LINE
  5
565
330
1F
100
AcDbEntity
  8
0
  6
CONTINUOUS
 62
     7
100
AcDbLine
 10
1915.454974929
 20
571.0344230349
 30
0.0
 11
1915.454974929
 21
573.5344206507
 31
0.0
  0
LINE
  5
566
330
1F
100
AcDbEntity
  8
0
  6
CONTINUOUS
 62
     7
100
AcDbLine
 10
1915.454974929
 20
571.0344230349
 30
0.0
 11
1917.8685011064
 21
571.0344230349
 31
0.0
  0
LINE
  5
567
330
1F
100
AcDbEntity
  8
0
  6
CONTINUOUS
 62
     7
100
AcDbLine
 10
1915.454974929
 20
573.5344206507
 30
0.0
 11
1917.8685011064
 21
573.5344206507
 31
0.0
  0
LINE
  5
568
330
1F
100
AcDbEntity
  8
0
  6
CONTINUOUS
 62
     7
100
AcDbLine
 10
1915.454974929
 20
472.5344245846
 30
0.0
 11
1915.454974929
 21
475.0344222004
 31
0.0
  0
LINE
  5
569
330
1F
100
AcDbEntity
  8
0
  6
CONTINUOUS
 62
     7
100
AcDbLine
 10
1915.454974929
 20
475.0344222004
 30
0.0
 11
1917.8685011064
 21
475.0344222004
 31
0.0
  0
LINE
  5
56A
330
1F
100
AcDbEntity
  8
0
  6
CONTINUOUS
 62
     7
100
AcDbLine
 10
1915.454974929
 20
472.5344245846
 30
0.0
 11
1917.8685011064
 21
472.5344245846
 31
0.0
  0
LINE
  5
56B
330
1F
100
AcDbEntity
  8
0
  6
CONTINUOUS
 62
     7
100
AcDbLine
 10
1915.454974929
 20
747.0344258065
 30
0.0
 11
1915.454974929
 21
744.534426328
 31
0.0
  0
LINE
  5
56C
330
1F
100
AcDbEntity
  8
0
  6
CONTINUOUS
 62
     7
100
AcDbLine
 10
1915.454974929
 20
747.0344258065
 30
0.0
 11
1917.8685011064
 21
747.0344258065
 31
0.0
  0
LINE
  5
56D
330
1F
100
AcDbEntity
  8
0
  6
CONTINUOUS
 62
     7
100
AcDbLine
 10
1915.454974929
 20
744.534426328
 30
0.0
 11
1917.8685011064
 21
744.534426328
 31
0.0
  0
LINE
  5
56E
330
1F
100
AcDbEntity
  8
0
  6
CONTINUOUS
 62
     7
100
AcDbLine
 10
1915.454974929
 20
503.0344193394
 30
0.0
 11
1915.454974929
 21
505.5344318564
 31
0.0
  0
LINE
  5
56F
330
1F
100
AcDbEntity
  8
0
  6
CONTINUOUS
 62
     7
100
AcDbLine
 10
1915.454974929
 20
503.0344193394
 30
0.0
 11
1917.8685011064
 21
503.0344193394
 31
0.0
  0
LINE
  5
570
330
1F
100
AcDbEntity
  8
0
  6
CONTINUOUS
 62
     7
100
AcDbLine
 10
1915.454974929
 20
505.5344318564
 30
0.0
 11
1917.8685011064
 21
505.5344318564
 31
0.0
  0
LINE
  5
571
330
1F
100
AcDbEntity
  8
0
  6
CONTINUOUS
 62
     7
100
AcDbLine
 10
1915.454974929
 20
608.534424525
 30
0.0
 11
1915.454974929
 21
611.0344295914
 31
0.0
  0
LINE
  5
572
330
1F
100
AcDbEntity
  8
0
  6
CONTINUOUS
 62
     7
100
AcDbLine
 10
1915.454974929
 20
611.0344295914
 30
0.0
 11
1917.8685011064
 21
611.0344295914
 31
0.0
  0
LINE
  5
573
330
1F
100
AcDbEntity
  8
0
  6
CONTINUOUS
 62
     7
100
AcDbLine
 10
1915.454974929
 20
608.534424525
 30
0.0
 11
1917.8685011064
 21
608.534424525
 31
0.0
  0
LINE
  5
574
330
1F
100
AcDbEntity
  8
0
  6
CONTINUOUS
 62
     7
100
AcDbLine
 10
1915.454974929
 20
845.534427982
 30
0.0
 11
1915.454974929
 21
843.0344229157
 31
0.0
  0
LINE
  5
575
330
1F
100
AcDbEntity
  8
0
  6
CONTINUOUS
 62
     7
100
AcDbLine
 10
1915.454974929
 20
843.0344229157
 30
0.0
 11
1917.8685011064
 21
843.0344229157
 31
0.0
  0
LINE
  5
576
330
1F
100
AcDbEntity
  8
0
  6
CONTINUOUS
 62
     7
100
AcDbLine
 10
1915.454974929
 20
845.534427982
 30
0.0
 11
1917.8685011064
 21
845.534427982
 31
0.0
  0
LINE
  5
577
330
1F
100
AcDbEntity
  8
0
  6
CONTINUOUS
 62
     7
100
AcDbLine
 10
1915.454974929
 20
540.5344282801
 30
0.0
 11
1915.454974929
 21
543.0344258959
 31
0.0
  0
LINE
  5
578
330
1F
100
AcDbEntity
  8
0
  6
CONTINUOUS
 62
     7
100
AcDbLine
 10
1915.454974929
 20
543.0344258959
 30
0.0
 11
1917.8685011064
 21
543.0344258959
 31
0.0
  0
LINE
  5
579
330
1F
100
AcDbEntity
  8
0
  6
CONTINUOUS
 62
     7
100
AcDbLine
 10
1915.454974929
 20
540.5344282801
 30
0.0
 11
1917.8685011064
 21
540.5344282801
 31
0.0
  0
LINE
  5
57A
330
1F
100
AcDbEntity
  8
0
  6
CONTINUOUS
 62
     7
100
AcDbLine
 10
1915.454974929
 20
981.5344279224
 30
0.0
 11
1915.454974929
 21
979.0344303066
 31
0.0
  0
LINE
  5
57B
330
1F
100
AcDbEntity
  8
0
  6
CONTINUOUS
 62
     7
100
AcDbLine
 10
1915.454974929
 20
979.0344303066
 30
0.0
 11
1917.8685011064
 21
979.0344303066
 31
0.0
  0
LINE
  5
57C
330
1F
100
AcDbEntity
  8
0
  6
CONTINUOUS
 62
     7
100
AcDbLine
 10
1915.454974929
 20
981.5344279224
 30
0.0
 11
1917.8685011064
 21
981.5344279224
 31
0.0
  0
LINE
  5
57D
330
1F
100
AcDbEntity
  8
0
  6
CONTINUOUS
 62
     7
100
AcDbLine
 10
1915.454974929
 20
777.5344280119
 30
0.0
 11
1915.454974929
 21
775.0344266707
 31
0.0
  0
LINE
  5
57E
330
1F
100
AcDbEntity
  8
0
  6
CONTINUOUS
 62
     7
100
AcDbLine
 10
1915.454974929
 20
775.0344266707
 30
0.0
 11
1917.8685011064
 21
775.0344266707
 31
0.0
  0
LINE
  5
57F
330
1F
100
AcDbEntity
  8
0
  6
CONTINUOUS
 62
     7
100
AcDbLine
 10
1915.454974929
 20
777.5344280119
 30
0.0
 11
1917.8685011064
 21
777.5344280119
 31
0.0
  0
LINE
  5
580
330
1F
100
AcDbEntity
  8
0
  6
CONTINUOUS
 62
     7
100
AcDbLine
 10
1915.454974929
 20
676.5344244952
 30
0.0
 11
1915.454974929
 21
679.0344258363
 31
0.0
  0
LINE
  5
581
330
1F
100
AcDbEntity
  8
0
  6
CONTINUOUS
 62
     7
100
AcDbLine
 10
1915.454974929
 20
679.0344258363
 30
0.0
 11
1917.8685011064
 21
679.0344258363
 31
0.0
  0
LINE
  5
582
330
1F
100
AcDbEntity
  8
0
  6
CONTINUOUS
 62
     7
100
AcDbLine
 10
1915.454974929
 20
676.5344244952
 30
0.0
 11
1917.8685011064
 21
676.5344244952
 31
0.0
  0
LINE
  5
583
330
1F
100
AcDbEntity
  8
0
  6
CONTINUOUS
 62
     7
100
AcDbLine
 10
1915.454974929
 20
951.0344331677
 30
0.0
 11
1915.454974929
 21
948.5344206507
 31
0.0
  0
LINE
  5
584
330
1F
100
AcDbEntity
  8
0
  6
CONTINUOUS
 62
     7
100
AcDbLine
 10
1915.454974929
 20
951.0344331677
 30
0.0
 11
1917.8685011064
 21
951.0344331677
 31
0.0
  0
LINE
  5
585
330
1F
100
AcDbEntity
  8
0
  6
CONTINUOUS
 62
     7
100
AcDbLine
 10
1915.454974929
 20
948.5344206507
 30
0.0
 11
1917.8685011064
 21
948.5344206507
 31
0.0
  0
LINE
  5
586
330
1F
100
AcDbEntity
  8
0
  6
CONTINUOUS
 62
     7
100
AcDbLine
 10
1926.8949838077
 20
475.0344222004
 30
0.0
 11
1922.8420169745
 21
475.0344222004
 31
0.0
  0
LINE
  5
587
330
1F
100
AcDbEntity
  8
0
  6
CONTINUOUS
 62
     7
100
AcDbLine
 10
1923.0932505523
 20
472.5344245846
 30
0.0
 11
1926.8949838077
 21
472.5344245846
 31
0.0
  0
LINE
  5
588
330
1F
100
AcDbEntity
  8
0
  6
CONTINUOUS
 62
     7
100
AcDbLine
 10
1926.8949838077
 20
979.0344303066
 30
0.0
 11
1922.8420169745
 21
979.0344303066
 31
0.0
  0
LINE
  5
589
330
1F
100
AcDbEntity
  8
0
  6
CONTINUOUS
 62
     7
100
AcDbLine
 10
1923.0932505523
 20
981.5344279224
 30
0.0
 11
1926.8949838077
 21
981.5344279224
 31
0.0
  0
LINE
  5
58A
330
1F
100
AcDbEntity
  8
0
  6
CONTINUOUS
 62
     7
100
AcDbLine
 10
1926.6829998885
 20
639.0344267304
 30
0.0
 11
1922.8420169745
 21
639.0344267304
 31
0.0
  0
LINE
  5
58B
330
1F
100
AcDbEntity
  8
0
  6
CONTINUOUS
 62
     7
100
AcDbLine
 10
1922.8420169745
 20
641.5344243462
 30
0.0
 11
1926.8949838077
 21
641.5344243462
 31
0.0
  0
LINE
  5
58C
330
1F
100
AcDbEntity
  8
0
  6
CONTINUOUS
 62
     7
100
AcDbLine
 10
1926.6829998885
 20
707.0344267005
 30
0.0
 11
1922.8420169745
 21
707.0344267005
 31
0.0
  0
LINE
  5
58D
330
1F
100
AcDbEntity
  8
0
  6
CONTINUOUS
 62
     7
100
AcDbLine
 10
1922.8420169745
 20
709.534426179
 30
0.0
 11
1926.8949838077
 21
709.534426179
 31
0.0
  0
LINE
  5
58E
330
1F
100
AcDbEntity
  8
0
  6
CONTINUOUS
 62
     7
100
AcDbLine
 10
1926.6829998885
 20
503.0344193394
 30
0.0
 11
1922.8420169745
 21
503.0344193394
 31
0.0
  0
LINE
  5
58F
330
1F
100
AcDbEntity
  8
0
  6
CONTINUOUS
 62
     7
100
AcDbLine
 10
1922.8420169745
 20
505.5344318564
 30
0.0
 11
1926.8949838077
 21
505.5344318564
 31
0.0
  0
LINE
  5
590
330
1F
100
AcDbEntity
  8
0
  6
CONTINUOUS
 62
     7
100
AcDbLine
 10
1926.6829998885
 20
571.0344230349
 30
0.0
 11
1922.8420169745
 21
571.0344230349
 31
0.0
  0
LINE
  5
591
330
1F
100
AcDbEntity
  8
0
  6
CONTINUOUS
 62
     7
100
AcDbLine
 10
1922.8420169745
 20
573.5344206507
 30
0.0
 11
1926.8949838077
 21
573.5344206507
 31
0.0
  0
LINE
  5
592
330
1F
100
AcDbEntity
  8
0
  6
CONTINUOUS
 62
     7
100
AcDbLine
 10
1926.8949838077
 20
883.0344294722
 30
0.0
 11
1922.8420169745
 21
883.0344294722
 31
0.0
  0
LINE
  5
593
330
1F
100
AcDbEntity
  8
0
  6
CONTINUOUS
 62
     7
100
AcDbLine
 10
1922.8420169745
 20
880.5344318564
 30
0.0
 11
1926.8949838077
 21
880.5344318564
 31
0.0
  0
LINE
  5
594
330
1F
100
AcDbEntity
  8
0
  6
CONTINUOUS
 62
     7
100
AcDbLine
 10
1926.8949838077
 20
951.0344331677
 30
0.0
 11
1922.8420169745
 21
951.0344331677
 31
0.0
  0
LINE
  5
595
330
1F
100
AcDbEntity
  8
0
  6
CONTINUOUS
 62
     7
100
AcDbLine
 10
1922.8420169745
 20
948.5344206507
 30
0.0
 11
1926.8949838077
 21
948.5344206507
 31
0.0
  0
LINE
  5
596
330
1F
100
AcDbEntity
  8
0
  6
CONTINUOUS
 62
     7
100
AcDbLine
 10
1926.8949838077
 20
815.0344257767
 30
0.0
 11
1922.8420169745
 21
815.0344257767
 31
0.0
  0
LINE
  5
597
330
1F
100
AcDbEntity
  8
0
  6
CONTINUOUS
 62
     7
100
AcDbLine
 10
1922.8420169745
 20
812.5344281609
 30
0.0
 11
1926.8949838077
 21
812.5344281609
 31
0.0
  0
LINE
  5
598
330
1F
100
AcDbEntity
  8
0
  6
CONTINUOUS
 62
     7
100
AcDbLine
 10
1926.8949838077
 20
747.0344258065
 30
0.0
 11
1922.8420169745
 21
747.0344258065
 31
0.0
  0
LINE
  5
599
330
1F
100
AcDbEntity
  8
0
  6
CONTINUOUS
 62
     7
100
AcDbLine
 10
1922.8420169745
 20
744.534426328
 30
0.0
 11
1926.8949838077
 21
744.534426328
 31
0.0
  0
LINE
  5
59A
330
1F
100
AcDbEntity
  8
0
  6
CONTINUOUS
 62
     7
100
AcDbLine
 10
1926.8949838077
 20
611.0344295914
 30
0.0
 11
1922.8420169745
 21
611.0344295914
 31
0.0
  0
LINE
  5
59B
330
1F
100
AcDbEntity
  8
0
  6
CONTINUOUS
 62
     7
100
AcDbLine
 10
1922.8420169745
 20
608.534424525
 30
0.0
 11
1926.8949838077
 21
608.534424525
 31
0.0
  0
LINE
  5
59C
330
1F
100
AcDbEntity
  8
0
  6
CONTINUOUS
 62
     7
100
AcDbLine
 10
1926.8949838077
 20
679.0344258363
 30
0.0
 11
1922.8420169745
 21
679.0344258363
 31
0.0
  0
LINE
  5
59D
330
1F
100
AcDbEntity
  8
0
  6
CONTINUOUS
 62
     7
100
AcDbLine
 10
1922.8420169745
 20
676.5344244952
 30
0.0
 11
1926.8949838077
 21
676.5344244952
 31
0.0
  0
LINE
  5
59E
330
1F
100
AcDbEntity
  8
0
  6
CONTINUOUS
 62
     7
100
AcDbLine
 10
1926.8949838077
 20
543.0344258959
 30
0.0
 11
1922.8420169745
 21
543.0344258959
 31
0.0
  0
LINE
  5
59F
330
1F
100
AcDbEntity
  8
0
  6
CONTINUOUS
 62
     7
100
AcDbLine
 10
1922.8420169745
 20
540.5344282801
 30
0.0
 11
1926.8949838077
 21
540.5344282801
 31
0.0
  0
LINE
  5
5A0
330
1F
100
AcDbEntity
  8
0
  6
CONTINUOUS
 62
     7
100
AcDbLine
 10
1926.8949838077
 20
775.0344266707
 30
0.0
 11
1922.8420169745
 21
775.0344266707
 31
0.0
  0
LINE
  5
5A1
330
1F
100
AcDbEntity
  8
0
  6
CONTINUOUS
 62
     7
100
AcDbLine
 10
1922.8420169745
 20
777.5344280119
 30
0.0
 11
1926.8949838077
 21
777.5344280119
 31
0.0
  0
LINE
  5
5A2
330
1F
100
AcDbEntity
  8
0
  6
CONTINUOUS
 62
     7
100
AcDbLine
 10
1926.8949838077
 20
843.0344229157
 30
0.0
 11
1922.8420169745
 21
843.0344229157
 31
0.0
  0
LINE
  5
5A3
330
1F
100
AcDbEntity
  8
0
  6
CONTINUOUS
 62
     7
100
AcDbLine
 10
1922.8420169745
 20
845.534427982
 30
0.0
 11
1926.8949838077
 21
845.534427982
 31
0.0
  0
LINE
  5
5A4
330
1F
100
AcDbEntity
  8
0
  6
CONTINUOUS
 62
     7
100
AcDbLine
 10
1926.8949838077
 20
911.0344266111
 30
0.0
 11
1922.8420169745
 21
911.0344266111
 31
0.0
  0
LINE
  5
5A5
330
1F
100
AcDbEntity
  8
0
  6
CONTINUOUS
 62
     7
100
AcDbLine
 10
1922.8420169745
 20
913.534424227
 30
0.0
 11
1926.8949838077
 21
913.534424227
 31
0.0
  0
LINE
  5
5A6
330
1F
100
AcDbEntity
  8
0
  6
CONTINUOUS
 62
     7
100
AcDbLine
 10
1605.2080603038
 20
968.3867906744
 30
0.0
 11
1693.3289392107
 21
968.3867906744
 31
0.0
  0
ARC
  5
5A7
330
1F
100
AcDbEntity
  8
0
  6
CONTINUOUS
 62
     7
100
AcDbCircle
 10
1601.7684985791
 20
969.0344262535
 30
0.0
 40
3.500000000000266
100
AcDbArc
 50
190.6633779588
 51
349.3366220412
  0
LINE
  5
5A8
330
1F
100
AcDbEntity
  8
0
  6
CONTINUOUS
 62
     7
100
AcDbLine
 10
1510.2080614959
 20
968.3867906744
 30
0.0
 11
1598.3289392386
 21
968.3867906744
 31
0.0
  0
ARC
  5
5A9
330
1F
100
AcDbEntity
  8
0
  6
CONTINUOUS
 62
     7
100
AcDbCircle
 10
1506.7684985791
 20
969.0344262535
 30
0.0
 40
3.499999999999961
100
AcDbArc
 50
262.408788876
 51
349.3366220412
  0
LINE
  5
5AA
330
1F
100
AcDbEntity
  8
0
  6
CONTINUOUS
 62
     7
100
AcDbLine
 10
1506.3061328326
 20
965.5651067907
 30
0.0
 11
1506.3061328326
 21
851.5037511999
 31
0.0
  0
ARC
  5
5AB
330
1F
100
AcDbEntity
  8
0
  6
CONTINUOUS
 62
     7
100
AcDbCircle
 10
1506.7684985791
 20
848.0344262535
 30
0.0
 40
3.499999999999961
100
AcDbArc
 50
262.408788876
 51
97.591211124
  0
LINE
  5
5AC
330
1F
100
AcDbEntity
  8
0
  6
CONTINUOUS
 62
     7
100
AcDbLine
 10
1506.3061328326
 20
844.5650999958
 30
0.0
 11
1506.3061328326
 21
730.5037516227
 31
0.0
  0
ARC
  5
5AD
330
1F
100
AcDbEntity
  8
0
  6
CONTINUOUS
 62
     7
100
AcDbCircle
 10
1506.7684985791
 20
727.0344262535
 30
0.0
 40
3.499999999999961
100
AcDbArc
 50
262.408788876
 51
97.591211124
  0
LINE
  5
5AE
330
1F
100
AcDbEntity
  8
0
  6
CONTINUOUS
 62
     7
100
AcDbLine
 10
1506.3061328326
 20
723.5651008843
 30
0.0
 11
1506.3061328326
 21
609.5037525112
 31
0.0
  0
ARC
  5
5AF
330
1F
100
AcDbEntity
  8
0
  6
CONTINUOUS
 62
     7
100
AcDbCircle
 10
1506.7684985791
 20
606.0344262535
 30
0.0
 40
3.499999999999961
100
AcDbArc
 50
262.408788876
 51
97.591211124
  0
LINE
  5
5B0
330
1F
100
AcDbEntity
  8
0
  6
CONTINUOUS
 62
     7
100
AcDbLine
 10
1506.3061328326
 20
602.5651013071
 30
0.0
 11
1506.3061328326
 21
488.5037457163
 31
0.0
  0
ARC
  5
5B1
330
1F
100
AcDbEntity
  8
0
  6
CONTINUOUS
 62
     7
100
AcDbCircle
 10
1506.7684985791
 20
485.0344262535
 30
0.0
 40
3.499999999999961
100
AcDbArc
 50
10.6633779588
 51
97.591211124
  0
LINE
  5
5B2
330
1F
100
AcDbEntity
  8
0
  6
CONTINUOUS
 62
     7
100
AcDbLine
 10
1510.2080614959
 20
485.6820618326
 30
0.0
 11
1598.3289392386
 21
485.6820618326
 31
0.0
  0
ARC
  5
5B3
330
1F
100
AcDbEntity
  8
0
  6
CONTINUOUS
 62
     7
100
AcDbCircle
 10
1601.7684985791
 20
485.0344262535
 30
0.0
 40
3.500000000000255
100
AcDbArc
 50
10.6633779588
 51
169.3366220412
  0
LINE
  5
5B4
330
1F
100
AcDbEntity
  8
0
  6
CONTINUOUS
 62
     7
100
AcDbLine
 10
1605.2080603038
 20
485.6820618326
 30
0.0
 11
1693.3289392107
 21
485.6820618326
 31
0.0
  0
ARC
  5
5B5
330
1F
100
AcDbEntity
  8
0
  6
CONTINUOUS
 62
     7
100
AcDbCircle
 10
1696.7684985791
 20
485.0344262535
 30
0.0
 40
3.500000000000032
100
AcDbArc
 50
10.6633779588
 51
169.3366220412
  0
LINE
  5
5B6
330
1F
100
AcDbEntity
  8
0
  6
CONTINUOUS
 62
     7
100
AcDbLine
 10
1700.2080579475
 20
485.6820618326
 30
0.0
 11
1788.3289368545
 21
485.6820618326
 31
0.0
  0
ARC
  5
5B7
330
1F
100
AcDbEntity
  8
0
  6
CONTINUOUS
 62
     7
100
AcDbCircle
 10
1791.7684985791
 20
485.0344262535
 30
0.0
 40
3.500000000000032
100
AcDbArc
 50
10.6633779588
 51
169.3366220412
  0
LINE
  5
5B8
330
1F
100
AcDbEntity
  8
0
  6
CONTINUOUS
 62
     7
100
AcDbLine
 10
1795.2080579196
 20
485.6820618326
 30
0.0
 11
1883.3289356624
 21
485.6820618326
 31
0.0
  0
ARC
  5
5B9
330
1F
100
AcDbEntity
  8
0
  6
CONTINUOUS
 62
     7
100
AcDbCircle
 10
1886.7684985791
 20
485.0344262535
 30
0.0
 40
3.500000000000032
100
AcDbArc
 50
82.408788876
 51
169.3366220412
  0
LINE
  5
5BA
330
1F
100
AcDbEntity
  8
0
  6
CONTINUOUS
 62
     7
100
AcDbLine
 10
1887.2308643256
 20
602.5651013071
 30
0.0
 11
1887.2308643256
 21
488.5037457163
 31
0.0
  0
ARC
  5
5BB
330
1F
100
AcDbEntity
  8
0
  6
CONTINUOUS
 62
     7
100
AcDbCircle
 10
1886.7684985791
 20
606.0344262535
 30
0.0
 40
3.499999999999991
100
AcDbArc
 50
82.408788876
 51
277.591211124
  0
LINE
  5
5BC
330
1F
100
AcDbEntity
  8
0
  6
CONTINUOUS
 62
     7
100
AcDbLine
 10
1887.2308643256
 20
723.5651008843
 30
0.0
 11
1887.2308643256
 21
609.5037525112
 31
0.0
  0
ARC
  5
5BD
330
1F
100
AcDbEntity
  8
0
  6
CONTINUOUS
 62
     7
100
AcDbCircle
 10
1886.7684985791
 20
727.0344262535
 30
0.0
 40
3.499999999999991
100
AcDbArc
 50
82.408788876
 51
277.591211124
  0
LINE
  5
5BE
330
1F
100
AcDbEntity
  8
0
  6
CONTINUOUS
 62
     7
100
AcDbLine
 10
1887.2308643256
 20
844.5650999958
 30
0.0
 11
1887.2308643256
 21
730.5037516227
 31
0.0
  0
ARC
  5
5BF
330
1F
100
AcDbEntity
  8
0
  6
CONTINUOUS
 62
     7
100
AcDbCircle
 10
1886.7684985791
 20
848.0344262535
 30
0.0
 40
3.499999999999991
100
AcDbArc
 50
82.408788876
 51
277.591211124
  0
LINE
  5
5C0
330
1F
100
AcDbEntity
  8
0
  6
CONTINUOUS
 62
     7
100
AcDbLine
 10
1887.2308643256
 20
965.5651067907
 30
0.0
 11
1887.2308643256
 21
851.5037511999
 31
0.0
  0
ARC
  5
5C1
330
1F
100
AcDbEntity
  8
0
  6
CONTINUOUS
 62
     7
100
AcDbCircle
 10
1886.7684985791
 20
969.0344262535
 30
0.0
 40
3.500000000000042
100
AcDbArc
 50
190.6633779588
 51
277.591211124
  0
LINE
  5
5C2
330
1F
100
AcDbEntity
  8
0
  6
CONTINUOUS
 62
     7
100
AcDbLine
 10
1795.2080579196
 20
968.3867906744
 30
0.0
 11
1883.3289356624
 21
968.3867906744
 31
0.0
  0
ARC
  5
5C3
330
1F
100
AcDbEntity
  8
0
  6
CONTINUOUS
 62
     7
100
AcDbCircle
 10
1791.7684985791
 20
969.0344262535
 30
0.0
 40
3.500000000000042
100
AcDbArc
 50
190.6633779588
 51
349.3366220412
  0
LINE
  5
5C4
330
1F
100
AcDbEntity
  8
0
  6
CONTINUOUS
 62
     7
100
AcDbLine
 10
1700.2080579475
 20
968.3867906744
 30
0.0
 11
1788.3289368545
 21
968.3867906744
 31
0.0
  0
ARC
  5
5C5
330
1F
100
AcDbEntity
  8
0
  6
CONTINUOUS
 62
     7
100
AcDbCircle
 10
1696.7684985791
 20
969.0344262535
 30
0.0
 40
3.500000000000042
100
AcDbArc
 50
190.6633779588
 51
349.3366220412
  0
CIRCLE
  5
5C6
330
1F
100
AcDbEntity
  8
0
  6
CONTINUOUS
 62
     7
100
AcDbCircle
 10
1886.7684985791
 20
969.0344262535
 30
0.0
 40
1.700000000000045
  0
CIRCLE
  5
5C7
330
1F
100
AcDbEntity
  8
0
  6
CONTINUOUS
 62
     7
100
AcDbCircle
 10
1696.7684985791
 20
969.0344262535
 30
0.0
 40
1.700000000000045
  0
CIRCLE
  5
5C8
330
1F
100
AcDbEntity
  8
0
  6
CONTINUOUS
 62
     7
100
AcDbCircle
 10
1506.7684985791
 20
969.0344262535
 30
0.0
 40
1.699999999999818
  0
CIRCLE
  5
5C9
330
1F
100
AcDbEntity
  8
0
  6
CONTINUOUS
 62
     7
100
AcDbCircle
 10
1506.7684985791
 20
727.0344262535
 30
0.0
 40
1.699999999999818
  0
CIRCLE
  5
5CA
330
1F
100
AcDbEntity
  8
0
  6
CONTINUOUS
 62
     7
100
AcDbCircle
 10
1506.7684985791
 20
485.0344262535
 30
0.0
 40
1.699999999999818
  0
CIRCLE
  5
5CB
330
1F
100
AcDbEntity
  8
0
  6
CONTINUOUS
 62
     7
100
AcDbCircle
 10
1886.7684985791
 20
485.0344262535
 30
0.0
 40
1.700000000000045
  0
CIRCLE
  5
5CC
330
1F
100
AcDbEntity
  8
0
  6
CONTINUOUS
 62
     7
100
AcDbCircle
 10
1696.7684985791
 20
485.0344262535
 30
0.0
 40
1.700000000000045
  0
CIRCLE
  5
5CD
330
1F
100
AcDbEntity
  8
0
  6
CONTINUOUS
 62
     7
100
AcDbCircle
 10
1886.7684985791
 20
727.0344262535
 30
0.0
 40
1.700000000000045
  0
CIRCLE
  5
5CE
330
1F
100
AcDbEntity
  8
0
  6
CONTINUOUS
 62
     7
100
AcDbCircle
 10
1791.7684985791
 20
485.0344262535
 30
0.0
 40
1.699999999999818
  0
CIRCLE
  5
5CF
330
1F
100
AcDbEntity
  8
0
  6
CONTINUOUS
 62
     7
100
AcDbCircle
 10
1601.7684985791
 20
485.0344262535
 30
0.0
 40
1.700000000000045
  0
CIRCLE
  5
5D0
330
1F
100
AcDbEntity
  8
0
  6
CONTINUOUS
 62
     7
100
AcDbCircle
 10
1506.7684985791
 20
606.0344262535
 30
0.0
 40
1.699999999999818
  0
CIRCLE
  5
5D1
330
1F
100
AcDbEntity
  8
0
  6
CONTINUOUS
 62
     7
100
AcDbCircle
 10
1886.7684985791
 20
606.0344262535
 30
0.0
 40
1.700000000000045
  0
CIRCLE
  5
5D2
330
1F
100
AcDbEntity
  8
0
  6
CONTINUOUS
 62
     7
100
AcDbCircle
 10
1886.7684985791
 20
848.0344262535
 30
0.0
 40
1.700000000000045
  0
CIRCLE
  5
5D3
330
1F
100
AcDbEntity
  8
0
  6
CONTINUOUS
 62
     7
100
AcDbCircle
 10
1506.7684985791
 20
848.0344262535
 30
0.0
 40
1.699999999999818
  0
CIRCLE
  5
5D4
330
1F
100
AcDbEntity
  8
0
  6
CONTINUOUS
 62
     7
100
AcDbCircle
 10
1601.7684985791
 20
969.0344262535
 30
0.0
 40
1.700000000000045
  0
CIRCLE
  5
5D5
330
1F
100
AcDbEntity
  8
0
  6
CONTINUOUS
 62
     7
100
AcDbCircle
 10
1791.7684985791
 20
969.0344262535
 30
0.0
 40
1.699999999999818
  0
LINE
  5
5D6
330
1F
100
AcDbEntity
  8
0
  6
CONTINUOUS
 62
     7
100
AcDbLine
 10
1482.7990146075
 20
983.2396274025
 30
0.0
 11
1482.7990146075
 21
470.8292251045
 31
0.0
  0
LWPOLYLINE
  5
5D7
330
1F
100
AcDbEntity
  8
0
  6
CONTINUOUS
 62
     7
100
AcDbPolyline
 90
        3
 70
   128
 43
0.0
 10
1482.7990146075
 20
983.2396274025
 10
1483.3336831723
 20
986.2960343773
 10
1484.8644198571
 20
988.9750545437
  0
ARC
  5
5D8
330
1F
100
AcDbEntity
  8
0
  6
CONTINUOUS
 62
     7
100
AcDbCircle
 10
1484.4784680159
 20
989.293154802
 30
0.0
 40
0.500146576599995
100
AcDbArc
 50
320.5047634346
 51
86.6423835635
  0
ARC
  5
5D9
330
1F
100
AcDbEntity
  8
0
  6
CONTINUOUS
 62
     7
100
AcDbCircle
 10
1484.7684985791
 20
994.0344262535
 30
0.0
 40
4.249999999999931
100
AcDbArc
 50
236.1540391781
 51
266.4827686531
  0
ARC
  5
5DA
330
1F
100
AcDbEntity
  8
0
  6
CONTINUOUS
 62
     7
100
AcDbCircle
 10
1482.5684985791
 20
990.753801313
 30
0.0
 40
0.2999999999999545
100
AcDbArc
 50
180.0
 51
236.1540391689
  0
LINE
  5
5DB
330
1F
100
AcDbEntity
  8
0
  6
CONTINUOUS
 62
     7
100
AcDbLine
 10
1482.2685034667
 20
991.5747409279
 30
0.0
 11
1482.2685034667
 21
990.7538061554
 31
0.0
  0
ARC
  5
5DC
330
1F
100
AcDbEntity
  8
0
  6
CONTINUOUS
 62
     7
100
AcDbCircle
 10
1482.5684985791
 20
991.5747514783
 30
0.0
 40
0.2999999999999545
100
AcDbArc
 50
48.1896850978
 51
180.0
  0
ARC
  5
5DD
330
1F
100
AcDbEntity
  8
0
  6
CONTINUOUS
 62
     7
100
AcDbCircle
 10
1484.7684985791
 20
994.0344262535
 30
0.0
 40
3.000000000000199
100
AcDbArc
 50
228.1896851042
 51
131.8103148958
  0
ARC
  5
5DE
330
1F
100
AcDbEntity
  8
0
  6
CONTINUOUS
 62
     7
100
AcDbCircle
 10
1482.5684985791
 20
996.4941010287
 30
0.0
 40
0.2999999999999545
100
AcDbArc
 50
180.0
 51
311.8103149021
  0
LINE
  5
5DF
330
1F
100
AcDbEntity
  8
0
  6
CONTINUOUS
 62
     7
100
AcDbLine
 10
1482.2685034667
 20
997.31505565
 30
0.0
 11
1482.2685034667
 21
996.4940910751
 31
0.0
  0
ARC
  5
5E0
330
1F
100
AcDbEntity
  8
0
  6
CONTINUOUS
 62
     7
100
AcDbCircle
 10
1482.5684985791
 20
997.315051194
 30
0.0
 40
0.2999999999999545
100
AcDbArc
 50
123.8459608311
 51
180.0
  0
ARC
  5
5E1
330
1F
100
AcDbEntity
  8
0
  6
CONTINUOUS
 62
     7
100
AcDbCircle
 10
1484.7684985791
 20
994.0344262535
 30
0.0
 40
4.2499999999998
100
AcDbArc
 50
339.5514805229
 51
123.8459608219
  0
ARC
  5
5E2
330
1F
100
AcDbEntity
  8
0
  6
CONTINUOUS
 62
     7
100
AcDbCircle
 10
1489.2189979633
 20
992.3739903403
 30
0.0
 40
0.5001656264070953
100
AcDbArc
 50
159.44098408
 51
285.5641487643
  0
LINE
  5
5E3
330
1F
100
AcDbEntity
  8
0
  6
CONTINUOUS
 62
     7
100
AcDbLine
 10
1489.3532009517
 20
991.8921654636
 30
0.0
 11
1491.6298301612
 21
992.2259216721
 31
0.0
  0
LINE
  5
5E4
330
1F
100
AcDbEntity
  8
0
  6
CONTINUOUS
 62
     7
100
AcDbLine
 10
1491.6298301612
 20
992.2259216721
 30
0.0
 11
1696.7684985791
 21
995.8066409046
 31
0.0
  0
LINE
  5
5E5
330
1F
100
AcDbEntity
  8
0
  6
CONTINUOUS
 62
     7
100
AcDbLine
 10
1901.9071669971
 20
992.2259216721
 30
0.0
 11
1696.7684985791
 21
995.8066409046
 31
0.0
  0
ELLIPSE
  5
5E6
330
1F
100
AcDbEntity
  8
0
  6
CONTINUOUS
 62
     7
100
AcDbEllipse
 10
1901.7256296148
 20
983.2153677528
 30
0.0
 11
-6.436559256496366
 21
-6.325189165241113
 31
0.0
210
0.0
220
0.0
230
1.0
 40
0.9973114185
 41
3.660807901212675
 42
3.916918307881512
  0
ARC
  5
5E7
330
1F
100
AcDbEntity
  8
0
  6
CONTINUOUS
 62
     7
100
AcDbCircle
 10
1904.3184756676
 20
992.3735536943
 30
0.0
 40
0.4998731697100556
100
AcDbArc
 50
254.3698113586
 51
20.6250557971
  0
ARC
  5
5E8
330
1F
100
AcDbEntity
  8
0
  6
CONTINUOUS
 62
     7
100
AcDbCircle
 10
1908.7684985791
 20
994.0344262535
 30
0.0
 40
4.249999999988649
100
AcDbArc
 50
56.1540391781
 51
200.4485194771
  0
ARC
  5
5E9
330
1F
100
AcDbEntity
  8
0
  6
CONTINUOUS
 62
     7
100
AcDbCircle
 10
1910.9684985791
 20
997.315051194
 30
0.0
 40
0.3000000000001819
100
AcDbArc
 50
0.0
 51
56.1540391689
  0
LINE
  5
5EA
330
1F
100
AcDbEntity
  8
0
  6
CONTINUOUS
 62
     7
100
AcDbLine
 10
1911.2684936915
 20
997.31505565
 30
0.0
 11
1911.2684936915
 21
996.4940910751
 31
0.0
  0
ARC
  5
5EB
330
1F
100
AcDbEntity
  8
0
  6
CONTINUOUS
 62
     7
100
AcDbCircle
 10
1910.9684985791
 20
996.4941010287
 30
0.0
 40
0.3000000000001819
100
AcDbArc
 50
228.1896850979
 51
0.0
  0
ARC
  5
5EC
330
1F
100
AcDbEntity
  8
0
  6
CONTINUOUS
 62
     7
100
AcDbCircle
 10
1908.7684985791
 20
994.0344262535
 30
0.0
 40
3.000000000000199
100
AcDbArc
 50
48.1896851042
 51
311.8103148958
  0
ARC
  5
5ED
330
1F
100
AcDbEntity
  8
0
  6
CONTINUOUS
 62
     7
100
AcDbCircle
 10
1910.9684985791
 20
991.5747514783
 30
0.0
 40
0.3000000000001819
100
AcDbArc
 50
0.0
 51
131.8103149021
  0
LINE
  5
5EE
330
1F
100
AcDbEntity
  8
0
  6
CONTINUOUS
 62
     7
100
AcDbLine
 10
1911.2684936915
 20
991.5747409279
 30
0.0
 11
1911.2684936915
 21
990.7538061554
 31
0.0
  0
ARC
  5
5EF
330
1F
100
AcDbEntity
  8
0
  6
CONTINUOUS
 62
     7
100
AcDbCircle
 10
1910.9684985791
 20
990.753801313
 30
0.0
 40
0.3000000000001819
100
AcDbArc
 50
303.8459608311
 51
0.0
  0
ARC
  5
5F0
330
1F
100
AcDbEntity
  8
0
  6
CONTINUOUS
 62
     7
100
AcDbCircle
 10
1908.7684985791
 20
994.0344262535
 30
0.0
 40
4.250000107903169
100
AcDbArc
 50
273.5172313469
 51
303.8459608219
  0
ARC
  5
5F1
330
1F
100
AcDbEntity
  8
0
  6
CONTINUOUS
 62
     7
100
AcDbCircle
 10
1909.0585284389
 20
989.2931551089
 30
0.0
 40
0.5001462289733218
100
AcDbArc
 50
93.3575380459
 51
219.495314956
  0
ELLIPSE
  5
5F2
330
1F
100
AcDbEntity
  8
0
  6
CONTINUOUS
 62
     7
100
AcDbEllipse
 10
1901.7256296148
 20
983.2153677528
 30
0.0
 11
-6.436559256496366
 21
-6.325189165241113
 31
0.0
210
0.0
220
0.0
230
1.0
 40
0.9973114185
 41
2.366266999304998
 42
3.056928380978999
  0
LINE
  5
5F3
330
1F
100
AcDbEntity
  8
0
  6
CONTINUOUS
 62
     7
100
AcDbLine
 10
1910.7379825507
 20
981.5344279224
 30
0.0
 11
1910.7379825507
 21
983.2396274025
 31
0.0
  0
LINE
  5
5F4
330
1F
100
AcDbEntity
  8
0
  6
CONTINUOUS
 62
     7
100
AcDbLine
 10
1910.7379825507
 20
951.0344331677
 30
0.0
 11
1910.7379825507
 21
979.0344303066
 31
0.0
  0
LINE
  5
5F5
330
1F
100
AcDbEntity
  8
0
  6
CONTINUOUS
 62
     7
100
AcDbLine
 10
1910.7379825507
 20
913.534424227
 30
0.0
 11
1910.7379825507
 21
948.5344206507
 31
0.0
  0
LINE
  5
5F6
330
1F
100
AcDbEntity
  8
0
  6
CONTINUOUS
 62
     7
100
AcDbLine
 10
1910.7379825507
 20
883.0344294722
 30
0.0
 11
1910.7379825507
 21
911.0344266111
 31
0.0
  0
LINE
  5
5F7
330
1F
100
AcDbEntity
  8
0
  6
CONTINUOUS
 62
     7
100
AcDbLine
 10
1910.7379825507
 20
845.534427982
 30
0.0
 11
1910.7379825507
 21
880.5344318564
 31
0.0
  0
LINE
  5
5F8
330
1F
100
AcDbEntity
  8
0
  6
CONTINUOUS
 62
     7
100
AcDbLine
 10
1910.7379825507
 20
815.0344257767
 30
0.0
 11
1910.7379825507
 21
843.0344229157
 31
0.0
  0
LINE
  5
5F9
330
1F
100
AcDbEntity
  8
0
  6
CONTINUOUS
 62
     7
100
AcDbLine
 10
1910.7379825507
 20
777.5344280119
 30
0.0
 11
1910.7379825507
 21
812.5344281609
 31
0.0
  0
LINE
  5
5FA
330
1F
100
AcDbEntity
  8
0
  6
CONTINUOUS
 62
     7
100
AcDbLine
 10
1910.7379825507
 20
747.0344258065
 30
0.0
 11
1910.7379825507
 21
775.0344266707
 31
0.0
  0
LINE
  5
5FB
330
1F
100
AcDbEntity
  8
0
  6
CONTINUOUS
 62
     7
100
AcDbLine
 10
1910.7379825507
 20
709.534426179
 30
0.0
 11
1910.7379825507
 21
744.534426328
 31
0.0
  0
LINE
  5
5FC
330
1F
100
AcDbEntity
  8
0
  6
CONTINUOUS
 62
     7
100
AcDbLine
 10
1910.7379825507
 20
707.0344267005
 30
0.0
 11
1910.7379825507
 21
679.0344258363
 31
0.0
  0
LINE
  5
5FD
330
1F
100
AcDbEntity
  8
0
  6
CONTINUOUS
 62
     7
100
AcDbLine
 10
1910.7379825507
 20
676.5344244952
 30
0.0
 11
1910.7379825507
 21
641.5344243462
 31
0.0
  0
LINE
  5
5FE
330
1F
100
AcDbEntity
  8
0
  6
CONTINUOUS
 62
     7
100
AcDbLine
 10
1910.7379825507
 20
639.0344267304
 30
0.0
 11
1910.7379825507
 21
611.0344295914
 31
0.0
  0
LINE
  5
5FF
330
1F
100
AcDbEntity
  8
0
  6
CONTINUOUS
 62
     7
100
AcDbLine
 10
1910.7379825507
 20
608.534424525
 30
0.0
 11
1910.7379825507
 21
573.5344206507
 31
0.0
  0
LINE
  5
600
330
1F
100
AcDbEntity
  8
0
  6
CONTINUOUS
 62
     7
100
AcDbLine
 10
1910.7379825507
 20
571.0344230349
 30
0.0
 11
1910.7379825507
 21
543.0344258959
 31
0.0
  0
LINE
  5
601
330
1F
100
AcDbEntity
  8
0
  6
CONTINUOUS
 62
     7
100
AcDbLine
 10
1910.7379825507
 20
540.5344282801
 30
0.0
 11
1910.7379825507
 21
505.5344318564
 31
0.0
  0
LINE
  5
602
330
1F
100
AcDbEntity
  8
0
  6
CONTINUOUS
 62
     7
100
AcDbLine
 10
1910.7379825507
 20
503.0344193394
 30
0.0
 11
1910.7379825507
 21
475.0344222004
 31
0.0
  0
LINE
  5
603
330
1F
100
AcDbEntity
  8
0
  6
CONTINUOUS
 62
     7
100
AcDbLine
 10
1910.7379825507
 20
472.5344245846
 30
0.0
 11
1910.7379825507
 21
470.8292251045
 31
0.0
  0
LWPOLYLINE
  5
604
330
1F
100
AcDbEntity
  8
0
  6
CONTINUOUS
 62
     7
100
AcDbPolyline
 90
        3
 70
   128
 43
0.0
 10
1910.7379825507
 20
470.8292251045
 10
1910.2033139859
 20
467.7728181297
 10
1908.6725773011
 20
465.0937979633
  0
ARC
  5
605
330
1F
100
AcDbEntity
  8
0
  6
CONTINUOUS
 62
     7
100
AcDbCircle
 10
1909.0585291424
 20
464.775697705
 30
0.0
 40
0.5001465766004889
100
AcDbArc
 50
140.5047634347
 51
266.6423835634
  0
ARC
  5
606
330
1F
100
AcDbEntity
  8
0
  6
CONTINUOUS
 62
     7
100
AcDbCircle
 10
1908.7684985791
 20
460.0344262535
 30
0.0
 40
4.249999999999931
100
AcDbArc
 50
56.1540391781
 51
86.4827686531
  0
ARC
  5
607
330
1F
100
AcDbEntity
  8
0
  6
CONTINUOUS
 62
     7
100
AcDbCircle
 10
1910.9684985791
 20
463.315051194
 30
0.0
 40
0.3000000000001819
100
AcDbArc
 50
0.0
 51
56.1540391689
  0
LINE
  5
608
330
1F
100
AcDbEntity
  8
0
  6
CONTINUOUS
 62
     7
100
AcDbLine
 10
1911.2684936915
 20
462.4941115791
 30
0.0
 11
1911.2684936915
 21
463.3150463516
 31
0.0
  0
ARC
  5
609
330
1F
100
AcDbEntity
  8
0
  6
CONTINUOUS
 62
     7
100
AcDbCircle
 10
1910.9684985791
 20
462.4941010287
 30
0.0
 40
0.3000000000001819
100
AcDbArc
 50
228.1896850979
 51
0.0
  0
ARC
  5
60A
330
1F
100
AcDbEntity
  8
0
  6
CONTINUOUS
 62
     7
100
AcDbCircle
 10
1908.7684985791
 20
460.0344262535
 30
0.0
 40
3.000000000000199
100
AcDbArc
 50
48.1896851042
 51
311.8103148958
  0
ARC
  5
60B
330
1F
100
AcDbEntity
  8
0
  6
CONTINUOUS
 62
     7
100
AcDbCircle
 10
1910.9684985791
 20
457.5747514783
 30
0.0
 40
0.3000000000001819
100
AcDbArc
 50
0.0
 51
131.8103149021
  0
LINE
  5
60C
330
1F
100
AcDbEntity
  8
0
  6
CONTINUOUS
 62
     7
100
AcDbLine
 10
1911.2684936915
 20
456.7537968571
 30
0.0
 11
1911.2684936915
 21
457.5747614319
 31
0.0
  0
ARC
  5
60D
330
1F
100
AcDbEntity
  8
0
  6
CONTINUOUS
 62
     7
100
AcDbCircle
 10
1910.9684985791
 20
456.753801313
 30
0.0
 40
0.3000000000001819
100
AcDbArc
 50
303.8459608311
 51
0.0
  0
ARC
  5
60E
330
1F
100
AcDbEntity
  8
0
  6
CONTINUOUS
 62
     7
100
AcDbCircle
 10
1908.7684985791
 20
460.0344262535
 30
0.0
 40
4.250000000000033
100
AcDbArc
 50
159.5514805229
 51
303.8459608219
  0
ARC
  5
60F
330
1F
100
AcDbEntity
  8
0
  6
CONTINUOUS
 62
     7
100
AcDbCircle
 10
1904.3179991949
 20
461.6948621667
 30
0.0
 40
0.5001656264069241
100
AcDbArc
 50
339.44098408
 51
105.5641487643
  0
LINE
  5
610
330
1F
100
AcDbEntity
  8
0
  6
CONTINUOUS
 62
     7
100
AcDbLine
 10
1904.1837962066
 20
462.1766870434
 30
0.0
 11
1901.9071669971
 21
461.842930835
 31
0.0
  0
LINE
  5
611
330
1F
100
AcDbEntity
  8
0
  6
CONTINUOUS
 62
     7
100
AcDbLine
 10
1901.9071669971
 20
461.842930835
 30
0.0
 11
1696.7684985791
 21
458.2622116024
 31
0.0
  0
LINE
  5
612
330
1F
100
AcDbEntity
  8
0
  6
CONTINUOUS
 62
     7
100
AcDbLine
 10
1491.6298301612
 20
461.842930835
 30
0.0
 11
1696.7684985791
 21
458.2622116024
 31
0.0
  0
ELLIPSE
  5
613
330
1F
100
AcDbEntity
  8
0
  6
CONTINUOUS
 62
     7
100
AcDbEllipse
 10
1491.8113675434
 20
470.8534847542
 30
0.0
 11
6.436559256496367
 21
6.325189165241057
 31
0.0
210
0.0
220
0.0
230
1.0
 40
0.9973114185
 41
3.660807901212687
 42
3.916918307881548
  0
ARC
  5
614
330
1F
100
AcDbEntity
  8
0
  6
CONTINUOUS
 62
     7
100
AcDbCircle
 10
1489.2185214906
 20
461.6952988128
 30
0.0
 40
0.4998731697098431
100
AcDbArc
 50
74.3698113586
 51
200.6250557971
  0
ARC
  5
615
330
1F
100
AcDbEntity
  8
0
  6
CONTINUOUS
 62
     7
100
AcDbCircle
 10
1484.7684985791
 20
460.0344262535
 30
0.0
 40
4.249999999988649
100
AcDbArc
 50
236.1540391781
 51
20.4485194771
  0
ARC
  5
616
330
1F
100
AcDbEntity
  8
0
  6
CONTINUOUS
 62
     7
100
AcDbCircle
 10
1482.5684985791
 20
456.753801313
 30
0.0
 40
0.2999999999999545
100
AcDbArc
 50
180.0
 51
236.1540391689
  0
LINE
  5
617
330
1F
100
AcDbEntity
  8
0
  6
CONTINUOUS
 62
     7
100
AcDbLine
 10
1482.2685034667
 20
456.7537968571
 30
0.0
 11
1482.2685034667
 21
457.5747614319
 31
0.0
  0
ARC
  5
618
330
1F
100
AcDbEntity
  8
0
  6
CONTINUOUS
 62
     7
100
AcDbCircle
 10
1482.5684985791
 20
457.5747514783
 30
0.0
 40
0.2999999999999545
100
AcDbArc
 50
48.1896850979
 51
180.0
  0
ARC
  5
619
330
1F
100
AcDbEntity
  8
0
  6
CONTINUOUS
 62
     7
100
AcDbCircle
 10
1484.7684985791
 20
460.0344262535
 30
0.0
 40
3.000000000000199
100
AcDbArc
 50
228.1896851042
 51
131.8103148958
  0
ARC
  5
61A
330
1F
100
AcDbEntity
  8
0
  6
CONTINUOUS
 62
     7
100
AcDbCircle
 10
1482.5684985791
 20
462.4941010287
 30
0.0
 40
0.2999999999999545
100
AcDbArc
 50
180.0
 51
311.8103149022
  0
LINE
  5
61B
330
1F
100
AcDbEntity
  8
0
  6
CONTINUOUS
 62
     7
100
AcDbLine
 10
1482.2685034667
 20
462.4941115791
 30
0.0
 11
1482.2685034667
 21
463.3150463516
 31
0.0
  0
ARC
  5
61C
330
1F
100
AcDbEntity
  8
0
  6
CONTINUOUS
 62
     7
100
AcDbCircle
 10
1482.5684985791
 20
463.315051194
 30
0.0
 40
0.2999999999999545
100
AcDbArc
 50
123.8459608311
 51
180.0
  0
ARC
  5
61D
330
1F
100
AcDbEntity
  8
0
  6
CONTINUOUS
 62
     7
100
AcDbCircle
 10
1484.7684985791
 20
460.0344262535
 30
0.0
 40
4.250000107903282
100
AcDbArc
 50
93.5172313469
 51
123.8459608219
  0
ARC
  5
61E
330
1F
100
AcDbEntity
  8
0
  6
CONTINUOUS
 62
     7
100
AcDbCircle
 10
1484.4784687194
 20
464.7756973981
 30
0.0
 40
0.5001462289729773
100
AcDbArc
 50
273.3575380458
 51
39.4953149561
  0
ELLIPSE
  5
61F
330
1F
100
AcDbEntity
  8
0
  6
CONTINUOUS
 62
     7
100
AcDbEllipse
 10
1491.8113675434
 20
470.8534847542
 30
0.0
 11
6.436559256496367
 21
6.325189165241057
 31
0.0
210
0.0
220
0.0
230
1.0
 40
0.9973114185
 41
2.366266999305002
 42
3.056928380979002
  0
LINE
  5
620
330
1F
100
AcDbEntity
  8
0
  6
CONTINUOUS
 62
     7
100
AcDbLine
 10
1915.454974929
 20
883.0344294722
 30
0.0
 11
1910.7379825507
 21
883.0344294722
 31
0.0
  0
LINE
  5
621
330
1F
100
AcDbEntity
  8
0
  6
CONTINUOUS
 62
     7
100
AcDbLine
 10
1915.454974929
 20
747.0344258065
 30
0.0
 11
1910.7379825507
 21
747.0344258065
 31
0.0
  0
LINE
  5
622
330
1F
100
AcDbEntity
  8
0
  6
CONTINUOUS
 62
     7
100
AcDbLine
 10
1915.454974929
 20
475.0344222004
 30
0.0
 11
1910.7379825507
 21
475.0344222004
 31
0.0
  0
LINE
  5
623
330
1F
100
AcDbEntity
  8
0
  6
CONTINUOUS
 62
     7
100
AcDbLine
 10
1915.454974929
 20
543.0344258959
 30
0.0
 11
1910.7379825507
 21
543.0344258959
 31
0.0
  0
LINE
  5
624
330
1F
100
AcDbEntity
  8
0
  6
CONTINUOUS
 62
     7
100
AcDbLine
 10
1915.454974929
 20
571.0344230349
 30
0.0
 11
1910.7379825507
 21
571.0344230349
 31
0.0
  0
LINE
  5
625
330
1F
100
AcDbEntity
  8
0
  6
CONTINUOUS
 62
     7
100
AcDbLine
 10
1915.454974929
 20
979.0344303066
 30
0.0
 11
1910.7379825507
 21
979.0344303066
 31
0.0
  0
LINE
  5
626
330
1F
100
AcDbEntity
  8
0
  6
CONTINUOUS
 62
     7
100
AcDbLine
 10
1915.454974929
 20
911.0344266111
 30
0.0
 11
1910.7379825507
 21
911.0344266111
 31
0.0
  0
LINE
  5
627
330
1F
100
AcDbEntity
  8
0
  6
CONTINUOUS
 62
     7
100
AcDbLine
 10
1915.454974929
 20
775.0344266707
 30
0.0
 11
1910.7379825507
 21
775.0344266707
 31
0.0
  0
LINE
  5
628
330
1F
100
AcDbEntity
  8
0
  6
CONTINUOUS
 62
     7
100
AcDbLine
 10
1910.7379825507
 20
472.5344245846
 30
0.0
 11
1915.454974929
 21
472.5344245846
 31
0.0
  0
LINE
  5
629
330
1F
100
AcDbEntity
  8
0
  6
CONTINUOUS
 62
     7
100
AcDbLine
 10
1915.454974929
 20
815.0344257767
 30
0.0
 11
1910.7379825507
 21
815.0344257767
 31
0.0
  0
LINE
  5
62A
330
1F
100
AcDbEntity
  8
0
  6
CONTINUOUS
 62
     7
100
AcDbLine
 10
1915.454974929
 20
503.0344193394
 30
0.0
 11
1910.7379825507
 21
503.0344193394
 31
0.0
  0
LINE
  5
62B
330
1F
100
AcDbEntity
  8
0
  6
CONTINUOUS
 62
     7
100
AcDbLine
 10
1915.454974929
 20
707.0344267005
 30
0.0
 11
1910.7379825507
 21
707.0344267005
 31
0.0
  0
LINE
  5
62C
330
1F
100
AcDbEntity
  8
0
  6
CONTINUOUS
 62
     7
100
AcDbLine
 10
1915.454974929
 20
611.0344295914
 30
0.0
 11
1910.7379825507
 21
611.0344295914
 31
0.0
  0
LINE
  5
62D
330
1F
100
AcDbEntity
  8
0
  6
CONTINUOUS
 62
     7
100
AcDbLine
 10
1915.454974929
 20
951.0344331677
 30
0.0
 11
1910.7379825507
 21
951.0344331677
 31
0.0
  0
LINE
  5
62E
330
1F
100
AcDbEntity
  8
0
  6
CONTINUOUS
 62
     7
100
AcDbLine
 10
1910.7379825507
 20
981.5344279224
 30
0.0
 11
1915.454974929
 21
981.5344279224
 31
0.0
  0
LINE
  5
62F
330
1F
100
AcDbEntity
  8
0
  6
CONTINUOUS
 62
     7
100
AcDbLine
 10
1915.454974929
 20
679.0344258363
 30
0.0
 11
1910.7379825507
 21
679.0344258363
 31
0.0
  0
LINE
  5
630
330
1F
100
AcDbEntity
  8
0
  6
CONTINUOUS
 62
     7
100
AcDbLine
 10
1915.454974929
 20
639.0344267304
 30
0.0
 11
1910.7379825507
 21
639.0344267304
 31
0.0
  0
LINE
  5
631
330
1F
100
AcDbEntity
  8
0
  6
CONTINUOUS
 62
     7
100
AcDbLine
 10
1915.454974929
 20
843.0344229157
 30
0.0
 11
1910.7379825507
 21
843.0344229157
 31
0.0
  0
LINE
  5
632
330
1F
100
AcDbEntity
  8
0
  6
CONTINUOUS
 62
     7
100
AcDbLine
 10
1910.7379825507
 20
608.534424525
 30
0.0
 11
1915.454974929
 21
608.534424525
 31
0.0
  0
LINE
  5
633
330
1F
100
AcDbEntity
  8
0
  6
CONTINUOUS
 62
     7
100
AcDbLine
 10
1910.7379825507
 20
540.5344282801
 30
0.0
 11
1915.454974929
 21
540.5344282801
 31
0.0
  0
LINE
  5
634
330
1F
100
AcDbEntity
  8
0
  6
CONTINUOUS
 62
     7
100
AcDbLine
 10
1910.7379825507
 20
913.534424227
 30
0.0
 11
1915.454974929
 21
913.534424227
 31
0.0
  0
LINE
  5
635
330
1F
100
AcDbEntity
  8
0
  6
CONTINUOUS
 62
     7
100
AcDbLine
 10
1910.7379825507
 20
777.5344280119
 30
0.0
 11
1915.454974929
 21
777.5344280119
 31
0.0
  0
LINE
  5
636
330
1F
100
AcDbEntity
  8
0
  6
CONTINUOUS
 62
     7
100
AcDbLine
 10
1910.7379825507
 20
845.534427982
 30
0.0
 11
1915.454974929
 21
845.534427982
 31
0.0
  0
LINE
  5
637
330
1F
100
AcDbEntity
  8
0
  6
CONTINUOUS
 62
     7
100
AcDbLine
 10
1910.7379825507
 20
676.5344244952
 30
0.0
 11
1915.454974929
 21
676.5344244952
 31
0.0
  0
LINE
  5
638
330
1F
100
AcDbEntity
  8
0
  6
CONTINUOUS
 62
     7
100
AcDbLine
 10
1910.7379825507
 20
948.5344206507
 30
0.0
 11
1915.454974929
 21
948.5344206507
 31
0.0
  0
LINE
  5
639
330
1F
100
AcDbEntity
  8
0
  6
CONTINUOUS
 62
     7
100
AcDbLine
 10
1910.7379825507
 20
505.5344318564
 30
0.0
 11
1915.454974929
 21
505.5344318564
 31
0.0
  0
LINE
  5
63A
330
1F
100
AcDbEntity
  8
0
  6
CONTINUOUS
 62
     7
100
AcDbLine
 10
1910.7379825507
 20
573.5344206507
 30
0.0
 11
1915.454974929
 21
573.5344206507
 31
0.0
  0
LINE
  5
63B
330
1F
100
AcDbEntity
  8
0
  6
CONTINUOUS
 62
     7
100
AcDbLine
 10
1910.7379825507
 20
880.5344318564
 30
0.0
 11
1915.454974929
 21
880.5344318564
 31
0.0
  0
LINE
  5
63C
330
1F
100
AcDbEntity
  8
0
  6
CONTINUOUS
 62
     7
100
AcDbLine
 10
1910.7379825507
 20
641.5344243462
 30
0.0
 11
1915.454974929
 21
641.5344243462
 31
0.0
  0
LINE
  5
63D
330
1F
100
AcDbEntity
  8
0
  6
CONTINUOUS
 62
     7
100
AcDbLine
 10
1910.7379825507
 20
812.5344281609
 30
0.0
 11
1915.454974929
 21
812.5344281609
 31
0.0
  0
LINE
  5
63E
330
1F
100
AcDbEntity
  8
0
  6
CONTINUOUS
 62
     7
100
AcDbLine
 10
1910.7379825507
 20
709.534426179
 30
0.0
 11
1915.454974929
 21
709.534426179
 31
0.0
  0
LINE
  5
63F
330
1F
100
AcDbEntity
  8
0
  6
CONTINUOUS
 62
     7
100
AcDbLine
 10
1910.7379825507
 20
744.534426328
 30
0.0
 11
1915.454974929
 21
744.534426328
 31
0.0
  0
LWPOLYLINE
  5
640
330
1F
100
AcDbEntity
  8
0
  6
CONTINUOUS
 62
     7
100
AcDbPolyline
 90
        3
 70
   128
 43
0.0
 10
1484.8644198571
 20
988.9750545437
 10
1484.5353724156
 20
989.0162413532
 10
1484.2549921666
 20
989.0700345451
  0
LINE
  5
641
330
1F
100
AcDbEntity
  8
0
  6
CONTINUOUS
 62
     7
100
AcDbLine
 10
1482.4237288629
 20
983.6084013397
 30
0.0
 11
1482.7990146075
 21
983.2396274025
 31
0.0
  0
LWPOLYLINE
  5
642
330
1F
100
AcDbEntity
  8
0
  6
CONTINUOUS
 62
     7
100
AcDbPolyline
 90
        3
 70
   128
 43
0.0
 10
1484.2549921666
 20
989.0700345451
 10
1482.7746214067
 20
986.1058061535
 10
1482.4237288629
 20
983.6084013397
  0
LWPOLYLINE
  5
643
330
1F
100
AcDbEntity
  8
0
  6
CONTINUOUS
 62
     7
100
AcDbPolyline
 90
        3
 70
   128
 43
0.0
 10
1908.6725773011
 20
465.0937979633
 10
1909.0016247426
 20
465.0526111538
 10
1909.2820049916
 20
464.9988179619
  0
LINE
  5
644
330
1F
100
AcDbEntity
  8
0
  6
CONTINUOUS
 62
     7
100
AcDbLine
 10
1911.1132682954
 20
470.4604511673
 30
0.0
 11
1910.7379825507
 21
470.8292251045
 31
0.0
  0
LWPOLYLINE
  5
645
330
1F
100
AcDbEntity
  8
0
  6
CONTINUOUS
 62
     7
100
AcDbPolyline
 90
        3
 70
   128
 43
0.0
 10
1909.2820049916
 20
464.9988179619
 10
1910.7623757516
 20
467.9630463535
 10
1911.1132682954
 20
470.4604511673
  0
LWPOLYLINE
  5
646
330
1F
100
AcDbEntity
  8
0
  6
CONTINUOUS
 62
     7
100
AcDbPolyline
 90
        3
 70
   128
 43
0.0
 10
1489.4861342107
 20
992.4097721989
 10
1489.4142510091
 20
992.098993581
 10
1489.3532009517
 20
991.8921654636
  0
LWPOLYLINE
  5
647
330
1F
100
AcDbEntity
  8
0
  6
CONTINUOUS
 62
     7
100
AcDbPolyline
 90
        3
 70
   128
 43
0.0
 10
1491.237303773
 20
992.6116531307
 10
1490.2450652514
 20
992.5397997315
 10
1489.4861342107
 20
992.4097721989
  0
LINE
  5
648
330
1F
100
AcDbEntity
  8
0
  6
CONTINUOUS
 62
     7
100
AcDbLine
 10
1491.237303773
 20
992.6116531307
 30
0.0
 11
1491.6298301612
 21
992.2259216721
 31
0.0
  0
LWPOLYLINE
  5
649
330
1F
100
AcDbEntity
  8
0
  6
CONTINUOUS
 62
     7
100
AcDbPolyline
 90
        3
 70
   128
 43
0.0
 10
1904.0508629476
 20
461.6590803082
 10
1904.1227461492
 20
461.969858926
 10
1904.1837962066
 20
462.1766870434
  0
LWPOLYLINE
  5
64A
330
1F
100
AcDbEntity
  8
0
  6
CONTINUOUS
 62
     7
100
AcDbPolyline
 90
        3
 70
   128
 43
0.0
 10
1902.2996933852
 20
461.4571993763
 10
1903.2919319068
 20
461.5290527756
 10
1904.0508629476
 20
461.6590803082
  0
LINE
  5
64B
330
1F
100
AcDbEntity
  8
0
  6
CONTINUOUS
 62
     7
100
AcDbLine
 10
1902.2996933852
 20
461.4571993763
 30
0.0
 11
1901.9071669971
 21
461.842930835
 31
0.0
  0
ARC
  5
64C
330
1F
100
AcDbEntity
  8
0
  6
CONTINUOUS
 62
     7
100
AcDbCircle
 10
1483.8557574303
 20
989.372225559
 30
0.0
 40
0.5007072833120003
100
AcDbArc
 50
322.8769865737
 51
78.7156013925
  0
ARC
  5
64D
330
1F
100
AcDbEntity
  8
0
  6
CONTINUOUS
 62
     7
100
AcDbCircle
 10
1909.681239728
 20
464.6966269481
 30
0.0
 40
0.5007072833122942
100
AcDbArc
 50
142.8769865737
 51
258.7156013924
  0
ARC
  5
64E
330
1F
100
AcDbEntity
  8
0
  6
CONTINUOUS
 62
     7
100
AcDbCircle
 10
1909.681239728
 20
989.372225559
 30
0.0
 40
0.5007072833123629
100
AcDbArc
 50
101.2843986076
 51
217.1230134263
  0
LWPOLYLINE
  5
64F
330
1F
100
AcDbEntity
  8
0
  6
CONTINUOUS
 62
     7
100
AcDbPolyline
 90
        3
 70
   128
 43
0.0
 10
1908.6725773011
 20
988.9750545437
 10
1909.0016247426
 20
989.0162413532
 10
1909.2820049916
 20
989.0700345451
  0
ARC
  5
650
330
1F
100
AcDbEntity
  8
0
  6
CONTINUOUS
 62
     7
100
AcDbCircle
 10
1489.3798216718
 20
992.8976915212
 30
0.0
 40
0.499367220607881
100
AcDbArc
 50
166.3503657206
 51
282.2920319774
  0
ARC
  5
651
330
1F
100
AcDbEntity
  8
0
  6
CONTINUOUS
 62
     7
100
AcDbCircle
 10
1904.1571754864
 20
461.1711609858
 30
0.0
 40
0.4993672206082649
100
AcDbArc
 50
346.3503657207
 51
102.2920319773
  0
LWPOLYLINE
  5
652
330
1F
100
AcDbEntity
  8
0
  6
CONTINUOUS
 62
     7
100
AcDbPolyline
 90
        3
 70
   128
 43
0.0
 10
1489.4861342107
 20
461.6590803082
 10
1489.4142510091
 20
461.969858926
 10
1489.3532009517
 20
462.1766870434
  0
ARC
  5
653
330
1F
100
AcDbEntity
  8
0
  6
CONTINUOUS
 62
     7
100
AcDbCircle
 10
1489.3798216718
 20
461.1711609858
 30
0.0
 40
0.4993672206079365
100
AcDbArc
 50
77.7079680226
 51
193.6496342794
  0
LWPOLYLINE
  5
654
330
1F
100
AcDbEntity
  8
0
  6
CONTINUOUS
 62
     7
100
AcDbPolyline
 90
        3
 70
   128
 43
0.0
 10
1904.0508629476
 20
992.4097721989
 10
1904.1227461492
 20
992.098993581
 10
1904.1837962066
 20
991.8921654636
  0
ARC
  5
655
330
1F
100
AcDbEntity
  8
0
  6
CONTINUOUS
 62
     7
100
AcDbCircle
 10
1904.1571754864
 20
992.8976915212
 30
0.0
 40
0.4993672206082113
100
AcDbArc
 50
257.7079680227
 51
13.6496342793
  0
ARC
  5
656
330
1F
100
AcDbEntity
  8
0
  6
CONTINUOUS
 62
     7
100
AcDbCircle
 10
1483.8562121481
 20
464.6964542506
 30
0.0
 40
0.5004491153932883
100
AcDbArc
 50
281.2372139185
 51
37.1701981153
  0
LWPOLYLINE
  5
657
330
1F
100
AcDbEntity
  8
0
  6
CONTINUOUS
 62
     7
100
AcDbPolyline
 90
        3
 70
   128
 43
0.0
 10
1484.8644198571
 20
465.0937979633
 10
1484.5353724156
 20
465.0526111538
 10
1484.2549921666
 20
464.9988179619
  0
LINE
  5
658
330
1F
100
AcDbEntity
  8
0
  6
CONTINUOUS
 62
     7
100
AcDbLine
 10
1696.7684985791
 20
996.1811964924
 30
0.0
 11
1696.7684985791
 21
995.8066409046
 31
0.0
  0
LINE
  5
659
330
1F
100
AcDbEntity
  8
0
  6
CONTINUOUS
 62
     7
100
AcDbLine
 10
1696.7684985791
 20
996.1811964924
 30
0.0
 11
1491.237303773
 21
992.6116531307
 31
0.0
  0
LINE
  5
65A
330
1F
100
AcDbEntity
  8
0
  6
CONTINUOUS
 62
     7
100
AcDbLine
 10
1696.7684985791
 20
457.8876560146
 30
0.0
 11
1696.7684985791
 21
458.2622116024
 31
0.0
  0
LINE
  5
65B
330
1F
100
AcDbEntity
  8
0
  6
CONTINUOUS
 62
     7
100
AcDbLine
 10
1696.7684985791
 20
457.8876560146
 30
0.0
 11
1902.2996933852
 21
461.4571993763
 31
0.0
  0
LINE
  5
65C
330
1F
100
AcDbEntity
  8
0
  6
CONTINUOUS
 62
     7
100
AcDbLine
 10
1482.4237288629
 20
470.4604511673
 30
0.0
 11
1482.4237288629
 21
983.6084013397
 31
0.0
  0
LINE
  5
65D
330
1F
100
AcDbEntity
  8
0
  6
CONTINUOUS
 62
     7
100
AcDbLine
 10
1482.4237288629
 20
470.4604511673
 30
0.0
 11
1482.7990146075
 21
470.8292251045
 31
0.0
  0
LINE
  5
65E
330
1F
100
AcDbEntity
  8
0
  6
CONTINUOUS
 62
     7
100
AcDbLine
 10
1911.1132682954
 20
470.4604511673
 30
0.0
 11
1911.1132682954
 21
472.5344245846
 31
0.0
  0
LWPOLYLINE
  5
65F
330
1F
100
AcDbEntity
  8
0
  6
CONTINUOUS
 62
     7
100
AcDbPolyline
 90
        3
 70
   128
 43
0.0
 10
1909.2820049916
 20
989.0700345451
 10
1910.6400074159
 20
986.4955609257
 10
1911.1132682954
 20
983.6084013397
  0
LINE
  5
660
330
1F
100
AcDbEntity
  8
0
  6
CONTINUOUS
 62
     7
100
AcDbLine
 10
1911.1132682954
 20
983.6084013397
 30
0.0
 11
1910.7379825507
 21
983.2396274025
 31
0.0
  0
LINE
  5
661
330
1F
100
AcDbEntity
  8
0
  6
CONTINUOUS
 62
     7
100
AcDbLine
 10
1491.237303773
 20
461.4571993763
 30
0.0
 11
1491.6298301612
 21
461.842930835
 31
0.0
  0
LWPOLYLINE
  5
662
330
1F
100
AcDbEntity
  8
0
  6
CONTINUOUS
 62
     7
100
AcDbPolyline
 90
        3
 70
   128
 43
0.0
 10
1491.237303773
 20
461.4571993763
 10
1490.2450652514
 20
461.5290527756
 10
1489.4861342107
 20
461.6590803082
  0
LINE
  5
663
330
1F
100
AcDbEntity
  8
0
  6
CONTINUOUS
 62
     7
100
AcDbLine
 10
1902.2996933852
 20
992.6116531307
 30
0.0
 11
1901.9071669971
 21
992.2259216721
 31
0.0
  0
LWPOLYLINE
  5
664
330
1F
100
AcDbEntity
  8
0
  6
CONTINUOUS
 62
     7
100
AcDbPolyline
 90
        3
 70
   128
 43
0.0
 10
1902.2996933852
 20
992.6116531307
 10
1903.2919319068
 20
992.5397997315
 10
1904.0508629476
 20
992.4097721989
  0
LINE
  5
665
330
1F
100
AcDbEntity
  8
0
  6
CONTINUOUS
 62
     7
100
AcDbLine
 10
1911.1132682954
 20
983.6084013397
 30
0.0
 11
1911.1132682954
 21
981.5344279224
 31
0.0
  0
ELLIPSE
  5
666
330
1F
100
AcDbEntity
  8
0
  6
CONTINUOUS
 62
     7
100
AcDbEllipse
 10
1491.3908334188
 20
470.440227021
 30
0.0
 11
-1.890946192094134
 21
8.813504635520246
 31
0.0
210
0.0
220
0.0
230
1.0
 40
0.9945482591
 41
1.358325311671696
 42
2.008827634135126
  0
LINE
  5
667
330
1F
100
AcDbEntity
  8
0
  6
CONTINUOUS
 62
     7
100
AcDbLine
 10
1696.7684985791
 20
457.8876560146
 30
0.0
 11
1491.237303773
 21
461.4571993763
 31
0.0
  0
LINE
  5
668
330
1F
100
AcDbEntity
  8
0
  6
CONTINUOUS
 62
     7
100
AcDbLine
 10
1506.8367631827
 20
488.5337566549
 30
0.0
 11
1506.8367631827
 21
602.5350903685
 31
0.0
  0
LINE
  5
669
330
1F
100
AcDbEntity
  8
0
  6
CONTINUOUS
 62
     7
100
AcDbLine
 10
1506.8367631827
 20
723.5350920411
 30
0.0
 11
1506.8367631827
 21
609.5337634499
 31
0.0
  0
LINE
  5
66A
330
1F
100
AcDbEntity
  8
0
  6
CONTINUOUS
 62
     7
100
AcDbLine
 10
1506.8367631827
 20
965.5350958521
 30
0.0
 11
1506.8367631827
 21
851.5337621386
 31
0.0
  0
LINE
  5
66B
330
1F
100
AcDbEntity
  8
0
  6
CONTINUOUS
 62
     7
100
AcDbLine
 10
1506.8367631827
 20
730.5337604659
 30
0.0
 11
1506.8367631827
 21
844.5350890572
 31
0.0
  0
LINE
  5
66C
330
1F
100
AcDbEntity
  8
0
  6
CONTINUOUS
 62
     7
100
AcDbLine
 10
1510.0642056857
 20
967.8561603243
 30
0.0
 11
1598.4727950488
 21
967.8561603243
 31
0.0
  0
LINE
  5
66D
330
1F
100
AcDbEntity
  8
0
  6
CONTINUOUS
 62
     7
100
AcDbLine
 10
1510.0642056857
 20
486.2126921827
 30
0.0
 11
1598.4727950488
 21
486.2126921827
 31
0.0
  0
LINE
  5
66E
330
1F
100
AcDbEntity
  8
0
  6
CONTINUOUS
 62
     7
100
AcDbLine
 10
1693.4727917612
 20
486.2126921827
 30
0.0
 11
1605.0642044936
 21
486.2126921827
 31
0.0
  0
LINE
  5
66F
330
1F
100
AcDbEntity
  8
0
  6
CONTINUOUS
 62
     7
100
AcDbLine
 10
1693.4727917612
 20
967.8561603243
 30
0.0
 11
1605.0642044936
 21
967.8561603243
 31
0.0
  0
LINE
  5
670
330
1F
100
AcDbEntity
  8
0
  6
CONTINUOUS
 62
     7
100
AcDbLine
 10
1696.7684985791
 20
996.1811964924
 30
0.0
 11
1902.2996933852
 21
992.6116531307
 31
0.0
  0
LINE
  5
671
330
1F
100
AcDbEntity
  8
0
  6
CONTINUOUS
 62
     7
100
AcDbLine
 10
1788.4727926646
 20
967.8561603243
 30
0.0
 11
1700.064205397
 21
967.8561603243
 31
0.0
  0
LINE
  5
672
330
1F
100
AcDbEntity
  8
0
  6
CONTINUOUS
 62
     7
100
AcDbLine
 10
1700.064205397
 20
486.2126921827
 30
0.0
 11
1788.4727926646
 21
486.2126921827
 31
0.0
  0
LINE
  5
673
330
1F
100
AcDbEntity
  8
0
  6
CONTINUOUS
 62
     7
100
AcDbLine
 10
1883.4727914725
 20
967.8561603243
 30
0.0
 11
1795.0642021094
 21
967.8561603243
 31
0.0
  0
LINE
  5
674
330
1F
100
AcDbEntity
  8
0
  6
CONTINUOUS
 62
     7
100
AcDbLine
 10
1883.4727914725
 20
486.2126921827
 30
0.0
 11
1795.0642021094
 21
486.2126921827
 31
0.0
  0
LINE
  5
675
330
1F
100
AcDbEntity
  8
0
  6
CONTINUOUS
 62
     7
100
AcDbLine
 10
1886.7002339755
 20
965.5350958521
 30
0.0
 11
1886.7002339755
 21
851.5337621386
 31
0.0
  0
LINE
  5
676
330
1F
100
AcDbEntity
  8
0
  6
CONTINUOUS
 62
     7
100
AcDbLine
 10
1886.7002339755
 20
723.5350920411
 30
0.0
 11
1886.7002339755
 21
609.5337634499
 31
0.0
  0
LINE
  5
677
330
1F
100
AcDbEntity
  8
0
  6
CONTINUOUS
 62
     7
100
AcDbLine
 10
1886.7002339755
 20
602.5350903685
 30
0.0
 11
1886.7002339755
 21
488.5337566549
 31
0.0
  0
LINE
  5
678
330
1F
100
AcDbEntity
  8
0
  6
CONTINUOUS
 62
     7
100
AcDbLine
 10
1886.7002339755
 20
730.5337604659
 30
0.0
 11
1886.7002339755
 21
844.5350890572
 31
0.0
  0
LINE
  5
679
330
1F
100
AcDbEntity
  8
0
  6
CONTINUOUS
 62
     7
100
AcDbLine
 10
1911.1132682954
 20
611.0344295914
 30
0.0
 11
1911.1132682954
 21
639.0344267304
 31
0.0
  0
LINE
  5
67A
330
1F
100
AcDbEntity
  8
0
  6
CONTINUOUS
 62
     7
100
AcDbLine
 10
1911.1132682954
 20
843.0344229157
 30
0.0
 11
1911.1132682954
 21
815.0344257767
 31
0.0
  0
LINE
  5
67B
330
1F
100
AcDbEntity
  8
0
  6
CONTINUOUS
 62
     7
100
AcDbLine
 10
1911.1132682954
 20
679.0344258363
 30
0.0
 11
1911.1132682954
 21
707.0344267005
 31
0.0
  0
LINE
  5
67C
330
1F
100
AcDbEntity
  8
0
  6
CONTINUOUS
 62
     7
100
AcDbLine
 10
1911.1132682954
 20
775.0344266707
 30
0.0
 11
1911.1132682954
 21
747.0344258065
 31
0.0
  0
LINE
  5
67D
330
1F
100
AcDbEntity
  8
0
  6
CONTINUOUS
 62
     7
100
AcDbLine
 10
1911.1132682954
 20
573.5344206507
 30
0.0
 11
1911.1132682954
 21
608.534424525
 31
0.0
  0
LINE
  5
67E
330
1F
100
AcDbEntity
  8
0
  6
CONTINUOUS
 62
     7
100
AcDbLine
 10
1911.1132682954
 20
812.5344281609
 30
0.0
 11
1911.1132682954
 21
777.5344280119
 31
0.0
  0
LINE
  5
67F
330
1F
100
AcDbEntity
  8
0
  6
CONTINUOUS
 62
     7
100
AcDbLine
 10
1911.1132682954
 20
543.0344258959
 30
0.0
 11
1911.1132682954
 21
571.0344230349
 31
0.0
  0
LINE
  5
680
330
1F
100
AcDbEntity
  8
0
  6
CONTINUOUS
 62
     7
100
AcDbLine
 10
1911.1132682954
 20
505.5344318564
 30
0.0
 11
1911.1132682954
 21
540.5344282801
 31
0.0
  0
LINE
  5
681
330
1F
100
AcDbEntity
  8
0
  6
CONTINUOUS
 62
     7
100
AcDbLine
 10
1911.1132682954
 20
475.0344222004
 30
0.0
 11
1911.1132682954
 21
503.0344193394
 31
0.0
  0
LINE
  5
682
330
1F
100
AcDbEntity
  8
0
  6
CONTINUOUS
 62
     7
100
AcDbLine
 10
1911.1132682954
 20
911.0344266111
 30
0.0
 11
1911.1132682954
 21
883.0344294722
 31
0.0
  0
LINE
  5
683
330
1F
100
AcDbEntity
  8
0
  6
CONTINUOUS
 62
     7
100
AcDbLine
 10
1911.1132682954
 20
641.5344243462
 30
0.0
 11
1911.1132682954
 21
676.5344244952
 31
0.0
  0
LINE
  5
684
330
1F
100
AcDbEntity
  8
0
  6
CONTINUOUS
 62
     7
100
AcDbLine
 10
1911.1132682954
 20
880.5344318564
 30
0.0
 11
1911.1132682954
 21
845.534427982
 31
0.0
  0
LINE
  5
685
330
1F
100
AcDbEntity
  8
0
  6
CONTINUOUS
 62
     7
100
AcDbLine
 10
1911.1132682954
 20
744.534426328
 30
0.0
 11
1911.1132682954
 21
709.534426179
 31
0.0
  0
LINE
  5
686
330
1F
100
AcDbEntity
  8
0
  6
CONTINUOUS
 62
     7
100
AcDbLine
 10
1911.1132682954
 20
948.5344206507
 30
0.0
 11
1911.1132682954
 21
913.534424227
 31
0.0
  0
LINE
  5
687
330
1F
100
AcDbEntity
  8
0
  6
CONTINUOUS
 62
     7
100
AcDbLine
 10
1911.1132682954
 20
979.0344303066
 30
0.0
 11
1911.1132682954
 21
951.0344331677
 31
0.0
  0
ARC
  5
688
330
1F
100
AcDbEntity
  8
0
  6
CONTINUOUS
 62
     7
100
AcDbCircle
 10
1484.7684985791
 20
994.0344262535
 30
0.0
 40
3.000000000000199
100
AcDbArc
 50
131.8103148958
 51
228.1896851042
  0
ARC
  5
689
330
1F
100
AcDbEntity
  8
0
  6
CONTINUOUS
 62
     7
100
AcDbCircle
 10
1484.7684985791
 20
994.0344262535
 30
0.0
 40
4.249999999962858
100
AcDbArc
 50
123.8459608219
 51
236.1540391781
  0
ARC
  5
68A
330
1F
100
AcDbEntity
  8
0
  6
CONTINUOUS
 62
     7
100
AcDbCircle
 10
1484.7684985791
 20
460.0344262535
 30
0.0
 40
3.000000000000199
100
AcDbArc
 50
131.8103148958
 51
228.1896851042
  0
ARC
  5
68B
330
1F
100
AcDbEntity
  8
0
  6
CONTINUOUS
 62
     7
100
AcDbCircle
 10
1484.7684985791
 20
460.0344262535
 30
0.0
 40
4.249999999962858
100
AcDbArc
 50
123.8459608219
 51
236.1540391781
  0
ARC
  5
68C
330
1F
100
AcDbEntity
  8
0
  6
CONTINUOUS
 62
     7
100
AcDbCircle
 10
1908.7684985791
 20
994.0344262535
 30
0.0
 40
3.000000000000199
100
AcDbArc
 50
311.8103148958
 51
48.1896851042
  0
ARC
  5
68D
330
1F
100
AcDbEntity
  8
0
  6
CONTINUOUS
 62
     7
100
AcDbCircle
 10
1908.7684985791
 20
994.0344262535
 30
0.0
 40
4.249999999962732
100
AcDbArc
 50
303.8459608219
 51
56.1540391781
  0
ARC
  5
68E
330
1F
100
AcDbEntity
  8
0
  6
CONTINUOUS
 62
     7
100
AcDbCircle
 10
1908.7684985791
 20
460.0344262535
 30
0.0
 40
3.000000000000199
100
AcDbArc
 50
311.8103148958
 51
48.1896851042
  0
ARC
  5
68F
330
1F
100
AcDbEntity
  8
0
  6
CONTINUOUS
 62
     7
100
AcDbCircle
 10
1908.7684985791
 20
460.0344262535
 30
0.0
 40
4.249999999962732
100
AcDbArc
 50
303.8459608219
 51
56.1540391781
  0
LINE
  5
690
330
1F
100
AcDbEntity
  8
0
  6
CONTINUOUS
 62
     7
100
AcDbLine
 10
1919.4683791791
 20
777.5344280119
 30
0.0
 11
1919.4683791791
 21
812.5344281609
 31
0.0
  0
LINE
  5
691
330
1F
100
AcDbEntity
  8
0
  6
CONTINUOUS
 62
     7
100
AcDbLine
 10
1922.487726966
 20
777.5344280119
 30
0.0
 11
1922.487726966
 21
812.5344281609
 31
0.0
  0
LINE
  5
692
330
1F
100
AcDbEntity
  8
0
  6
CONTINUOUS
 62
     7
100
AcDbLine
 10
1919.4683791791
 20
608.534424525
 30
0.0
 11
1919.4683791791
 21
573.5344206507
 31
0.0
  0
LINE
  5
693
330
1F
100
AcDbEntity
  8
0
  6
CONTINUOUS
 62
     7
100
AcDbLine
 10
1922.487726966
 20
608.534424525
 30
0.0
 11
1922.487726966
 21
573.5344206507
 31
0.0
  0
LINE
  5
694
330
1F
100
AcDbEntity
  8
0
  6
CONTINUOUS
 62
     7
100
AcDbLine
 10
1919.4683791791
 20
676.5344244952
 30
0.0
 11
1919.4683791791
 21
641.5344243462
 31
0.0
  0
LINE
  5
695
330
1F
100
AcDbEntity
  8
0
  6
CONTINUOUS
 62
     7
100
AcDbLine
 10
1922.487726966
 20
676.5344244952
 30
0.0
 11
1922.487726966
 21
641.5344243462
 31
0.0
  0
LINE
  5
696
330
1F
100
AcDbEntity
  8
0
  6
CONTINUOUS
 62
     7
100
AcDbLine
 10
1919.4683791791
 20
845.534427982
 30
0.0
 11
1919.4683791791
 21
880.5344318564
 31
0.0
  0
LINE
  5
697
330
1F
100
AcDbEntity
  8
0
  6
CONTINUOUS
 62
     7
100
AcDbLine
 10
1922.487726966
 20
845.534427982
 30
0.0
 11
1922.487726966
 21
880.5344318564
 31
0.0
  0
LINE
  5
698
330
1F
100
AcDbEntity
  8
0
  6
CONTINUOUS
 62
     7
100
AcDbLine
 10
1919.4683791791
 20
540.5344282801
 30
0.0
 11
1919.4683791791
 21
505.5344318564
 31
0.0
  0
LINE
  5
699
330
1F
100
AcDbEntity
  8
0
  6
CONTINUOUS
 62
     7
100
AcDbLine
 10
1922.487726966
 20
540.5344282801
 30
0.0
 11
1922.487726966
 21
505.5344318564
 31
0.0
  0
LINE
  5
69A
330
1F
100
AcDbEntity
  8
0
  6
CONTINUOUS
 62
     7
100
AcDbLine
 10
1919.4683791791
 20
709.534426179
 30
0.0
 11
1919.4683791791
 21
744.534426328
 31
0.0
  0
LINE
  5
69B
330
1F
100
AcDbEntity
  8
0
  6
CONTINUOUS
 62
     7
100
AcDbLine
 10
1922.487726966
 20
744.534426328
 30
0.0
 11
1922.487726966
 21
709.534426179
 31
0.0
  0
LINE
  5
69C
330
1F
100
AcDbEntity
  8
0
  6
CONTINUOUS
 62
     7
100
AcDbLine
 10
1919.4683791791
 20
913.534424227
 30
0.0
 11
1919.4683791791
 21
948.5344206507
 31
0.0
  0
LINE
  5
69D
330
1F
100
AcDbEntity
  8
0
  6
CONTINUOUS
 62
     7
100
AcDbLine
 10
1922.487726966
 20
913.534424227
 30
0.0
 11
1922.487726966
 21
948.5344206507
 31
0.0
  0
LINE
  5
69E
330
1F
100
AcDbEntity
  8
0
  6
CONTINUOUS
 62
     7
100
AcDbLine
 10
1919.33608667
 20
913.534424227
 30
0.0
 11
1919.33608667
 21
948.5344206507
 31
0.0
  0
LINE
  5
69F
330
1F
100
AcDbEntity
  8
0
  6
CONTINUOUS
 62
     7
100
AcDbLine
 10
1919.33608667
 20
676.5344244952
 30
0.0
 11
1919.33608667
 21
641.5344243462
 31
0.0
  0
LINE
  5
6A0
330
1F
100
AcDbEntity
  8
0
  6
CONTINUOUS
 62
     7
100
AcDbLine
 10
1919.33608667
 20
845.534427982
 30
0.0
 11
1919.33608667
 21
880.5344318564
 31
0.0
  0
LINE
  5
6A1
330
1F
100
AcDbEntity
  8
0
  6
CONTINUOUS
 62
     7
100
AcDbLine
 10
1919.33608667
 20
709.534426179
 30
0.0
 11
1919.33608667
 21
744.534426328
 31
0.0
  0
LINE
  5
6A2
330
1F
100
AcDbEntity
  8
0
  6
CONTINUOUS
 62
     7
100
AcDbLine
 10
1919.33608667
 20
540.5344282801
 30
0.0
 11
1919.33608667
 21
505.5344318564
 31
0.0
  0
LINE
  5
6A3
330
1F
100
AcDbEntity
  8
0
  6
CONTINUOUS
 62
     7
100
AcDbLine
 10
1919.33608667
 20
777.5344280119
 30
0.0
 11
1919.33608667
 21
812.5344281609
 31
0.0
  0
LINE
  5
6A4
330
1F
100
AcDbEntity
  8
0
  6
CONTINUOUS
 62
     7
100
AcDbLine
 10
1919.33608667
 20
608.534424525
 30
0.0
 11
1919.33608667
 21
573.5344206507
 31
0.0
  0
LINE
  5
6A5
330
1F
100
AcDbEntity
  8
0
  6
CONTINUOUS
 62
     7
100
AcDbLine
 10
1477.3424775992
 20
1003.3148889954
 30
0.0
 11
1482.837146679
 21
997.8202348167
 31
0.0
  0
LINE
  5
6A6
330
1F
100
AcDbEntity
  8
0
  6
CONTINUOUS
 62
     7
100
AcDbLine
 10
1916.194519559
 20
1003.3148889954
 30
0.0
 11
1910.6998504792
 21
997.8202348167
 31
0.0
  0
LINE
  5
6A7
330
1F
100
AcDbEntity
  8
0
  6
CONTINUOUS
 62
     7
100
AcDbLine
 10
1916.194519559
 20
450.7539635117
 30
0.0
 11
1910.6998504792
 21
456.2486176903
 31
0.0
  0
LINE
  5
6A8
330
1F
100
AcDbEntity
  8
0
  6
CONTINUOUS
 62
     7
100
AcDbLine
 10
1477.3424775992
 20
450.7539635117
 30
0.0
 11
1482.837146679
 21
456.2486176903
 31
0.0
  0
LINE
  5
6A9
330
1F
100
AcDbEntity
  8
0
  6
CONTINUOUS
 62
     7
100
AcDbLine
 10
1475.1380296145
 20
1001.1104410107
 30
0.0
 11
1480.7709814702
 21
995.4774742539
 31
0.0
  0
LINE
  5
6AA
330
1F
100
AcDbEntity
  8
0
  6
CONTINUOUS
 62
     7
100
AcDbLine
 10
1475.1380296145
 20
452.9584114964
 30
0.0
 11
1480.7709814702
 21
458.5913782532
 31
0.0
  0
LINE
  5
6AB
330
1F
100
AcDbEntity
  8
0
  6
CONTINUOUS
 62
     7
100
AcDbLine
 10
1918.3989675437
 20
1001.1104410107
 30
0.0
 11
1912.766015688
 21
995.4774742539
 31
0.0
  0
LINE
  5
6AC
330
1F
100
AcDbEntity
  8
0
  6
CONTINUOUS
 62
     7
100
AcDbLine
 10
1918.3989675437
 20
452.9584114964
 30
0.0
 11
1912.766015688
 21
458.5913782532
 31
0.0
  0
LINE
  5
6AD
330
1F
100
AcDbEntity
  8
0
  6
CONTINUOUS
 62
     7
100
AcDbLine
 10
1487.4084057008
 20
994.9676161224
 30
0.0
 11
1487.0877923165
 21
994.9676161224
 31
0.0
  0
ARC
  5
6AE
330
1F
100
AcDbEntity
  8
0
  6
CONTINUOUS
 62
     7
100
AcDbCircle
 10
1484.7685092653
 20
994.0344660185
 30
0.0
 40
2.499968597468109
100
AcDbArc
 50
21.9171031051
 51
103.3646115103
  0
LINE
  5
6AF
330
1F
100
AcDbEntity
  8
0
  6
CONTINUOUS
 62
     7
100
AcDbLine
 10
1483.7877811585
 20
996.8696003372
 30
0.0
 11
1484.1906489526
 21
996.4667325432
 31
0.0
  0
LINE
  5
6B0
330
1F
100
AcDbEntity
  8
0
  6
CONTINUOUS
 62
     7
100
AcDbLine
 10
1906.4492048417
 20
459.1012363846
 30
0.0
 11
1906.1285914575
 21
459.1012363846
 31
0.0
  0
ARC
  5
6B1
330
1F
100
AcDbEntity
  8
0
  6
CONTINUOUS
 62
     7
100
AcDbCircle
 10
1908.7684878929
 20
460.0343864886
 30
0.0
 40
2.499968597467011
100
AcDbArc
 50
201.9171031051
 51
283.3646115103
  0
LINE
  5
6B2
330
1F
100
AcDbEntity
  8
0
  6
CONTINUOUS
 62
     7
100
AcDbLine
 10
1909.7492159997
 20
457.1992521698
 30
0.0
 11
1909.3463482057
 21
457.6021199638
 31
0.0
  0
LINE
  5
6B3
330
1F
100
AcDbEntity
  8
0
  6
CONTINUOUS
 62
     7
100
AcDbLine
 10
1483.7877811585
 20
457.1992521698
 30
0.0
 11
1484.1906489526
 21
457.6021199638
 31
0.0
  0
ARC
  5
6B4
330
1F
100
AcDbEntity
  8
0
  6
CONTINUOUS
 62
     7
100
AcDbCircle
 10
1484.7772788505
 20
460.017438675
 30
0.0
 40
2.485537992816058
100
AcDbArc
 50
256.3484049125
 51
338.369880472
  0
LINE
  5
6B5
330
1F
100
AcDbEntity
  8
0
  6
CONTINUOUS
 62
     7
100
AcDbLine
 10
1487.4084057008
 20
459.1012363846
 30
0.0
 11
1487.0877923165
 21
459.1012363846
 31
0.0
  0
LINE
  5
6B6
330
1F
100
AcDbEntity
  8
0
  6
CONTINUOUS
 62
     7
100
AcDbLine
 10
1909.7492159997
 20
996.8696003372
 30
0.0
 11
1909.3463482057
 21
996.4667325432
 31
0.0
  0
ARC
  5
6B7
330
1F
100
AcDbEntity
  8
0
  6
CONTINUOUS
 62
     7
100
AcDbCircle
 10
1908.7597183077
 20
994.051413832
 30
0.0
 40
2.485537992814964
100
AcDbArc
 50
76.3484049125
 51
158.369880472
  0
LINE
  5
6B8
330
1F
100
AcDbEntity
  8
0
  6
CONTINUOUS
 62
     7
100
AcDbLine
 10
1906.4492048417
 20
994.9676161224
 30
0.0
 11
1906.1285914575
 21
994.9676161224
 31
0.0
  0
ARC
  5
6B9
330
1F
100
AcDbEntity
  8
0
  6
CONTINUOUS
 62
     7
100
AcDbCircle
 10
1484.7685069394
 20
994.0344178041
 30
0.0
 40
2.500014968511062
100
AcDbArc
 50
103.364304235
 51
180.9440105141
  0
LINE
  5
6BA
330
1F
100
AcDbEntity
  8
0
  6
CONTINUOUS
 62
     7
100
AcDbLine
 10
1481.7975522672
 20
994.4509332592
 30
0.0
 11
1482.2689057981
 21
993.9932589943
 31
0.0
  0
LINE
  5
6BB
330
1F
100
AcDbEntity
  8
0
  6
CONTINUOUS
 62
     7
100
AcDbLine
 10
1481.7975522672
 20
459.6179192478
 30
0.0
 11
1482.2690995132
 21
460.089481395
 31
0.0
  0
ARC
  5
6BC
330
1F
100
AcDbEntity
  8
0
  6
CONTINUOUS
 62
     7
100
AcDbCircle
 10
1484.7685201911
 20
460.0344434884
 30
0.0
 40
2.500026579179595
100
AcDbArc
 50
178.7385355971
 51
256.6354468256
  0
LINE
  5
6BD
330
1F
100
AcDbEntity
  8
0
  6
CONTINUOUS
 62
     7
100
AcDbLine
 10
1911.7394448911
 20
994.4509332592
 30
0.0
 11
1911.2680913602
 21
993.9932589943
 31
0.0
  0
ARC
  5
6BE
330
1F
100
AcDbEntity
  8
0
  6
CONTINUOUS
 62
     7
100
AcDbCircle
 10
1908.7737500985
 20
994.0385802107
 30
0.0
 40
2.494752962179013
100
AcDbArc
 50
358.9590723769
 51
76.7311294004
  0
ARC
  5
6BF
330
1F
100
AcDbEntity
  8
0
  6
CONTINUOUS
 62
     7
100
AcDbCircle
 10
1908.7684769671
 20
460.0344434884
 30
0.0
 40
2.500026579179823
100
AcDbArc
 50
283.3645531744
 51
1.2614644029
  0
LINE
  5
6C0
330
1F
100
AcDbEntity
  8
0
  6
CONTINUOUS
 62
     7
100
AcDbLine
 10
1911.7394448911
 20
459.6179192478
 30
0.0
 11
1911.2678976451
 21
460.089481395
 31
0.0
  0
ARC
  5
6C1
330
1F
100
AcDbEntity
  8
0
  6
CONTINUOUS
 62
     7
100
AcDbCircle
 10
1484.5920701621
 20
462.1800631387
 30
0.0
 40
1.159334979215342
100
AcDbArc
 50
162.8116721058
 51
181.6104734501
  0
ARC
  5
6C2
330
1F
100
AcDbEntity
  8
0
  6
CONTINUOUS
 62
     7
100
AcDbCircle
 10
1484.7496376451
 20
460.0446121303
 30
0.0
 40
2.480943908019721
100
AcDbArc
 50
122.0475204686
 51
178.9637171345
  0
ARC
  5
6C3
330
1F
100
AcDbEntity
  8
0
  6
CONTINUOUS
 62
     7
100
AcDbCircle
 10
1908.9449269961
 20
991.8887893683
 30
0.0
 40
1.159334979226855
100
AcDbArc
 50
342.8116721059
 51
1.61047345
  0
ARC
  5
6C4
330
1F
100
AcDbEntity
  8
0
  6
CONTINUOUS
 62
     7
100
AcDbCircle
 10
1908.7876017437
 20
994.0240819743
 30
0.0
 40
2.480681114826456
100
AcDbArc
 50
302.0447196418
 51
359.2880696754
  0
ARC
  5
6C5
330
1F
100
AcDbEntity
  8
0
  6
CONTINUOUS
 62
     7
100
AcDbCircle
 10
1485.0066527697
 20
991.9798323848
 30
0.0
 40
1.582705205647443
100
AcDbArc
 50
181.9333011539
 51
195.9017089293
  0
ARC
  5
6C6
330
1F
100
AcDbEntity
  8
0
  6
CONTINUOUS
 62
     7
100
AcDbCircle
 10
1484.7685082517
 20
994.0344499548
 30
0.0
 40
2.500016810519159
100
AcDbArc
 50
180.9447467531
 51
237.4858431975
  0
ARC
  5
6C7
330
1F
100
AcDbEntity
  8
0
  6
CONTINUOUS
 62
     7
100
AcDbCircle
 10
1908.5303443885
 20
462.0890201222
 30
0.0
 40
1.582705205680068
100
AcDbArc
 50
1.9333011541
 51
15.9017089292
  0
ARC
  5
6C8
330
1F
100
AcDbEntity
  8
0
  6
CONTINUOUS
 62
     7
100
AcDbCircle
 10
1908.7685633339
 20
460.0344459875
 30
0.0
 40
2.499940178321591
100
AcDbArc
 50
1.2614507171
 51
57.4867465369
  0
ARC
  5
6C9
330
1F
100
AcDbEntity
  8
0
  6
CONTINUOUS
 62
     7
100
AcDbCircle
 10
1484.7684985791
 20
460.0344262535
 30
0.0
 40
2.800000000000057
100
AcDbArc
 50
340.5317755332
 51
117.2947604927
  0
ARC
  5
6CA
330
1F
100
AcDbEntity
  8
0
  6
CONTINUOUS
 62
     7
100
AcDbCircle
 10
1908.7684985791
 20
994.0344262535
 30
0.0
 40
2.800000000000057
100
AcDbArc
 50
160.5317755332
 51
297.2947604927
  0
ARC
  5
6CB
330
1F
100
AcDbEntity
  8
0
  6
CONTINUOUS
 62
     7
100
AcDbCircle
 10
1484.7684985791
 20
994.0344262535
 30
0.0
 40
2.800000000000057
100
AcDbArc
 50
242.7052395073
 51
19.4682244668
  0
ARC
  5
6CC
330
1F
100
AcDbEntity
  8
0
  6
CONTINUOUS
 62
     7
100
AcDbCircle
 10
1908.7684985791
 20
460.0344262535
 30
0.0
 40
2.800000000000057
100
AcDbArc
 50
62.7052395073
 51
199.4682244668
  0
ENDSEC
  0
SECTION
  2
OBJECTS
  0
DICTIONARY
  5
C
330
0
100
AcDbDictionary
  3
ACAD_GROUP
350
D
  3
ACAD_MLINESTYLE
350
17
  3
ACAD_SCALELIST
350
47
  0
DICTIONARY
  5
D
102
{ACAD_REACTORS
330
C
102
}
330
C
100
AcDbDictionary
  0
DICTIONARY
  5
17
102
{ACAD_REACTORS
330
C
102
}
330
C
100
AcDbDictionary
  3
STANDARD
350
18
  0
DICTIONARY
  5
47
102
{ACAD_REACTORS
330
C
102
}
330
C
100
AcDbDictionary
  0
MLINESTYLE
  5
18
102
{ACAD_REACTORS
330
17
102
}
330
17
100
AcDbMlineStyle
  2
Standard
 70
     0
  3

 62
   256
 51
90.0
 52
90.0
 71
     2
 49
0.5
 62
   256
  6
BYLAYER
 49
-0.5
 62
   256
  6
BYLAYER
  0
ENDSEC
  0
EOF
