  0
SECTION
  2
HEADER
  9
$ACADVER
  1
AC1014
  9
$ACADMAINTVER
 70
     9
  9
$DWGCODEPAGE
  3
ANSI_1252
  9
$INSBASE
 10
0.0
 20
0.0
 30
0.0
  9
$EXTMIN
 10
0.0
 20
0.0
 30
0.0
  9
$EXTMAX
 10
2100.0
 20
1485.0
 30
0.0
  9
$LIMMIN
 10
0.0
 20
0.0
  9
$LIMMAX
 10
2100.0
 20
1485.0
  9
$ORTHOMODE
 70
     0
  9
$REGENMODE
 70
     1
  9
$FILLMODE
 70
     1
  9
$QTEXTMODE
 70
     0
  9
$MIRRTEXT
 70
     1
  9
$DRAGMODE
 70
     2
  9
$LTSCALE
 40
5.0
  9
$OSMODE
 70
    37
  9
$ATTMODE
 70
     1
  9
$TEXTSIZE
 40
17.5
  9
$TRACEWID
 40
1.0
  9
$TEXTSTYLE
  7
STANDARD
  9
$CLAYER
  8
0
  9
$CELTYPE
  6
BYLAYER
  9
$CECOLOR
 62
   256
  9
$CELTSCALE
 40
1.0
  9
$DELOBJ
 70
     1
  9
$DISPSILH
 70
     0
  9
$DIMSCALE
 40
1.0
  9
$DIMASZ
 40
30.0
  9
$DIMEXO
 40
5.0
  9
$DIMDLI
 40
3.75
  9
$DIMRND
 40
0.0
  9
$DIMDLE
 40
0.0
  9
$DIMEXE
 40
5.0
  9
$DIMTP
 40
0.0
  9
$DIMTM
 40
0.0
  9
$DIMTXT
 40
17.5
  9
$DIMCEN
 40
2.5
  9
$DIMTSZ
 40
0.0
  9
$DIMTOL
 70
     0
  9
$DIMLIM
 70
     0
  9
$DIMTIH
 70
     1
  9
$DIMTOH
 70
     1
  9
$DIMSE1
 70
     0
  9
$DIMSE2
 70
     0
  9
$DIMTAD
 70
     1
  9
$DIMZIN
 70
     0
  9
$DIMBLK
  1

  9
$DIMASO
 70
     1
  9
$DIMSHO
 70
     1
  9
$DIMPOST
  1

  9
$DIMAPOST
  1

  9
$DIMALT
 70
     0
  9
$DIMALTD
 70
     3
  9
$DIMALTF
 40
0.0393700787
  9
$DIMLFAC
 40
1.0
  9
$DIMTOFL
 70
     1
  9
$DIMTVP
 40
0.0
  9
$DIMTIX
 70
     0
  9
$DIMSOXD
 70
     0
  9
$DIMSAH
 70
     0
  9
$DIMBLK1
  1

  9
$DIMBLK2
  1

  9
$DIMSTYLE
  2
ISO-25
  9
$DIMCLRD
 70
     0
  9
$DIMCLRE
 70
     0
  9
$DIMCLRT
 70
     0
  9
$DIMTFAC
 40
1.0
  9
$DIMGAP
 40
7.62
  9
$DIMJUST
 70
     0
  9
$DIMSD1
 70
     0
  9
$DIMSD2
 70
     0
  9
$DIMTOLJ
 70
     0
  9
$DIMTZIN
 70
     0
  9
$DIMALTZ
 70
     0
  9
$DIMALTTZ
 70
     0
  9
$DIMFIT
 70
     3
  9
$DIMUPT
 70
     0
  9
$DIMUNIT
 70
     2
  9
$DIMDEC
 70
     2
  9
$DIMTDEC
 70
     2
  9
$DIMALTU
 70
     2
  9
$DIMALTTD
 70
     3
  9
$DIMTXSTY
  7
STANDARD
  9
$DIMAUNIT
 70
     0
  9
$LUNITS
 70
     2
  9
$LUPREC
 70
     2
  9
$SKETCHINC
 40
1.0
  9
$FILLETRAD
 40
10.0
  9
$AUNITS
 70
     0
  9
$AUPREC
 70
     2
  9
$MENU
  1
.
  9
$ELEVATION
 40
0.0
  9
$PELEVATION
 40
0.0
  9
$THICKNESS
 40
0.0
  9
$LIMCHECK
 70
     0
  9
$CHAMFERA
 40
10.0
  9
$CHAMFERB
 40
10.0
  9
$CHAMFERC
 40
20.0
  9
$CHAMFERD
 40
0.0
  9
$SKPOLY
 70
     0
  9
$TDCREATE
 40
2455586.548868982
  9
$TDUPDATE
 40
2455586.548868993
  9
$TDINDWG
 40
0.0000000116
  9
$TDUSRTIMER
 40
0.0000000116
  9
$USRTIMER
 70
     1
  9
$ANGBASE
 50
0.0
  9
$ANGDIR
 70
     0
  9
$PDMODE
 70
     0
  9
$PDSIZE
 40
-1.0
  9
$PLINEWID
 40
0.0
  9
$COORDS
 70
     1
  9
$SPLFRAME
 70
     0
  9
$SPLINETYPE
 70
     6
  9
$SPLINESEGS
 70
     8
  9
$ATTDIA
 70
     0
  9
$ATTREQ
 70
     1
  9
$HANDLING
 70
     1
  9
$HANDSEED
  5
5CA
  9
$SURFTAB1
 70
     6
  9
$SURFTAB2
 70
     6
  9
$SURFTYPE
 70
     6
  9
$SURFU
 70
     6
  9
$SURFV
 70
     6
  9
$UCSNAME
  2

  9
$UCSORG
 10
0.0
 20
0.0
 30
0.0
  9
$UCSXDIR
 10
1.0
 20
0.0
 30
0.0
  9
$UCSYDIR
 10
0.0
 20
1.0
 30
0.0
  9
$PUCSNAME
  2

  9
$PUCSORG
 10
0.0
 20
0.0
 30
0.0
  9
$PUCSXDIR
 10
1.0
 20
0.0
 30
0.0
  9
$PUCSYDIR
 10
0.0
 20
1.0
 30
0.0
  9
$USERI1
 70
     0
  9
$USERI2
 70
     0
  9
$USERI3
 70
     0
  9
$USERI4
 70
     0
  9
$USERI5
 70
     0
  9
$USERR1
 40
0.0
  9
$USERR2
 40
0.0
  9
$USERR3
 40
0.0
  9
$USERR4
 40
0.0
  9
$USERR5
 40
0.0
  9
$WORLDVIEW
 70
     1
  9
$SHADEDGE
 70
     3
  9
$SHADEDIF
 70
    70
  9
$TILEMODE
 70
     1
  9
$MAXACTVP
 70
    64
  9
$PINSBASE
 10
0.0
 20
0.0
 30
0.0
  9
$PLIMCHECK
 70
     0
  9
$PEXTMIN
 10
1.0000000000E+20
 20
1.0000000000E+20
 30
1.0000000000E+20
  9
$PEXTMAX
 10
-1.0000000000E+20
 20
-1.0000000000E+20
 30
-1.0000000000E+20
  9
$PLIMMIN
 10
0.0
 20
0.0
  9
$PLIMMAX
 10
420.0
 20
297.0
  9
$UNITMODE
 70
     0
  9
$VISRETAIN
 70
     1
  9
$PLINEGEN
 70
     0
  9
$PSLTSCALE
 70
     1
  9
$TREEDEPTH
 70
  3020
  9
$PICKSTYLE
 70
     1
  9
$CMLSTYLE
  2
STANDARD
  9
$CMLJUST
 70
     0
  9
$CMLSCALE
 40
20.0
  9
$PROXYGRAPHICS
 70
     1
  9
$MEASUREMENT
 70
     1
  0
ENDSEC
  0
SECTION
  2
CLASSES
  0
CLASS
  1
ACDBDICTIONARYWDFLT
  2
AcDbDictionaryWithDefault
  3
ObjectDBX Classes
 90
        0
280
     0
281
     0
  0
CLASS
  1
VISUALSTYLE
  2
AcDbVisualStyle
  3
ObjectDBX Classes
 90
     4095
280
     0
281
     0
  0
CLASS
  1
MATERIAL
  2
AcDbMaterial
  3
ObjectDBX Classes
 90
     1153
280
     0
281
     0
  0
CLASS
  1
XRECORD
  2
AcDbXrecord
  3
AutoCAD 2000
 90
        0
280
     0
281
     0
  0
CLASS
  1
LWPOLYLINE
  2
AcDbPolyline
  3
AutoCAD 2000
 90
        0
280
     0
281
     1
  0
CLASS
  1
HATCH
  2
AcDbHatch
  3
AutoCAD 2000
 90
        0
280
     0
281
     1
  0
ENDSEC
  0
SECTION
  2
TABLES
  0
TABLE
  2
VPORT
  5
8
330
0
100
AcDbSymbolTable
 70
     1
  0
VPORT
  5
29
330
8
100
AcDbSymbolTableRecord
100
AcDbViewportTableRecord
  2
*ACTIVE
 70
     0
 10
0.0
 20
0.0
 11
1.0
 21
1.0
 12
1050.0
 22
742.5
 13
0.0
 23
0.0
 14
10.0
 24
10.0
 15
10.0
 25
10.0
 16
0.0
 26
0.0
 36
1.0
 17
0.0
 27
0.0
 37
0.0
 40
1485.0
 41
1.4141414141
 42
50.0
 43
0.0
 44
0.0
 50
0.0
 51
0.0
 71
     0
 72
  2000
 73
     1
 74
     3
 75
     0
 76
     0
 77
     0
 78
     0
  0
ENDTAB
  0
TABLE
  2
LTYPE
  5
5
330
0
100
AcDbSymbolTable
 70
     6
  0
LTYPE
  5
14
330
5
100
AcDbSymbolTableRecord
100
AcDbLinetypeTableRecord
  2
BYBLOCK
 70
     0
  3

 72
    65
 73
     0
 40
0.0
  0
LTYPE
  5
15
330
5
100
AcDbSymbolTableRecord
100
AcDbLinetypeTableRecord
  2
BYLAYER
 70
     0
  3

 72
    65
 73
     0
 40
0.0
  0
LTYPE
  5
16
330
5
100
AcDbSymbolTableRecord
100
AcDbLinetypeTableRecord
  2
CONTINUOUS
 70
     0
  3
Solid line
 72
    65
 73
     0
 40
0.0
  0
LTYPE
  5
3F
330
5
100
AcDbSymbolTableRecord
100
AcDbLinetypeTableRecord
  2
HIDDEN
 70
     0
  3
Hidden __ __ __ __ __ __ __ __ __ __ __ __ __ __
 72
    65
 73
     2
 40
1.905
 49
1.27
 74
     0
 49
-0.635
 74
     0
  0
LTYPE
  5
40
330
5
100
AcDbSymbolTableRecord
100
AcDbLinetypeTableRecord
  2
PHANTOM
 70
     0
  3
Phantom ______  __  __  ______  __  __  ______
 72
    65
 73
     6
 40
12.7
 49
6.35
 74
     0
 49
-1.27
 74
     0
 49
1.27
 74
     0
 49
-1.27
 74
     0
 49
1.27
 74
     0
 49
-1.27
 74
     0
  0
LTYPE
  5
41
330
5
100
AcDbSymbolTableRecord
100
AcDbLinetypeTableRecord
  2
CENTER
 70
     0
  3
Center ____ _ ____ _ ____ _ ____ _ ____ _ ____
 72
    65
 73
     4
 40
10.16
 49
6.35
 74
     0
 49
-1.27
 74
     0
 49
1.27
 74
     0
 49
-1.27
 74
     0
  0
LTYPE
  5
42
330
5
100
AcDbSymbolTableRecord
100
AcDbLinetypeTableRecord
  2
CENTERX2
 70
     0
  3
Center (2x) ________  __  ________  __  _____
 72
    65
 73
     4
 40
20.32
 49
12.7
 74
     0
 49
-2.54
 74
     0
 49
2.54
 74
     0
 49
-2.54
 74
     0
  0
LTYPE
  5
43
330
5
100
AcDbSymbolTableRecord
100
AcDbLinetypeTableRecord
  2
DOT2
 70
     0
  3
Dot (.5x) ........................................
 72
    65
 73
     2
 40
0.635
 49
0.0
 74
     0
 49
-0.635
 74
     0
  0
ENDTAB
  0
TABLE
  2
LAYER
  5
2
330
0
100
AcDbSymbolTable
 70
     1
  0
LAYER
  5
10
330
2
100
AcDbSymbolTableRecord
100
AcDbLayerTableRecord
  2
0
 70
     0
 62
     7
  6
CONTINUOUS
  0
ENDTAB
  0
TABLE
  2
STYLE
  5
3
330
0
100
AcDbSymbolTable
 70
     2
  0
STYLE
  5
11
330
3
100
AcDbSymbolTableRecord
100
AcDbTextStyleTableRecord
  2
STANDARD
 70
     0
 40
0.0
 41
1.0
 50
0.0
 71
     0
 42
2.5
  3
txt
  4

  0
STYLE
  5
44
330
3
100
AcDbSymbolTableRecord
100
AcDbTextStyleTableRecord
  2
SLDTEXTSTYLE0
 70
     0
 40
0.0
 41
0.75
 50
0.0
 71
     0
 42
0.2
  3
TXT
  4

  0
ENDTAB
  0
TABLE
  2
VIEW
  5
6
330
0
100
AcDbSymbolTable
 70
     0
  0
ENDTAB
  0
TABLE
  2
UCS
  5
7
330
0
100
AcDbSymbolTable
 70
     0
  0
ENDTAB
  0
TABLE
  2
APPID
  5
9
330
0
100
AcDbSymbolTable
 70
     1
  0
APPID
  5
12
330
9
100
AcDbSymbolTableRecord
100
AcDbRegAppTableRecord
  2
ACAD
 70
     0
  0
ENDTAB
  0
TABLE
  2
DIMSTYLE
  5
A
330
0
100
AcDbSymbolTable
 70
     1
  0
DIMSTYLE
105
27
330
A
100
AcDbSymbolTableRecord
100
AcDbDimStyleTableRecord
  2
ISO-25
 70
     0
  3

  4

  5

  6

  7

 40
1.0
 41
2.5
 42
0.625
 43
3.75
 44
1.25
 45
0.0
 46
0.0
 47
0.0
 48
0.0
140
2.5
141
2.5
142
0.0
143
0.0393700787
144
1.0
145
0.0
146
1.0
147
0.625
 71
     0
 72
     0
 73
     0
 74
     0
 75
     0
 76
     0
 77
     1
 78
     8
170
     0
171
     3
172
     1
173
     0
174
     0
175
     0
176
     0
177
     0
178
     0
270
     2
271
     2
272
     2
273
     2
274
     3
340
11
275
     0
280
     0
281
     0
282
     0
283
     0
284
     8
285
     0
286
     0
287
     3
288
     0
  0
ENDTAB
  0
TABLE
  2
BLOCK_RECORD
  5
1
330
0
100
AcDbSymbolTable
 70
    19
  0
BLOCK_RECORD
  5
1F
330
1
100
AcDbSymbolTableRecord
100
AcDbBlockTableRecord
  2
*MODEL_SPACE
  0
BLOCK_RECORD
  5
1B
330
1
100
AcDbSymbolTableRecord
100
AcDbBlockTableRecord
  2
*PAPER_SPACE
  0
BLOCK_RECORD
  5
23
330
1
100
AcDbSymbolTableRecord
100
AcDbBlockTableRecord
  2
*PAPER_SPACE0
  0
BLOCK_RECORD
  5
258
330
1
100
AcDbSymbolTableRecord
100
AcDbBlockTableRecord
  2
SW_CENTERMARKSYMBOL_0
  0
BLOCK_RECORD
  5
264
330
1
100
AcDbSymbolTableRecord
100
AcDbBlockTableRecord
  2
SW_CENTERMARKSYMBOL_1
  0
BLOCK_RECORD
  5
270
330
1
100
AcDbSymbolTableRecord
100
AcDbBlockTableRecord
  2
SW_CENTERMARKSYMBOL_2
  0
BLOCK_RECORD
  5
27C
330
1
100
AcDbSymbolTableRecord
100
AcDbBlockTableRecord
  2
SW_CENTERMARKSYMBOL_3
  0
BLOCK_RECORD
  5
288
330
1
100
AcDbSymbolTableRecord
100
AcDbBlockTableRecord
  2
SW_CENTERMARKSYMBOL_4
  0
BLOCK_RECORD
  5
294
330
1
100
AcDbSymbolTableRecord
100
AcDbBlockTableRecord
  2
SW_CENTERMARKSYMBOL_5
  0
BLOCK_RECORD
  5
2A0
330
1
100
AcDbSymbolTableRecord
100
AcDbBlockTableRecord
  2
SW_CENTERMARKSYMBOL_6
  0
BLOCK_RECORD
  5
2AC
330
1
100
AcDbSymbolTableRecord
100
AcDbBlockTableRecord
  2
SW_CENTERMARKSYMBOL_7
  0
BLOCK_RECORD
  5
3CC
330
1
100
AcDbSymbolTableRecord
100
AcDbBlockTableRecord
  2
SW_CENTERMARKSYMBOL_8
  0
BLOCK_RECORD
  5
42F
330
1
100
AcDbSymbolTableRecord
100
AcDbBlockTableRecord
  2
SW_CENTERMARKSYMBOL_9
  0
BLOCK_RECORD
  5
56A
330
1
100
AcDbSymbolTableRecord
100
AcDbBlockTableRecord
  2
SW_CENTERMARKSYMBOL_10
  0
BLOCK_RECORD
  5
576
330
1
100
AcDbSymbolTableRecord
100
AcDbBlockTableRecord
  2
SW_CENTERMARKSYMBOL_11
  0
BLOCK_RECORD
  5
582
330
1
100
AcDbSymbolTableRecord
100
AcDbBlockTableRecord
  2
SW_CENTERMARKSYMBOL_12
  0
BLOCK_RECORD
  5
58E
330
1
100
AcDbSymbolTableRecord
100
AcDbBlockTableRecord
  2
SW_CENTERMARKSYMBOL_13
  0
BLOCK_RECORD
  5
59A
330
1
100
AcDbSymbolTableRecord
100
AcDbBlockTableRecord
  2
SW_CENTERMARKSYMBOL_14
  0
BLOCK_RECORD
  5
5A6
330
1
100
AcDbSymbolTableRecord
100
AcDbBlockTableRecord
  2
SW_CENTERMARKSYMBOL_15
  0
BLOCK_RECORD
  5
5B2
330
1
100
AcDbSymbolTableRecord
100
AcDbBlockTableRecord
  2
SW_CENTERMARKSYMBOL_16
  0
BLOCK_RECORD
  5
5BE
330
1
100
AcDbSymbolTableRecord
100
AcDbBlockTableRecord
  2
SW_CENTERMARKSYMBOL_17
  0
ENDTAB
  0
ENDSEC
  0
SECTION
  2
BLOCKS
  0
BLOCK
  5
20
330
1F
100
AcDbEntity
  8
0
100
AcDbBlockBegin
  2
*MODEL_SPACE
 70
     0
 10
0.0
 20
0.0
 30
0.0
  3
*MODEL_SPACE
  1

  0
ENDBLK
  5
21
330
1F
100
AcDbEntity
  8
0
100
AcDbBlockEnd
  0
BLOCK
  5
1C
330
1B
100
AcDbEntity
 67
     1
  8
0
100
AcDbBlockBegin
  2
*PAPER_SPACE
 70
     0
 10
0.0
 20
0.0
 30
0.0
  3
*PAPER_SPACE
  1

  0
ENDBLK
  5
1D
330
1B
100
AcDbEntity
 67
     1
  8
0
100
AcDbBlockEnd
  0
BLOCK
  5
24
330
23
100
AcDbEntity
  8
0
100
AcDbBlockBegin
  2
*PAPER_SPACE0
 70
     0
 10
0.0
 20
0.0
 30
0.0
  3
*PAPER_SPACE0
  1

  0
ENDBLK
  5
25
330
23
100
AcDbEntity
  8
0
100
AcDbBlockEnd
  0
BLOCK
  5
259
330
258
100
AcDbEntity
  8
0
100
AcDbBlockBegin
  2
SW_CENTERMARKSYMBOL_0
 70
     0
 10
0.0
 20
0.0
 30
0.0
  3
SW_CENTERMARKSYMBOL_0
  1

  0
LINE
  5
25B
330
258
100
AcDbEntity
  8
0
  6
CONTINUOUS
 62
     0
100
AcDbLine
 10
0.0
 20
0.0
 30
0.0
 11
0.0
 21
2.5
 31
0.0
  0
LINE
  5
25C
330
258
100
AcDbEntity
  8
0
  6
CONTINUOUS
 62
     0
100
AcDbLine
 10
0.0
 20
0.0
 30
0.0
 11
-2.5
 21
0.0
 31
0.0
  0
LINE
  5
25D
330
258
100
AcDbEntity
  8
0
  6
CONTINUOUS
 62
     0
100
AcDbLine
 10
0.0
 20
0.0
 30
0.0
 11
0.0
 21
-2.5
 31
0.0
  0
LINE
  5
25E
330
258
100
AcDbEntity
  8
0
  6
CONTINUOUS
 62
     0
100
AcDbLine
 10
0.0
 20
0.0
 30
0.0
 11
2.5
 21
0.0
 31
0.0
  0
LINE
  5
25F
330
258
100
AcDbEntity
  8
0
  6
CONTINUOUS
 62
     0
100
AcDbLine
 10
0.0
 20
5.0
 30
0.0
 11
0.0
 21
6.0
 31
0.0
  0
LINE
  5
260
330
258
100
AcDbEntity
  8
0
  6
CONTINUOUS
 62
     0
100
AcDbLine
 10
-5.0
 20
0.0
 30
0.0
 11
-6.0
 21
0.0
 31
0.0
  0
LINE
  5
261
330
258
100
AcDbEntity
  8
0
  6
CONTINUOUS
 62
     0
100
AcDbLine
 10
0.0
 20
-5.0
 30
0.0
 11
0.0
 21
-6.0
 31
0.0
  0
LINE
  5
262
330
258
100
AcDbEntity
  8
0
  6
CONTINUOUS
 62
     0
100
AcDbLine
 10
5.0
 20
0.0
 30
0.0
 11
6.0
 21
0.0
 31
0.0
  0
ENDBLK
  5
25A
330
258
100
AcDbEntity
  8
0
100
AcDbBlockEnd
  0
BLOCK
  5
265
330
264
100
AcDbEntity
  8
0
100
AcDbBlockBegin
  2
SW_CENTERMARKSYMBOL_1
 70
     0
 10
0.0
 20
0.0
 30
0.0
  3
SW_CENTERMARKSYMBOL_1
  1

  0
LINE
  5
267
330
264
100
AcDbEntity
  8
0
  6
CONTINUOUS
 62
     0
100
AcDbLine
 10
0.0
 20
0.0
 30
0.0
 11
0.0
 21
2.5
 31
0.0
  0
LINE
  5
268
330
264
100
AcDbEntity
  8
0
  6
CONTINUOUS
 62
     0
100
AcDbLine
 10
0.0
 20
0.0
 30
0.0
 11
-2.5
 21
0.0
 31
0.0
  0
LINE
  5
269
330
264
100
AcDbEntity
  8
0
  6
CONTINUOUS
 62
     0
100
AcDbLine
 10
0.0
 20
0.0
 30
0.0
 11
0.0
 21
-2.5
 31
0.0
  0
LINE
  5
26A
330
264
100
AcDbEntity
  8
0
  6
CONTINUOUS
 62
     0
100
AcDbLine
 10
0.0
 20
0.0
 30
0.0
 11
2.5
 21
0.0
 31
0.0
  0
LINE
  5
26B
330
264
100
AcDbEntity
  8
0
  6
CONTINUOUS
 62
     0
100
AcDbLine
 10
0.0
 20
5.0
 30
0.0
 11
0.0
 21
6.0
 31
0.0
  0
LINE
  5
26C
330
264
100
AcDbEntity
  8
0
  6
CONTINUOUS
 62
     0
100
AcDbLine
 10
-5.0
 20
0.0
 30
0.0
 11
-6.0
 21
0.0
 31
0.0
  0
LINE
  5
26D
330
264
100
AcDbEntity
  8
0
  6
CONTINUOUS
 62
     0
100
AcDbLine
 10
0.0
 20
-5.0
 30
0.0
 11
0.0
 21
-6.0
 31
0.0
  0
LINE
  5
26E
330
264
100
AcDbEntity
  8
0
  6
CONTINUOUS
 62
     0
100
AcDbLine
 10
5.0
 20
0.0
 30
0.0
 11
6.0
 21
0.0
 31
0.0
  0
ENDBLK
  5
266
330
264
100
AcDbEntity
  8
0
100
AcDbBlockEnd
  0
BLOCK
  5
271
330
270
100
AcDbEntity
  8
0
100
AcDbBlockBegin
  2
SW_CENTERMARKSYMBOL_2
 70
     0
 10
0.0
 20
0.0
 30
0.0
  3
SW_CENTERMARKSYMBOL_2
  1

  0
LINE
  5
273
330
270
100
AcDbEntity
  8
0
  6
CONTINUOUS
 62
     0
100
AcDbLine
 10
0.0
 20
0.0
 30
0.0
 11
0.0
 21
2.5
 31
0.0
  0
LINE
  5
274
330
270
100
AcDbEntity
  8
0
  6
CONTINUOUS
 62
     0
100
AcDbLine
 10
0.0
 20
0.0
 30
0.0
 11
-2.5
 21
0.0
 31
0.0
  0
LINE
  5
275
330
270
100
AcDbEntity
  8
0
  6
CONTINUOUS
 62
     0
100
AcDbLine
 10
0.0
 20
0.0
 30
0.0
 11
0.0
 21
-2.5
 31
0.0
  0
LINE
  5
276
330
270
100
AcDbEntity
  8
0
  6
CONTINUOUS
 62
     0
100
AcDbLine
 10
0.0
 20
0.0
 30
0.0
 11
2.5
 21
0.0
 31
0.0
  0
LINE
  5
277
330
270
100
AcDbEntity
  8
0
  6
CONTINUOUS
 62
     0
100
AcDbLine
 10
0.0
 20
5.0
 30
0.0
 11
0.0
 21
6.0
 31
0.0
  0
LINE
  5
278
330
270
100
AcDbEntity
  8
0
  6
CONTINUOUS
 62
     0
100
AcDbLine
 10
-5.0
 20
0.0
 30
0.0
 11
-6.0
 21
0.0
 31
0.0
  0
LINE
  5
279
330
270
100
AcDbEntity
  8
0
  6
CONTINUOUS
 62
     0
100
AcDbLine
 10
0.0
 20
-5.0
 30
0.0
 11
0.0
 21
-6.0
 31
0.0
  0
LINE
  5
27A
330
270
100
AcDbEntity
  8
0
  6
CONTINUOUS
 62
     0
100
AcDbLine
 10
5.0
 20
0.0
 30
0.0
 11
6.0
 21
0.0
 31
0.0
  0
ENDBLK
  5
272
330
270
100
AcDbEntity
  8
0
100
AcDbBlockEnd
  0
BLOCK
  5
27D
330
27C
100
AcDbEntity
  8
0
100
AcDbBlockBegin
  2
SW_CENTERMARKSYMBOL_3
 70
     0
 10
0.0
 20
0.0
 30
0.0
  3
SW_CENTERMARKSYMBOL_3
  1

  0
LINE
  5
27F
330
27C
100
AcDbEntity
  8
0
  6
CONTINUOUS
 62
     0
100
AcDbLine
 10
0.0
 20
0.0
 30
0.0
 11
0.0
 21
2.5
 31
0.0
  0
LINE
  5
280
330
27C
100
AcDbEntity
  8
0
  6
CONTINUOUS
 62
     0
100
AcDbLine
 10
0.0
 20
0.0
 30
0.0
 11
-2.5
 21
0.0
 31
0.0
  0
LINE
  5
281
330
27C
100
AcDbEntity
  8
0
  6
CONTINUOUS
 62
     0
100
AcDbLine
 10
0.0
 20
0.0
 30
0.0
 11
0.0
 21
-2.5
 31
0.0
  0
LINE
  5
282
330
27C
100
AcDbEntity
  8
0
  6
CONTINUOUS
 62
     0
100
AcDbLine
 10
0.0
 20
0.0
 30
0.0
 11
2.5
 21
0.0
 31
0.0
  0
LINE
  5
283
330
27C
100
AcDbEntity
  8
0
  6
CONTINUOUS
 62
     0
100
AcDbLine
 10
0.0
 20
5.0
 30
0.0
 11
0.0
 21
6.0
 31
0.0
  0
LINE
  5
284
330
27C
100
AcDbEntity
  8
0
  6
CONTINUOUS
 62
     0
100
AcDbLine
 10
-5.0
 20
0.0
 30
0.0
 11
-6.0
 21
0.0
 31
0.0
  0
LINE
  5
285
330
27C
100
AcDbEntity
  8
0
  6
CONTINUOUS
 62
     0
100
AcDbLine
 10
0.0
 20
-5.0
 30
0.0
 11
0.0
 21
-6.0
 31
0.0
  0
LINE
  5
286
330
27C
100
AcDbEntity
  8
0
  6
CONTINUOUS
 62
     0
100
AcDbLine
 10
5.0
 20
0.0
 30
0.0
 11
6.0
 21
0.0
 31
0.0
  0
ENDBLK
  5
27E
330
27C
100
AcDbEntity
  8
0
100
AcDbBlockEnd
  0
BLOCK
  5
289
330
288
100
AcDbEntity
  8
0
100
AcDbBlockBegin
  2
SW_CENTERMARKSYMBOL_4
 70
     0
 10
0.0
 20
0.0
 30
0.0
  3
SW_CENTERMARKSYMBOL_4
  1

  0
LINE
  5
28B
330
288
100
AcDbEntity
  8
0
  6
CONTINUOUS
 62
     0
100
AcDbLine
 10
0.0
 20
0.0
 30
0.0
 11
0.0
 21
2.5
 31
0.0
  0
LINE
  5
28C
330
288
100
AcDbEntity
  8
0
  6
CONTINUOUS
 62
     0
100
AcDbLine
 10
0.0
 20
0.0
 30
0.0
 11
-2.5
 21
0.0
 31
0.0
  0
LINE
  5
28D
330
288
100
AcDbEntity
  8
0
  6
CONTINUOUS
 62
     0
100
AcDbLine
 10
0.0
 20
0.0
 30
0.0
 11
0.0
 21
-2.5
 31
0.0
  0
LINE
  5
28E
330
288
100
AcDbEntity
  8
0
  6
CONTINUOUS
 62
     0
100
AcDbLine
 10
0.0
 20
0.0
 30
0.0
 11
2.5
 21
0.0
 31
0.0
  0
LINE
  5
28F
330
288
100
AcDbEntity
  8
0
  6
CONTINUOUS
 62
     0
100
AcDbLine
 10
0.0
 20
5.0
 30
0.0
 11
0.0
 21
6.0
 31
0.0
  0
LINE
  5
290
330
288
100
AcDbEntity
  8
0
  6
CONTINUOUS
 62
     0
100
AcDbLine
 10
-5.0
 20
0.0
 30
0.0
 11
-6.0
 21
0.0
 31
0.0
  0
LINE
  5
291
330
288
100
AcDbEntity
  8
0
  6
CONTINUOUS
 62
     0
100
AcDbLine
 10
0.0
 20
-5.0
 30
0.0
 11
0.0
 21
-6.0
 31
0.0
  0
LINE
  5
292
330
288
100
AcDbEntity
  8
0
  6
CONTINUOUS
 62
     0
100
AcDbLine
 10
5.0
 20
0.0
 30
0.0
 11
6.0
 21
0.0
 31
0.0
  0
ENDBLK
  5
28A
330
288
100
AcDbEntity
  8
0
100
AcDbBlockEnd
  0
BLOCK
  5
295
330
294
100
AcDbEntity
  8
0
100
AcDbBlockBegin
  2
SW_CENTERMARKSYMBOL_5
 70
     0
 10
0.0
 20
0.0
 30
0.0
  3
SW_CENTERMARKSYMBOL_5
  1

  0
LINE
  5
297
330
294
100
AcDbEntity
  8
0
  6
CONTINUOUS
 62
     0
100
AcDbLine
 10
0.0
 20
0.0
 30
0.0
 11
0.0
 21
2.5
 31
0.0
  0
LINE
  5
298
330
294
100
AcDbEntity
  8
0
  6
CONTINUOUS
 62
     0
100
AcDbLine
 10
0.0
 20
0.0
 30
0.0
 11
-2.5
 21
0.0
 31
0.0
  0
LINE
  5
299
330
294
100
AcDbEntity
  8
0
  6
CONTINUOUS
 62
     0
100
AcDbLine
 10
0.0
 20
0.0
 30
0.0
 11
0.0
 21
-2.5
 31
0.0
  0
LINE
  5
29A
330
294
100
AcDbEntity
  8
0
  6
CONTINUOUS
 62
     0
100
AcDbLine
 10
0.0
 20
0.0
 30
0.0
 11
2.5
 21
0.0
 31
0.0
  0
LINE
  5
29B
330
294
100
AcDbEntity
  8
0
  6
CONTINUOUS
 62
     0
100
AcDbLine
 10
0.0
 20
5.0
 30
0.0
 11
0.0
 21
6.0
 31
0.0
  0
LINE
  5
29C
330
294
100
AcDbEntity
  8
0
  6
CONTINUOUS
 62
     0
100
AcDbLine
 10
-5.0
 20
0.0
 30
0.0
 11
-6.0
 21
0.0
 31
0.0
  0
LINE
  5
29D
330
294
100
AcDbEntity
  8
0
  6
CONTINUOUS
 62
     0
100
AcDbLine
 10
0.0
 20
-5.0
 30
0.0
 11
0.0
 21
-6.0
 31
0.0
  0
LINE
  5
29E
330
294
100
AcDbEntity
  8
0
  6
CONTINUOUS
 62
     0
100
AcDbLine
 10
5.0
 20
0.0
 30
0.0
 11
6.0
 21
0.0
 31
0.0
  0
ENDBLK
  5
296
330
294
100
AcDbEntity
  8
0
100
AcDbBlockEnd
  0
BLOCK
  5
2A1
330
2A0
100
AcDbEntity
  8
0
100
AcDbBlockBegin
  2
SW_CENTERMARKSYMBOL_6
 70
     0
 10
0.0
 20
0.0
 30
0.0
  3
SW_CENTERMARKSYMBOL_6
  1

  0
LINE
  5
2A3
330
2A0
100
AcDbEntity
  8
0
  6
CONTINUOUS
 62
     0
100
AcDbLine
 10
0.0
 20
0.0
 30
0.0
 11
0.0
 21
2.5
 31
0.0
  0
LINE
  5
2A4
330
2A0
100
AcDbEntity
  8
0
  6
CONTINUOUS
 62
     0
100
AcDbLine
 10
0.0
 20
0.0
 30
0.0
 11
-2.5
 21
0.0
 31
0.0
  0
LINE
  5
2A5
330
2A0
100
AcDbEntity
  8
0
  6
CONTINUOUS
 62
     0
100
AcDbLine
 10
0.0
 20
0.0
 30
0.0
 11
0.0
 21
-2.5
 31
0.0
  0
LINE
  5
2A6
330
2A0
100
AcDbEntity
  8
0
  6
CONTINUOUS
 62
     0
100
AcDbLine
 10
0.0
 20
0.0
 30
0.0
 11
2.5
 21
0.0
 31
0.0
  0
LINE
  5
2A7
330
2A0
100
AcDbEntity
  8
0
  6
CONTINUOUS
 62
     0
100
AcDbLine
 10
0.0
 20
5.0
 30
0.0
 11
0.0
 21
6.0
 31
0.0
  0
LINE
  5
2A8
330
2A0
100
AcDbEntity
  8
0
  6
CONTINUOUS
 62
     0
100
AcDbLine
 10
-5.0
 20
0.0
 30
0.0
 11
-6.0
 21
0.0
 31
0.0
  0
LINE
  5
2A9
330
2A0
100
AcDbEntity
  8
0
  6
CONTINUOUS
 62
     0
100
AcDbLine
 10
0.0
 20
-5.0
 30
0.0
 11
0.0
 21
-6.0
 31
0.0
  0
LINE
  5
2AA
330
2A0
100
AcDbEntity
  8
0
  6
CONTINUOUS
 62
     0
100
AcDbLine
 10
5.0
 20
0.0
 30
0.0
 11
6.0
 21
0.0
 31
0.0
  0
ENDBLK
  5
2A2
330
2A0
100
AcDbEntity
  8
0
100
AcDbBlockEnd
  0
BLOCK
  5
2AD
330
2AC
100
AcDbEntity
  8
0
100
AcDbBlockBegin
  2
SW_CENTERMARKSYMBOL_7
 70
     0
 10
0.0
 20
0.0
 30
0.0
  3
SW_CENTERMARKSYMBOL_7
  1

  0
LINE
  5
2AF
330
2AC
100
AcDbEntity
  8
0
  6
CONTINUOUS
 62
     0
100
AcDbLine
 10
0.0
 20
0.0
 30
0.0
 11
0.0
 21
2.5
 31
0.0
  0
LINE
  5
2B0
330
2AC
100
AcDbEntity
  8
0
  6
CONTINUOUS
 62
     0
100
AcDbLine
 10
0.0
 20
0.0
 30
0.0
 11
-2.5
 21
0.0
 31
0.0
  0
LINE
  5
2B1
330
2AC
100
AcDbEntity
  8
0
  6
CONTINUOUS
 62
     0
100
AcDbLine
 10
0.0
 20
0.0
 30
0.0
 11
0.0
 21
-2.5
 31
0.0
  0
LINE
  5
2B2
330
2AC
100
AcDbEntity
  8
0
  6
CONTINUOUS
 62
     0
100
AcDbLine
 10
0.0
 20
0.0
 30
0.0
 11
2.5
 21
0.0
 31
0.0
  0
LINE
  5
2B3
330
2AC
100
AcDbEntity
  8
0
  6
CONTINUOUS
 62
     0
100
AcDbLine
 10
0.0
 20
5.0
 30
0.0
 11
0.0
 21
6.0
 31
0.0
  0
LINE
  5
2B4
330
2AC
100
AcDbEntity
  8
0
  6
CONTINUOUS
 62
     0
100
AcDbLine
 10
-5.0
 20
0.0
 30
0.0
 11
-6.0
 21
0.0
 31
0.0
  0
LINE
  5
2B5
330
2AC
100
AcDbEntity
  8
0
  6
CONTINUOUS
 62
     0
100
AcDbLine
 10
0.0
 20
-5.0
 30
0.0
 11
0.0
 21
-6.0
 31
0.0
  0
LINE
  5
2B6
330
2AC
100
AcDbEntity
  8
0
  6
CONTINUOUS
 62
     0
100
AcDbLine
 10
5.0
 20
0.0
 30
0.0
 11
6.0
 21
0.0
 31
0.0
  0
ENDBLK
  5
2AE
330
2AC
100
AcDbEntity
  8
0
100
AcDbBlockEnd
  0
BLOCK
  5
3CD
330
3CC
100
AcDbEntity
  8
0
100
AcDbBlockBegin
  2
SW_CENTERMARKSYMBOL_8
 70
     0
 10
0.0
 20
0.0
 30
0.0
  3
SW_CENTERMARKSYMBOL_8
  1

  0
LINE
  5
3CF
330
3CC
100
AcDbEntity
  8
0
  6
CONTINUOUS
 62
     0
100
AcDbLine
 10
0.0
 20
0.0
 30
0.0
 11
0.0
 21
-2.5
 31
0.0
  0
LINE
  5
3D0
330
3CC
100
AcDbEntity
  8
0
  6
CONTINUOUS
 62
     0
100
AcDbLine
 10
0.0
 20
0.0
 30
0.0
 11
-2.5
 21
0.0
 31
0.0
  0
LINE
  5
3D1
330
3CC
100
AcDbEntity
  8
0
  6
CONTINUOUS
 62
     0
100
AcDbLine
 10
0.0
 20
0.0
 30
0.0
 11
0.0
 21
2.5
 31
0.0
  0
LINE
  5
3D2
330
3CC
100
AcDbEntity
  8
0
  6
CONTINUOUS
 62
     0
100
AcDbLine
 10
0.0
 20
0.0
 30
0.0
 11
2.5
 21
0.0
 31
0.0
  0
LINE
  5
3D3
330
3CC
100
AcDbEntity
  8
0
  6
CONTINUOUS
 62
     0
100
AcDbLine
 10
0.0
 20
0.0
 30
0.0
 11
0.0
 21
-2.5
 31
0.0
  0
LINE
  5
3D4
330
3CC
100
AcDbEntity
  8
0
  6
CONTINUOUS
 62
     0
100
AcDbLine
 10
0.0
 20
0.0
 30
0.0
 11
-2.5
 21
0.0
 31
0.0
  0
LINE
  5
3D5
330
3CC
100
AcDbEntity
  8
0
  6
CONTINUOUS
 62
     0
100
AcDbLine
 10
0.0
 20
0.0
 30
0.0
 11
0.0
 21
2.5
 31
0.0
  0
LINE
  5
3D6
330
3CC
100
AcDbEntity
  8
0
  6
CONTINUOUS
 62
     0
100
AcDbLine
 10
0.0
 20
0.0
 30
0.0
 11
2.5
 21
0.0
 31
0.0
  0
LINE
  5
3D7
330
3CC
100
AcDbEntity
  8
0
  6
CONTINUOUS
 62
     0
100
AcDbLine
 10
0.0
 20
0.0
 30
0.0
 11
0.0
 21
-2.5
 31
0.0
  0
LINE
  5
3D8
330
3CC
100
AcDbEntity
  8
0
  6
CONTINUOUS
 62
     0
100
AcDbLine
 10
0.0
 20
0.0
 30
0.0
 11
-2.5
 21
0.0
 31
0.0
  0
LINE
  5
3D9
330
3CC
100
AcDbEntity
  8
0
  6
CONTINUOUS
 62
     0
100
AcDbLine
 10
0.0
 20
0.0
 30
0.0
 11
0.0
 21
2.5
 31
0.0
  0
LINE
  5
3DA
330
3CC
100
AcDbEntity
  8
0
  6
CONTINUOUS
 62
     0
100
AcDbLine
 10
0.0
 20
0.0
 30
0.0
 11
2.5
 21
0.0
 31
0.0
  0
LINE
  5
3DB
330
3CC
100
AcDbEntity
  8
0
  6
CONTINUOUS
 62
     0
100
AcDbLine
 10
0.0
 20
0.0
 30
0.0
 11
0.0
 21
-2.5
 31
0.0
  0
LINE
  5
3DC
330
3CC
100
AcDbEntity
  8
0
  6
CONTINUOUS
 62
     0
100
AcDbLine
 10
0.0
 20
0.0
 30
0.0
 11
-2.5
 21
0.0
 31
0.0
  0
LINE
  5
3DD
330
3CC
100
AcDbEntity
  8
0
  6
CONTINUOUS
 62
     0
100
AcDbLine
 10
0.0
 20
0.0
 30
0.0
 11
0.0
 21
2.5
 31
0.0
  0
LINE
  5
3DE
330
3CC
100
AcDbEntity
  8
0
  6
CONTINUOUS
 62
     0
100
AcDbLine
 10
0.0
 20
0.0
 30
0.0
 11
2.5
 21
0.0
 31
0.0
  0
LINE
  5
3DF
330
3CC
100
AcDbEntity
  8
0
  6
CONTINUOUS
 62
     0
100
AcDbLine
 10
0.0
 20
0.0
 30
0.0
 11
0.0
 21
-2.5
 31
0.0
  0
LINE
  5
3E0
330
3CC
100
AcDbEntity
  8
0
  6
CONTINUOUS
 62
     0
100
AcDbLine
 10
0.0
 20
0.0
 30
0.0
 11
-2.5
 21
0.0
 31
0.0
  0
LINE
  5
3E1
330
3CC
100
AcDbEntity
  8
0
  6
CONTINUOUS
 62
     0
100
AcDbLine
 10
0.0
 20
0.0
 30
0.0
 11
0.0
 21
2.5
 31
0.0
  0
LINE
  5
3E2
330
3CC
100
AcDbEntity
  8
0
  6
CONTINUOUS
 62
     0
100
AcDbLine
 10
0.0
 20
0.0
 30
0.0
 11
2.5
 21
0.0
 31
0.0
  0
LINE
  5
3E3
330
3CC
100
AcDbEntity
  8
0
  6
CONTINUOUS
 62
     0
100
AcDbLine
 10
-2.5
 20
0.0
 30
0.0
 11
-4.4
 21
0.0
 31
0.0
  0
LINE
  5
3E4
330
3CC
100
AcDbEntity
  8
0
  6
CONTINUOUS
 62
     0
100
AcDbLine
 10
0.0
 20
2.5
 30
0.0
 11
0.0
 21
4.4
 31
0.0
  0
LINE
  5
3E5
330
3CC
100
AcDbEntity
  8
0
  6
CONTINUOUS
 62
     0
100
AcDbLine
 10
0.0
 20
0.0
 30
0.0
 11
0.0
 21
-2.5
 31
0.0
  0
LINE
  5
3E6
330
3CC
100
AcDbEntity
  8
0
  6
CONTINUOUS
 62
     0
100
AcDbLine
 10
0.0
 20
0.0
 30
0.0
 11
-2.5
 21
0.0
 31
0.0
  0
LINE
  5
3E7
330
3CC
100
AcDbEntity
  8
0
  6
CONTINUOUS
 62
     0
100
AcDbLine
 10
0.0
 20
0.0
 30
0.0
 11
0.0
 21
2.5
 31
0.0
  0
LINE
  5
3E8
330
3CC
100
AcDbEntity
  8
0
  6
CONTINUOUS
 62
     0
100
AcDbLine
 10
0.0
 20
0.0
 30
0.0
 11
2.5
 21
0.0
 31
0.0
  0
LINE
  5
3E9
330
3CC
100
AcDbEntity
  8
0
  6
CONTINUOUS
 62
     0
100
AcDbLine
 10
0.0
 20
-2.5
 30
0.0
 11
0.0
 21
-4.4
 31
0.0
  0
LINE
  5
3EA
330
3CC
100
AcDbEntity
  8
0
  6
CONTINUOUS
 62
     0
100
AcDbLine
 10
2.5
 20
0.0
 30
0.0
 11
4.4
 21
0.0
 31
0.0
  0
ENDBLK
  5
3CE
330
3CC
100
AcDbEntity
  8
0
100
AcDbBlockEnd
  0
BLOCK
  5
430
330
42F
100
AcDbEntity
  8
0
100
AcDbBlockBegin
  2
SW_CENTERMARKSYMBOL_9
 70
     0
 10
0.0
 20
0.0
 30
0.0
  3
SW_CENTERMARKSYMBOL_9
  1

  0
LINE
  5
432
330
42F
100
AcDbEntity
  8
0
  6
CONTINUOUS
 62
     0
100
AcDbLine
 10
0.0
 20
0.0
 30
0.0
 11
-2.5
 21
0.0
 31
0.0
  0
LINE
  5
433
330
42F
100
AcDbEntity
  8
0
  6
CONTINUOUS
 62
     0
100
AcDbLine
 10
0.0
 20
0.0
 30
0.0
 11
0.0
 21
2.5
 31
0.0
  0
LINE
  5
434
330
42F
100
AcDbEntity
  8
0
  6
CONTINUOUS
 62
     0
100
AcDbLine
 10
0.0
 20
0.0
 30
0.0
 11
2.5
 21
0.0
 31
0.0
  0
LINE
  5
435
330
42F
100
AcDbEntity
  8
0
  6
CONTINUOUS
 62
     0
100
AcDbLine
 10
0.0
 20
0.0
 30
0.0
 11
0.0
 21
-2.5
 31
0.0
  0
LINE
  5
436
330
42F
100
AcDbEntity
  8
0
  6
CONTINUOUS
 62
     0
100
AcDbLine
 10
0.0
 20
2.5
 30
0.0
 11
0.0
 21
4.4
 31
0.0
  0
LINE
  5
437
330
42F
100
AcDbEntity
  8
0
  6
CONTINUOUS
 62
     0
100
AcDbLine
 10
0.0
 20
0.0
 30
0.0
 11
-2.5
 21
0.0
 31
0.0
  0
LINE
  5
438
330
42F
100
AcDbEntity
  8
0
  6
CONTINUOUS
 62
     0
100
AcDbLine
 10
0.0
 20
0.0
 30
0.0
 11
0.0
 21
2.5
 31
0.0
  0
LINE
  5
439
330
42F
100
AcDbEntity
  8
0
  6
CONTINUOUS
 62
     0
100
AcDbLine
 10
0.0
 20
0.0
 30
0.0
 11
2.5
 21
0.0
 31
0.0
  0
LINE
  5
43A
330
42F
100
AcDbEntity
  8
0
  6
CONTINUOUS
 62
     0
100
AcDbLine
 10
0.0
 20
0.0
 30
0.0
 11
0.0
 21
-2.5
 31
0.0
  0
LINE
  5
43B
330
42F
100
AcDbEntity
  8
0
  6
CONTINUOUS
 62
     0
100
AcDbLine
 10
0.0
 20
-2.5
 30
0.0
 11
0.0
 21
-4.4
 31
0.0
  0
LINE
  5
43C
330
42F
100
AcDbEntity
  8
0
  6
CONTINUOUS
 62
     0
100
AcDbLine
 10
0.0
 20
0.0
 30
0.0
 11
-2.5
 21
0.0
 31
0.0
  0
LINE
  5
43D
330
42F
100
AcDbEntity
  8
0
  6
CONTINUOUS
 62
     0
100
AcDbLine
 10
0.0
 20
0.0
 30
0.0
 11
0.0
 21
2.5
 31
0.0
  0
LINE
  5
43E
330
42F
100
AcDbEntity
  8
0
  6
CONTINUOUS
 62
     0
100
AcDbLine
 10
0.0
 20
0.0
 30
0.0
 11
2.5
 21
0.0
 31
0.0
  0
LINE
  5
43F
330
42F
100
AcDbEntity
  8
0
  6
CONTINUOUS
 62
     0
100
AcDbLine
 10
0.0
 20
0.0
 30
0.0
 11
0.0
 21
-2.5
 31
0.0
  0
LINE
  5
440
330
42F
100
AcDbEntity
  8
0
  6
CONTINUOUS
 62
     0
100
AcDbLine
 10
0.0
 20
0.0
 30
0.0
 11
-2.5
 21
0.0
 31
0.0
  0
LINE
  5
441
330
42F
100
AcDbEntity
  8
0
  6
CONTINUOUS
 62
     0
100
AcDbLine
 10
0.0
 20
0.0
 30
0.0
 11
0.0
 21
2.5
 31
0.0
  0
LINE
  5
442
330
42F
100
AcDbEntity
  8
0
  6
CONTINUOUS
 62
     0
100
AcDbLine
 10
0.0
 20
0.0
 30
0.0
 11
2.5
 21
0.0
 31
0.0
  0
LINE
  5
443
330
42F
100
AcDbEntity
  8
0
  6
CONTINUOUS
 62
     0
100
AcDbLine
 10
0.0
 20
0.0
 30
0.0
 11
0.0
 21
-2.5
 31
0.0
  0
LINE
  5
444
330
42F
100
AcDbEntity
  8
0
  6
CONTINUOUS
 62
     0
100
AcDbLine
 10
0.0
 20
2.5
 30
0.0
 11
0.0
 21
4.4
 31
0.0
  0
LINE
  5
445
330
42F
100
AcDbEntity
  8
0
  6
CONTINUOUS
 62
     0
100
AcDbLine
 10
0.0
 20
0.0
 30
0.0
 11
-2.5
 21
0.0
 31
0.0
  0
LINE
  5
446
330
42F
100
AcDbEntity
  8
0
  6
CONTINUOUS
 62
     0
100
AcDbLine
 10
0.0
 20
0.0
 30
0.0
 11
0.0
 21
2.5
 31
0.0
  0
LINE
  5
447
330
42F
100
AcDbEntity
  8
0
  6
CONTINUOUS
 62
     0
100
AcDbLine
 10
0.0
 20
0.0
 30
0.0
 11
2.5
 21
0.0
 31
0.0
  0
LINE
  5
448
330
42F
100
AcDbEntity
  8
0
  6
CONTINUOUS
 62
     0
100
AcDbLine
 10
0.0
 20
0.0
 30
0.0
 11
0.0
 21
-2.5
 31
0.0
  0
LINE
  5
449
330
42F
100
AcDbEntity
  8
0
  6
CONTINUOUS
 62
     0
100
AcDbLine
 10
2.5
 20
0.0
 30
0.0
 11
4.4
 21
0.0
 31
0.0
  0
LINE
  5
44A
330
42F
100
AcDbEntity
  8
0
  6
CONTINUOUS
 62
     0
100
AcDbLine
 10
0.0
 20
-2.5
 30
0.0
 11
0.0
 21
-4.4
 31
0.0
  0
LINE
  5
44B
330
42F
100
AcDbEntity
  8
0
  6
CONTINUOUS
 62
     0
100
AcDbLine
 10
0.0
 20
0.0
 30
0.0
 11
-2.5
 21
0.0
 31
0.0
  0
LINE
  5
44C
330
42F
100
AcDbEntity
  8
0
  6
CONTINUOUS
 62
     0
100
AcDbLine
 10
0.0
 20
0.0
 30
0.0
 11
0.0
 21
2.5
 31
0.0
  0
LINE
  5
44D
330
42F
100
AcDbEntity
  8
0
  6
CONTINUOUS
 62
     0
100
AcDbLine
 10
0.0
 20
0.0
 30
0.0
 11
2.5
 21
0.0
 31
0.0
  0
LINE
  5
44E
330
42F
100
AcDbEntity
  8
0
  6
CONTINUOUS
 62
     0
100
AcDbLine
 10
0.0
 20
0.0
 30
0.0
 11
0.0
 21
-2.5
 31
0.0
  0
LINE
  5
44F
330
42F
100
AcDbEntity
  8
0
  6
CONTINUOUS
 62
     0
100
AcDbLine
 10
-2.5
 20
0.0
 30
0.0
 11
-4.4
 21
0.0
 31
0.0
  0
LINE
  5
450
330
42F
100
AcDbEntity
  8
0
  6
CONTINUOUS
 62
     0
100
AcDbLine
 10
0.0
 20
-2.5
 30
0.0
 11
0.0
 21
-4.4
 31
0.0
  0
ENDBLK
  5
431
330
42F
100
AcDbEntity
  8
0
100
AcDbBlockEnd
  0
BLOCK
  5
56B
330
56A
100
AcDbEntity
  8
0
100
AcDbBlockBegin
  2
SW_CENTERMARKSYMBOL_10
 70
     0
 10
0.0
 20
0.0
 30
0.0
  3
SW_CENTERMARKSYMBOL_10
  1

  0
LINE
  5
56D
330
56A
100
AcDbEntity
  8
0
  6
CONTINUOUS
 62
     0
100
AcDbLine
 10
0.0
 20
0.0
 30
0.0
 11
0.0
 21
2.5
 31
0.0
  0
LINE
  5
56E
330
56A
100
AcDbEntity
  8
0
  6
CONTINUOUS
 62
     0
100
AcDbLine
 10
0.0
 20
0.0
 30
0.0
 11
-2.5
 21
0.0
 31
0.0
  0
LINE
  5
56F
330
56A
100
AcDbEntity
  8
0
  6
CONTINUOUS
 62
     0
100
AcDbLine
 10
0.0
 20
0.0
 30
0.0
 11
0.0
 21
-2.5
 31
0.0
  0
LINE
  5
570
330
56A
100
AcDbEntity
  8
0
  6
CONTINUOUS
 62
     0
100
AcDbLine
 10
0.0
 20
0.0
 30
0.0
 11
2.5
 21
0.0
 31
0.0
  0
LINE
  5
571
330
56A
100
AcDbEntity
  8
0
  6
CONTINUOUS
 62
     0
100
AcDbLine
 10
0.0
 20
5.0
 30
0.0
 11
0.0
 21
5.3007318806
 31
0.0
  0
LINE
  5
572
330
56A
100
AcDbEntity
  8
0
  6
CONTINUOUS
 62
     0
100
AcDbLine
 10
-5.0
 20
0.0
 30
0.0
 11
-5.3007318806
 21
0.0
 31
0.0
  0
LINE
  5
573
330
56A
100
AcDbEntity
  8
0
  6
CONTINUOUS
 62
     0
100
AcDbLine
 10
0.0
 20
-5.0
 30
0.0
 11
0.0
 21
-5.3007318806
 31
0.0
  0
LINE
  5
574
330
56A
100
AcDbEntity
  8
0
  6
CONTINUOUS
 62
     0
100
AcDbLine
 10
5.0
 20
0.0
 30
0.0
 11
5.3007318806
 21
0.0
 31
0.0
  0
ENDBLK
  5
56C
330
56A
100
AcDbEntity
  8
0
100
AcDbBlockEnd
  0
BLOCK
  5
577
330
576
100
AcDbEntity
  8
0
100
AcDbBlockBegin
  2
SW_CENTERMARKSYMBOL_11
 70
     0
 10
0.0
 20
0.0
 30
0.0
  3
SW_CENTERMARKSYMBOL_11
  1

  0
LINE
  5
579
330
576
100
AcDbEntity
  8
0
  6
CONTINUOUS
 62
     0
100
AcDbLine
 10
0.0
 20
0.0
 30
0.0
 11
0.0
 21
2.5
 31
0.0
  0
LINE
  5
57A
330
576
100
AcDbEntity
  8
0
  6
CONTINUOUS
 62
     0
100
AcDbLine
 10
0.0
 20
0.0
 30
0.0
 11
-2.5
 21
0.0
 31
0.0
  0
LINE
  5
57B
330
576
100
AcDbEntity
  8
0
  6
CONTINUOUS
 62
     0
100
AcDbLine
 10
0.0
 20
0.0
 30
0.0
 11
0.0
 21
-2.5
 31
0.0
  0
LINE
  5
57C
330
576
100
AcDbEntity
  8
0
  6
CONTINUOUS
 62
     0
100
AcDbLine
 10
0.0
 20
0.0
 30
0.0
 11
2.5
 21
0.0
 31
0.0
  0
LINE
  5
57D
330
576
100
AcDbEntity
  8
0
  6
CONTINUOUS
 62
     0
100
AcDbLine
 10
0.0
 20
5.0
 30
0.0
 11
0.0
 21
5.3007318806
 31
0.0
  0
LINE
  5
57E
330
576
100
AcDbEntity
  8
0
  6
CONTINUOUS
 62
     0
100
AcDbLine
 10
-5.0
 20
0.0
 30
0.0
 11
-5.3007318806
 21
0.0
 31
0.0
  0
LINE
  5
57F
330
576
100
AcDbEntity
  8
0
  6
CONTINUOUS
 62
     0
100
AcDbLine
 10
0.0
 20
-5.0
 30
0.0
 11
0.0
 21
-5.3007318806
 31
0.0
  0
LINE
  5
580
330
576
100
AcDbEntity
  8
0
  6
CONTINUOUS
 62
     0
100
AcDbLine
 10
5.0
 20
0.0
 30
0.0
 11
5.3007318806
 21
0.0
 31
0.0
  0
ENDBLK
  5
578
330
576
100
AcDbEntity
  8
0
100
AcDbBlockEnd
  0
BLOCK
  5
583
330
582
100
AcDbEntity
  8
0
100
AcDbBlockBegin
  2
SW_CENTERMARKSYMBOL_12
 70
     0
 10
0.0
 20
0.0
 30
0.0
  3
SW_CENTERMARKSYMBOL_12
  1

  0
LINE
  5
585
330
582
100
AcDbEntity
  8
0
  6
CONTINUOUS
 62
     0
100
AcDbLine
 10
0.0
 20
0.0
 30
0.0
 11
0.0
 21
2.5
 31
0.0
  0
LINE
  5
586
330
582
100
AcDbEntity
  8
0
  6
CONTINUOUS
 62
     0
100
AcDbLine
 10
0.0
 20
0.0
 30
0.0
 11
-2.5
 21
0.0
 31
0.0
  0
LINE
  5
587
330
582
100
AcDbEntity
  8
0
  6
CONTINUOUS
 62
     0
100
AcDbLine
 10
0.0
 20
0.0
 30
0.0
 11
0.0
 21
-2.5
 31
0.0
  0
LINE
  5
588
330
582
100
AcDbEntity
  8
0
  6
CONTINUOUS
 62
     0
100
AcDbLine
 10
0.0
 20
0.0
 30
0.0
 11
2.5
 21
0.0
 31
0.0
  0
LINE
  5
589
330
582
100
AcDbEntity
  8
0
  6
CONTINUOUS
 62
     0
100
AcDbLine
 10
0.0
 20
5.0
 30
0.0
 11
0.0
 21
5.3007318806
 31
0.0
  0
LINE
  5
58A
330
582
100
AcDbEntity
  8
0
  6
CONTINUOUS
 62
     0
100
AcDbLine
 10
-5.0
 20
0.0
 30
0.0
 11
-5.3007318806
 21
0.0
 31
0.0
  0
LINE
  5
58B
330
582
100
AcDbEntity
  8
0
  6
CONTINUOUS
 62
     0
100
AcDbLine
 10
0.0
 20
-5.0
 30
0.0
 11
0.0
 21
-5.3007318806
 31
0.0
  0
LINE
  5
58C
330
582
100
AcDbEntity
  8
0
  6
CONTINUOUS
 62
     0
100
AcDbLine
 10
5.0
 20
0.0
 30
0.0
 11
5.3007318806
 21
0.0
 31
0.0
  0
ENDBLK
  5
584
330
582
100
AcDbEntity
  8
0
100
AcDbBlockEnd
  0
BLOCK
  5
58F
330
58E
100
AcDbEntity
  8
0
100
AcDbBlockBegin
  2
SW_CENTERMARKSYMBOL_13
 70
     0
 10
0.0
 20
0.0
 30
0.0
  3
SW_CENTERMARKSYMBOL_13
  1

  0
LINE
  5
591
330
58E
100
AcDbEntity
  8
0
  6
CONTINUOUS
 62
     0
100
AcDbLine
 10
0.0
 20
0.0
 30
0.0
 11
0.0
 21
2.5
 31
0.0
  0
LINE
  5
592
330
58E
100
AcDbEntity
  8
0
  6
CONTINUOUS
 62
     0
100
AcDbLine
 10
0.0
 20
0.0
 30
0.0
 11
-2.5
 21
0.0
 31
0.0
  0
LINE
  5
593
330
58E
100
AcDbEntity
  8
0
  6
CONTINUOUS
 62
     0
100
AcDbLine
 10
0.0
 20
0.0
 30
0.0
 11
0.0
 21
-2.5
 31
0.0
  0
LINE
  5
594
330
58E
100
AcDbEntity
  8
0
  6
CONTINUOUS
 62
     0
100
AcDbLine
 10
0.0
 20
0.0
 30
0.0
 11
2.5
 21
0.0
 31
0.0
  0
LINE
  5
595
330
58E
100
AcDbEntity
  8
0
  6
CONTINUOUS
 62
     0
100
AcDbLine
 10
0.0
 20
5.0
 30
0.0
 11
0.0
 21
5.3007318806
 31
0.0
  0
LINE
  5
596
330
58E
100
AcDbEntity
  8
0
  6
CONTINUOUS
 62
     0
100
AcDbLine
 10
-5.0
 20
0.0
 30
0.0
 11
-5.3007318806
 21
0.0
 31
0.0
  0
LINE
  5
597
330
58E
100
AcDbEntity
  8
0
  6
CONTINUOUS
 62
     0
100
AcDbLine
 10
0.0
 20
-5.0
 30
0.0
 11
0.0
 21
-5.3007318806
 31
0.0
  0
LINE
  5
598
330
58E
100
AcDbEntity
  8
0
  6
CONTINUOUS
 62
     0
100
AcDbLine
 10
5.0
 20
0.0
 30
0.0
 11
5.3007318806
 21
0.0
 31
0.0
  0
ENDBLK
  5
590
330
58E
100
AcDbEntity
  8
0
100
AcDbBlockEnd
  0
BLOCK
  5
59B
330
59A
100
AcDbEntity
  8
0
100
AcDbBlockBegin
  2
SW_CENTERMARKSYMBOL_14
 70
     0
 10
0.0
 20
0.0
 30
0.0
  3
SW_CENTERMARKSYMBOL_14
  1

  0
LINE
  5
59D
330
59A
100
AcDbEntity
  8
0
  6
CONTINUOUS
 62
     0
100
AcDbLine
 10
0.0
 20
0.0
 30
0.0
 11
0.0
 21
2.5
 31
0.0
  0
LINE
  5
59E
330
59A
100
AcDbEntity
  8
0
  6
CONTINUOUS
 62
     0
100
AcDbLine
 10
0.0
 20
0.0
 30
0.0
 11
-2.5
 21
0.0
 31
0.0
  0
LINE
  5
59F
330
59A
100
AcDbEntity
  8
0
  6
CONTINUOUS
 62
     0
100
AcDbLine
 10
0.0
 20
0.0
 30
0.0
 11
0.0
 21
-2.5
 31
0.0
  0
LINE
  5
5A0
330
59A
100
AcDbEntity
  8
0
  6
CONTINUOUS
 62
     0
100
AcDbLine
 10
0.0
 20
0.0
 30
0.0
 11
2.5
 21
0.0
 31
0.0
  0
LINE
  5
5A1
330
59A
100
AcDbEntity
  8
0
  6
CONTINUOUS
 62
     0
100
AcDbLine
 10
0.0
 20
5.0
 30
0.0
 11
0.0
 21
5.3007318806
 31
0.0
  0
LINE
  5
5A2
330
59A
100
AcDbEntity
  8
0
  6
CONTINUOUS
 62
     0
100
AcDbLine
 10
-5.0
 20
0.0
 30
0.0
 11
-5.3007318806
 21
0.0
 31
0.0
  0
LINE
  5
5A3
330
59A
100
AcDbEntity
  8
0
  6
CONTINUOUS
 62
     0
100
AcDbLine
 10
0.0
 20
-5.0
 30
0.0
 11
0.0
 21
-5.3007318806
 31
0.0
  0
LINE
  5
5A4
330
59A
100
AcDbEntity
  8
0
  6
CONTINUOUS
 62
     0
100
AcDbLine
 10
5.0
 20
0.0
 30
0.0
 11
5.3007318806
 21
0.0
 31
0.0
  0
ENDBLK
  5
59C
330
59A
100
AcDbEntity
  8
0
100
AcDbBlockEnd
  0
BLOCK
  5
5A7
330
5A6
100
AcDbEntity
  8
0
100
AcDbBlockBegin
  2
SW_CENTERMARKSYMBOL_15
 70
     0
 10
0.0
 20
0.0
 30
0.0
  3
SW_CENTERMARKSYMBOL_15
  1

  0
LINE
  5
5A9
330
5A6
100
AcDbEntity
  8
0
  6
CONTINUOUS
 62
     0
100
AcDbLine
 10
0.0
 20
0.0
 30
0.0
 11
0.0
 21
2.5
 31
0.0
  0
LINE
  5
5AA
330
5A6
100
AcDbEntity
  8
0
  6
CONTINUOUS
 62
     0
100
AcDbLine
 10
0.0
 20
0.0
 30
0.0
 11
-2.5
 21
0.0
 31
0.0
  0
LINE
  5
5AB
330
5A6
100
AcDbEntity
  8
0
  6
CONTINUOUS
 62
     0
100
AcDbLine
 10
0.0
 20
0.0
 30
0.0
 11
0.0
 21
-2.5
 31
0.0
  0
LINE
  5
5AC
330
5A6
100
AcDbEntity
  8
0
  6
CONTINUOUS
 62
     0
100
AcDbLine
 10
0.0
 20
0.0
 30
0.0
 11
2.5
 21
0.0
 31
0.0
  0
LINE
  5
5AD
330
5A6
100
AcDbEntity
  8
0
  6
CONTINUOUS
 62
     0
100
AcDbLine
 10
0.0
 20
5.0
 30
0.0
 11
0.0
 21
5.3007318806
 31
0.0
  0
LINE
  5
5AE
330
5A6
100
AcDbEntity
  8
0
  6
CONTINUOUS
 62
     0
100
AcDbLine
 10
-5.0
 20
0.0
 30
0.0
 11
-5.3007318806
 21
0.0
 31
0.0
  0
LINE
  5
5AF
330
5A6
100
AcDbEntity
  8
0
  6
CONTINUOUS
 62
     0
100
AcDbLine
 10
0.0
 20
-5.0
 30
0.0
 11
0.0
 21
-5.3007318806
 31
0.0
  0
LINE
  5
5B0
330
5A6
100
AcDbEntity
  8
0
  6
CONTINUOUS
 62
     0
100
AcDbLine
 10
5.0
 20
0.0
 30
0.0
 11
5.3007318806
 21
0.0
 31
0.0
  0
ENDBLK
  5
5A8
330
5A6
100
AcDbEntity
  8
0
100
AcDbBlockEnd
  0
BLOCK
  5
5B3
330
5B2
100
AcDbEntity
  8
0
100
AcDbBlockBegin
  2
SW_CENTERMARKSYMBOL_16
 70
     0
 10
0.0
 20
0.0
 30
0.0
  3
SW_CENTERMARKSYMBOL_16
  1

  0
LINE
  5
5B5
330
5B2
100
AcDbEntity
  8
0
  6
CONTINUOUS
 62
     0
100
AcDbLine
 10
0.0
 20
0.0
 30
0.0
 11
0.0
 21
2.5
 31
0.0
  0
LINE
  5
5B6
330
5B2
100
AcDbEntity
  8
0
  6
CONTINUOUS
 62
     0
100
AcDbLine
 10
0.0
 20
0.0
 30
0.0
 11
-2.5
 21
0.0
 31
0.0
  0
LINE
  5
5B7
330
5B2
100
AcDbEntity
  8
0
  6
CONTINUOUS
 62
     0
100
AcDbLine
 10
0.0
 20
0.0
 30
0.0
 11
0.0
 21
-2.5
 31
0.0
  0
LINE
  5
5B8
330
5B2
100
AcDbEntity
  8
0
  6
CONTINUOUS
 62
     0
100
AcDbLine
 10
0.0
 20
0.0
 30
0.0
 11
2.5
 21
0.0
 31
0.0
  0
LINE
  5
5B9
330
5B2
100
AcDbEntity
  8
0
  6
CONTINUOUS
 62
     0
100
AcDbLine
 10
0.0
 20
5.0
 30
0.0
 11
0.0
 21
5.3007318806
 31
0.0
  0
LINE
  5
5BA
330
5B2
100
AcDbEntity
  8
0
  6
CONTINUOUS
 62
     0
100
AcDbLine
 10
-5.0
 20
0.0
 30
0.0
 11
-5.3007318806
 21
0.0
 31
0.0
  0
LINE
  5
5BB
330
5B2
100
AcDbEntity
  8
0
  6
CONTINUOUS
 62
     0
100
AcDbLine
 10
0.0
 20
-5.0
 30
0.0
 11
0.0
 21
-5.3007318806
 31
0.0
  0
LINE
  5
5BC
330
5B2
100
AcDbEntity
  8
0
  6
CONTINUOUS
 62
     0
100
AcDbLine
 10
5.0
 20
0.0
 30
0.0
 11
5.3007318806
 21
0.0
 31
0.0
  0
ENDBLK
  5
5B4
330
5B2
100
AcDbEntity
  8
0
100
AcDbBlockEnd
  0
BLOCK
  5
5BF
330
5BE
100
AcDbEntity
  8
0
100
AcDbBlockBegin
  2
SW_CENTERMARKSYMBOL_17
 70
     0
 10
0.0
 20
0.0
 30
0.0
  3
SW_CENTERMARKSYMBOL_17
  1

  0
LINE
  5
5C1
330
5BE
100
AcDbEntity
  8
0
  6
CONTINUOUS
 62
     0
100
AcDbLine
 10
0.0
 20
0.0
 30
0.0
 11
0.0
 21
2.5
 31
0.0
  0
LINE
  5
5C2
330
5BE
100
AcDbEntity
  8
0
  6
CONTINUOUS
 62
     0
100
AcDbLine
 10
0.0
 20
0.0
 30
0.0
 11
-2.5
 21
0.0
 31
0.0
  0
LINE
  5
5C3
330
5BE
100
AcDbEntity
  8
0
  6
CONTINUOUS
 62
     0
100
AcDbLine
 10
0.0
 20
0.0
 30
0.0
 11
0.0
 21
-2.5
 31
0.0
  0
LINE
  5
5C4
330
5BE
100
AcDbEntity
  8
0
  6
CONTINUOUS
 62
     0
100
AcDbLine
 10
0.0
 20
0.0
 30
0.0
 11
2.5
 21
0.0
 31
0.0
  0
LINE
  5
5C5
330
5BE
100
AcDbEntity
  8
0
  6
CONTINUOUS
 62
     0
100
AcDbLine
 10
0.0
 20
5.0
 30
0.0
 11
0.0
 21
5.3007318806
 31
0.0
  0
LINE
  5
5C6
330
5BE
100
AcDbEntity
  8
0
  6
CONTINUOUS
 62
     0
100
AcDbLine
 10
-5.0
 20
0.0
 30
0.0
 11
-5.3007318806
 21
0.0
 31
0.0
  0
LINE
  5
5C7
330
5BE
100
AcDbEntity
  8
0
  6
CONTINUOUS
 62
     0
100
AcDbLine
 10
0.0
 20
-5.0
 30
0.0
 11
0.0
 21
-5.3007318806
 31
0.0
  0
LINE
  5
5C8
330
5BE
100
AcDbEntity
  8
0
  6
CONTINUOUS
 62
     0
100
AcDbLine
 10
5.0
 20
0.0
 30
0.0
 11
5.3007318806
 21
0.0
 31
0.0
  0
ENDBLK
  5
5C0
330
5BE
100
AcDbEntity
  8
0
100
AcDbBlockEnd
  0
ENDSEC
  0
SECTION
  2
ENTITIES
  0
MTEXT
  5
45
330
1F
100
AcDbEntity
  8
0
  6
CONTINUOUS
 62
     7
100
AcDbMText
 10
213.2522727273
 20
1305.9802127937
 30
0.0
 40
17.5
 41
0.0
 71
     1
 72
     1
  1
ARCA 16x14 Screw Base
  7
SLDTEXTSTYLE0
  0
ARC
  5
46
330
1F
100
AcDbEntity
  8
0
  6
CONTINUOUS
 62
     7
100
AcDbCircle
 10
1575.0493087717
 20
930.1470360445
 30
0.0
 40
1.242503507682613
100
AcDbArc
 50
0.0
 51
90.0
  0
ARC
  5
47
330
1F
100
AcDbEntity
  8
0
  6
CONTINUOUS
 62
     7
100
AcDbCircle
 10
1576.0918122794
 20
928.9470360445
 30
0.0
 40
0.2000000000000498
100
AcDbArc
 50
225.0
 51
0.0
  0
ARC
  5
48
330
1F
100
AcDbEntity
  8
0
  6
CONTINUOUS
 62
     7
100
AcDbCircle
 10
1573.8493087717
 20
931.1895395521
 30
0.0
 40
0.2000000000001592
100
AcDbArc
 50
90.0
 51
225.0
  0
LINE
  5
49
330
1F
100
AcDbEntity
  8
0
  6
CONTINUOUS
 62
     7
100
AcDbLine
 10
1575.0493087717
 20
931.3895395521
 30
0.0
 11
1573.8493087717
 21
931.3895395521
 31
0.0
  0
LINE
  5
4A
330
1F
100
AcDbEntity
  8
0
  6
CONTINUOUS
 62
     7
100
AcDbLine
 10
1573.7078874155
 20
931.0481181959
 30
0.0
 11
1575.9503909232
 21
928.8056146882
 31
0.0
  0
LINE
  5
4B
330
1F
100
AcDbEntity
  8
0
  6
CONTINUOUS
 62
     7
100
AcDbLine
 10
1576.2918122794
 20
928.9470360445
 30
0.0
 11
1576.2918122794
 21
930.1470360445
 31
0.0
  0
LINE
  5
4C
330
1F
100
AcDbEntity
  8
0
  6
CENTERX2
 62
     7
100
AcDbLine
 10
1580.7485686427
 20
543.3698060814
 30
0.0
 11
1580.4649816786
 21
543.3698060814
 31
0.0
  0
LINE
  5
4D
330
1F
100
AcDbEntity
  8
0
  6
CONTINUOUS
 62
     7
100
AcDbLine
 10
1193.6022701047
 20
711.0500004262
 30
0.0
 11
1193.6022701047
 21
680.8000005901
 31
0.0
  0
LINE
  5
4E
330
1F
100
AcDbEntity
  8
0
  6
CONTINUOUS
 62
     7
100
AcDbLine
 10
1193.6022701047
 20
836.0500022888
 30
0.0
 11
1193.6022701047
 21
805.7999968648
 31
0.0
  0
LINE
  5
4F
330
1F
100
AcDbEntity
  8
0
  6
CONTINUOUS
 62
     7
100
AcDbLine
 10
1193.6022701047
 20
898.5500022888
 30
0.0
 11
1193.6022701047
 21
868.3000043154
 31
0.0
  0
LINE
  5
50
330
1F
100
AcDbEntity
  8
0
  6
CONTINUOUS
 62
     7
100
AcDbLine
 10
1193.6022701047
 20
586.0500022888
 30
0.0
 11
1193.6022701047
 21
555.8000043154
 31
0.0
  0
LINE
  5
51
330
1F
100
AcDbEntity
  8
0
  6
CONTINUOUS
 62
     7
100
AcDbLine
 10
1193.6022701047
 20
773.5499985635
 30
0.0
 11
1193.6022701047
 21
743.3000005901
 31
0.0
  0
LINE
  5
52
330
1F
100
AcDbEntity
  8
0
  6
CONTINUOUS
 62
     7
100
AcDbLine
 10
1193.6022701047
 20
648.5500022888
 30
0.0
 11
1193.6022701047
 21
618.2999968648
 31
0.0
  0
LINE
  5
53
330
1F
100
AcDbEntity
  8
0
  6
CONTINUOUS
 62
     7
100
AcDbLine
 10
1207.5440945409
 20
511.3514497995
 30
0.0
 11
1206.3040944121
 21
511.3514497995
 31
0.0
  0
LINE
  5
54
330
1F
100
AcDbEntity
  8
0
  6
CONTINUOUS
 62
     7
100
AcDbLine
 10
1206.3040944121
 20
511.3514497995
 30
0.0
 11
1206.3040944121
 21
943.0485502005
 31
0.0
  0
LINE
  5
55
330
1F
100
AcDbEntity
  8
0
  6
CONTINUOUS
 62
     7
100
AcDbLine
 10
1206.3040944121
 20
943.0485502005
 30
0.0
 11
1207.5440945409
 21
943.0485502005
 31
0.0
  0
ELLIPSE
  5
56
330
1F
100
AcDbEntity
  8
0
  6
CONTINUOUS
 62
     7
100
AcDbEllipse
 10
1211.9818596646
 20
941.65
 30
0.0
 11
4.653069846597191
 21
0.0
 31
0.0
210
0.0
220
0.0
230
1.0
 40
0.9996651034
 41
2.836202614070737
 42
3.764380886842891
  0
LINE
  5
57
330
1F
100
AcDbEntity
  8
0
  6
CONTINUOUS
 62
     7
100
AcDbLine
 10
1208.2023831389
 20
938.9367684841
 30
0.0
 11
1208.2023831389
 21
515.4632315159
 31
0.0
  0
ELLIPSE
  5
58
330
1F
100
AcDbEntity
  8
0
  6
CONTINUOUS
 62
     7
100
AcDbEllipse
 10
1211.9818596646
 20
512.75
 30
0.0
 11
4.653069846597191
 21
0.0
 31
0.0
210
0.0
220
0.0
230
1.0
 40
0.9996651034
 41
2.518804420336702
 42
3.446982685253245
  0
ARC
  5
59
330
1F
100
AcDbEntity
  8
0
  6
CONTINUOUS
 62
     7
100
AcDbCircle
 10
1210.7048063776
 20
943.0445897446
 30
0.0
 40
4.40071374762923
100
AcDbArc
 50
90.051369598
 51
179.9484362195
  0
LINE
  5
5A
330
1F
100
AcDbEntity
  8
0
  6
CONTINUOUS
 62
     7
100
AcDbLine
 10
1210.7008608363
 20
947.4453017235
 30
0.0
 11
1210.7008608363
 21
946.207357955
 31
0.0
  0
ARC
  5
5B
330
1F
100
AcDbEntity
  8
0
  6
CONTINUOUS
 62
     7
100
AcDbCircle
 10
1212.1598368644
 20
941.5925578718
 30
0.0
 40
4.839937071758643
100
AcDbArc
 50
107.544428726
 51
162.4926120828
  0
LINE
  5
5C
330
1F
100
AcDbEntity
  8
0
  6
CONTINUOUS
 62
     7
100
AcDbLine
 10
1210.7008608363
 20
508.192642045
 30
0.0
 11
1210.7008608363
 21
506.9546982765
 31
0.0
  0
ARC
  5
5D
330
1F
100
AcDbEntity
  8
0
  6
CONTINUOUS
 62
     7
100
AcDbCircle
 10
1210.7048063776
 20
511.3554102554
 30
0.0
 40
4.400713747629121
100
AcDbArc
 50
180.0515637805
 51
269.948630402
  0
ARC
  5
5E
330
1F
100
AcDbEntity
  8
0
  6
CONTINUOUS
 62
     7
100
AcDbCircle
 10
1212.1598677586
 20
512.8074730024
 30
0.0
 40
4.839975822765993
100
AcDbArc
 50
197.507626456
 51
252.4553327352
  0
LINE
  5
5F
330
1F
100
AcDbEntity
  8
0
  6
CONTINUOUS
 62
     7
100
AcDbLine
 10
1210.7008608363
 20
947.4453017235
 30
0.0
 11
1583.5036846183
 21
947.4453017235
 31
0.0
  0
LINE
  5
60
330
1F
100
AcDbEntity
  8
0
  6
CONTINUOUS
 62
     7
100
AcDbLine
 10
1583.5036846183
 20
947.4453017235
 30
0.0
 11
1583.5036846183
 21
946.207357955
 31
0.0
  0
ELLIPSE
  5
61
330
1F
100
AcDbEntity
  8
0
  6
CONTINUOUS
 62
     7
100
AcDbEllipse
 10
1582.1022727273
 20
941.7704149851
 30
0.0
 11
0.0
 21
4.653144134674676
 31
0.0
210
0.0
220
0.0
230
1.0
 40
0.9996651034
 41
5.977153587925197
 42
6.907052618881095
  0
LINE
  5
62
330
1F
100
AcDbEntity
  8
0
  6
CONTINUOUS
 62
     7
100
AcDbLine
 10
1579.3849142573
 20
945.5470278978
 30
0.0
 11
1214.8196311972
 21
945.5470278978
 31
0.0
  0
ELLIPSE
  5
63
330
1F
100
AcDbEntity
  8
0
  6
CONTINUOUS
 62
     7
100
AcDbEllipse
 10
1212.1022727273
 20
941.7704149851
 30
0.0
 11
0.0
 21
4.653144134674676
 31
0.0
210
0.0
220
0.0
230
1.0
 40
0.9996651034
 41
5.659317995478131
 42
6.589217018515849
  0
ARC
  5
64
330
1F
100
AcDbEntity
  8
0
  6
CONTINUOUS
 62
     7
100
AcDbCircle
 10
1583.4997390769
 20
943.0445897446
 30
0.0
 40
4.400713747629576
100
AcDbArc
 50
0.0515637805
 51
89.948630402
  0
LINE
  5
65
330
1F
100
AcDbEntity
  8
0
  6
CONTINUOUS
 62
     7
100
AcDbLine
 10
1587.9004510424
 20
943.0485502005
 30
0.0
 11
1586.6604509137
 21
943.0485502005
 31
0.0
  0
ARC
  5
66
330
1F
100
AcDbEntity
  8
0
  6
CONTINUOUS
 62
     7
100
AcDbCircle
 10
1582.044677696
 20
941.5925269976
 30
0.0
 40
4.839975822766192
100
AcDbArc
 50
17.507626456
 51
72.4553327352
  0
LINE
  5
67
330
1F
100
AcDbEntity
  8
0
  6
CONTINUOUS
 62
     7
100
AcDbLine
 10
1586.0021623156
 20
515.4632315159
 30
0.0
 11
1586.0021623156
 21
938.9367684841
 31
0.0
  0
ELLIPSE
  5
68
330
1F
100
AcDbEntity
  8
0
  6
CONTINUOUS
 62
     7
100
AcDbEllipse
 10
1582.2226857899
 20
941.65
 30
0.0
 11
4.653069846597191
 21
0.0
 31
0.0
210
0.0
220
0.0
230
1.0
 40
0.9996651034
 41
5.660397073926517
 42
6.58857533884302
  0
LINE
  5
69
330
1F
100
AcDbEntity
  8
0
  6
CONTINUOUS
 62
     7
100
AcDbLine
 10
1587.9004510424
 20
943.0485502005
 30
0.0
 11
1587.9004510424
 21
511.3514497995
 31
0.0
  0
LINE
  5
6A
330
1F
100
AcDbEntity
  8
0
  6
CONTINUOUS
 62
     7
100
AcDbLine
 10
1586.6604509137
 20
511.3514497995
 30
0.0
 11
1587.9004510424
 21
511.3514497995
 31
0.0
  0
ELLIPSE
  5
6B
330
1F
100
AcDbEntity
  8
0
  6
CONTINUOUS
 62
     7
100
AcDbEllipse
 10
1582.2226857899
 20
512.75
 30
0.0
 11
4.653069846597191
 21
0.0
 31
0.0
210
0.0
220
0.0
230
1.0
 40
0.9996651034
 41
5.977795267660551
 42
6.905973540432678
  0
LINE
  5
6C
330
1F
100
AcDbEntity
  8
0
  6
CONTINUOUS
 62
     7
100
AcDbLine
 10
1583.5036846183
 20
508.192642045
 30
0.0
 11
1583.5036846183
 21
506.9546982765
 31
0.0
  0
LINE
  5
6D
330
1F
100
AcDbEntity
  8
0
  6
CONTINUOUS
 62
     7
100
AcDbLine
 10
1583.5036846183
 20
506.9546982765
 30
0.0
 11
1210.7008608363
 21
506.9546982765
 31
0.0
  0
ELLIPSE
  5
6E
330
1F
100
AcDbEntity
  8
0
  6
CONTINUOUS
 62
     7
100
AcDbEllipse
 10
1212.1022727273
 20
512.6295850149
 30
0.0
 11
0.0
 21
4.653144134674562
 31
0.0
210
0.0
220
0.0
230
1.0
 40
0.9996651034
 41
2.835560934335394
 42
3.765459965291258
  0
LINE
  5
6F
330
1F
100
AcDbEntity
  8
0
  6
CONTINUOUS
 62
     7
100
AcDbLine
 10
1214.8196311972
 20
508.8529721022
 30
0.0
 11
1579.3849142573
 21
508.8529721022
 31
0.0
  0
ELLIPSE
  5
70
330
1F
100
AcDbEntity
  8
0
  6
CONTINUOUS
 62
     7
100
AcDbEllipse
 10
1582.1022727273
 20
512.6295850149
 30
0.0
 11
0.0
 21
4.653144134674562
 31
0.0
210
0.0
220
0.0
230
1.0
 40
0.9996651034
 41
2.517725341888303
 42
3.44762436492602
  0
ARC
  5
71
330
1F
100
AcDbEntity
  8
0
  6
CONTINUOUS
 62
     7
100
AcDbCircle
 10
1583.4997390769
 20
511.3554102554
 30
0.0
 40
4.40071374762923
100
AcDbArc
 50
270.051369598
 51
359.9484362195
  0
ARC
  5
72
330
1F
100
AcDbEntity
  8
0
  6
CONTINUOUS
 62
     7
100
AcDbCircle
 10
1582.0447085901
 20
512.8074421282
 30
0.0
 40
4.839937071759159
100
AcDbArc
 50
287.544428726
 51
342.4926120828
  0
LINE
  5
73
330
1F
100
AcDbEntity
  8
0
  6
CONTINUOUS
 62
     7
100
AcDbLine
 10
1205.1022710583
 20
898.5500022888
 30
0.0
 11
1205.1022710583
 21
943.1504890442
 31
0.0
  0
ELLIPSE
  5
74
330
1F
100
AcDbEntity
  8
0
  6
CONTINUOUS
 62
     7
100
AcDbEllipse
 10
1210.6056252209
 20
943.1437787468
 30
0.0
 11
-3.893826995295512
 21
3.893826995295512
 31
0.0
210
0.0
220
0.0
230
0.9999999999999998
 40
0.998782766
 41
5.498396131367738
 42
7.067974482991428
  0
LINE
  5
75
330
1F
100
AcDbEntity
  8
0
  6
CONTINUOUS
 62
     7
100
AcDbLine
 10
1210.5989219926
 20
948.6471250772
 30
0.0
 11
1583.605623462
 21
948.6471250772
 31
0.0
  0
ELLIPSE
  5
76
330
1F
100
AcDbEntity
  8
0
  6
CONTINUOUS
 62
     7
100
AcDbEllipse
 10
1583.5989202336
 20
943.1437787468
 30
0.0
 11
3.893826995295739
 21
3.893826995295512
 31
0.0
210
0.0
220
0.0
230
1.0
 40
0.998782766
 41
5.49839613136778
 42
7.067974482991444
  0
LINE
  5
77
330
1F
100
AcDbEntity
  8
0
  6
CONTINUOUS
 62
     7
100
AcDbLine
 10
1589.1022743962
 20
943.1504890442
 30
0.0
 11
1589.1022743962
 21
511.2495109558
 31
0.0
  0
ELLIPSE
  5
78
330
1F
100
AcDbEntity
  8
0
  6
CONTINUOUS
 62
     7
100
AcDbEllipse
 10
1583.5989202336
 20
511.2562212532
 30
0.0
 11
3.893826995295739
 21
-3.893826995295512
 31
0.0
210
0.0
220
0.0
230
0.9999999999999998
 40
0.998782766
 41
5.498396131367747
 42
7.067974482991392
  0
LINE
  5
79
330
1F
100
AcDbEntity
  8
0
  6
CONTINUOUS
 62
     7
100
AcDbLine
 10
1583.605623462
 20
505.7528749228
 30
0.0
 11
1210.5989219926
 21
505.7528749228
 31
0.0
  0
ELLIPSE
  5
7A
330
1F
100
AcDbEntity
  8
0
  6
CONTINUOUS
 62
     7
100
AcDbEllipse
 10
1210.6056252209
 20
511.2562212532
 30
0.0
 11
-3.893826995295512
 21
-3.893826995295512
 31
0.0
210
0.0
220
0.0
230
0.9999999999999998
 40
0.998782766
 41
5.498396131367763
 42
7.067974482991445
  0
LINE
  5
7B
330
1F
100
AcDbEntity
  8
0
  6
CONTINUOUS
 62
     7
100
AcDbLine
 10
1205.1022710583
 20
511.2495109558
 30
0.0
 11
1205.1022710583
 21
555.8000043154
 31
0.0
  0
LINE
  5
7C
330
1F
100
AcDbEntity
  8
0
  6
CONTINUOUS
 62
     7
100
AcDbLine
 10
1205.1022710583
 20
555.8000043154
 30
0.0
 11
1205.1022710583
 21
586.0500022888
 31
0.0
  0
LINE
  5
7D
330
1F
100
AcDbEntity
  8
0
  6
CONTINUOUS
 62
     7
100
AcDbLine
 10
1205.1022710583
 20
586.0500022888
 30
0.0
 11
1205.1022710583
 21
618.2999968648
 31
0.0
  0
LINE
  5
7E
330
1F
100
AcDbEntity
  8
0
  6
CONTINUOUS
 62
     7
100
AcDbLine
 10
1205.1022710583
 20
618.2999968648
 30
0.0
 11
1205.1022710583
 21
648.5500022888
 31
0.0
  0
LINE
  5
7F
330
1F
100
AcDbEntity
  8
0
  6
CONTINUOUS
 62
     7
100
AcDbLine
 10
1205.1022710583
 20
648.5500022888
 30
0.0
 11
1205.1022710583
 21
680.8000005901
 31
0.0
  0
LINE
  5
80
330
1F
100
AcDbEntity
  8
0
  6
CONTINUOUS
 62
     7
100
AcDbLine
 10
1205.1022710583
 20
680.8000005901
 30
0.0
 11
1205.1022710583
 21
711.0500004262
 31
0.0
  0
LINE
  5
81
330
1F
100
AcDbEntity
  8
0
  6
CONTINUOUS
 62
     7
100
AcDbLine
 10
1205.1022710583
 20
711.0500004262
 30
0.0
 11
1205.1022710583
 21
743.3000005901
 31
0.0
  0
LINE
  5
82
330
1F
100
AcDbEntity
  8
0
  6
CONTINUOUS
 62
     7
100
AcDbLine
 10
1205.1022710583
 20
743.3000005901
 30
0.0
 11
1205.1022710583
 21
773.5499985635
 31
0.0
  0
LINE
  5
83
330
1F
100
AcDbEntity
  8
0
  6
CONTINUOUS
 62
     7
100
AcDbLine
 10
1205.1022710583
 20
773.5499985635
 30
0.0
 11
1205.1022710583
 21
805.7999968648
 31
0.0
  0
LINE
  5
84
330
1F
100
AcDbEntity
  8
0
  6
CONTINUOUS
 62
     7
100
AcDbLine
 10
1205.1022710583
 20
805.7999968648
 30
0.0
 11
1205.1022710583
 21
836.0500022888
 31
0.0
  0
LINE
  5
85
330
1F
100
AcDbEntity
  8
0
  6
CONTINUOUS
 62
     7
100
AcDbLine
 10
1205.1022710583
 20
836.0500022888
 30
0.0
 11
1205.1022710583
 21
868.3000043154
 31
0.0
  0
LINE
  5
86
330
1F
100
AcDbEntity
  8
0
  6
CONTINUOUS
 62
     7
100
AcDbLine
 10
1205.1022710583
 20
868.3000043154
 30
0.0
 11
1205.1022710583
 21
898.5500022888
 31
0.0
  0
LINE
  5
87
330
1F
100
AcDbEntity
  8
0
  6
CONTINUOUS
 62
     7
100
AcDbLine
 10
1205.1022710583
 20
868.3000043154
 30
0.0
 11
1197.0919879458
 21
868.3000043154
 31
0.0
  0
LINE
  5
88
330
1F
100
AcDbEntity
  8
0
  6
CONTINUOUS
 62
     7
100
AcDbLine
 10
1197.0919879458
 20
868.3000043154
 30
0.0
 11
1197.0919879458
 21
898.5500022888
 31
0.0
  0
LINE
  5
89
330
1F
100
AcDbEntity
  8
0
  6
CONTINUOUS
 62
     7
100
AcDbLine
 10
1205.1022710583
 20
898.5500022888
 30
0.0
 11
1197.0919879458
 21
898.5500022888
 31
0.0
  0
LINE
  5
8A
330
1F
100
AcDbEntity
  8
0
  6
CONTINUOUS
 62
     7
100
AcDbLine
 10
1205.1022710583
 20
805.7999968648
 30
0.0
 11
1197.0919879458
 21
805.7999968648
 31
0.0
  0
LINE
  5
8B
330
1F
100
AcDbEntity
  8
0
  6
CONTINUOUS
 62
     7
100
AcDbLine
 10
1197.0919879458
 20
805.7999968648
 30
0.0
 11
1197.0919879458
 21
836.0500022888
 31
0.0
  0
LINE
  5
8C
330
1F
100
AcDbEntity
  8
0
  6
CONTINUOUS
 62
     7
100
AcDbLine
 10
1205.1022710583
 20
836.0500022888
 30
0.0
 11
1197.0919879458
 21
836.0500022888
 31
0.0
  0
LINE
  5
8D
330
1F
100
AcDbEntity
  8
0
  6
CONTINUOUS
 62
     7
100
AcDbLine
 10
1197.0919879458
 20
680.8000005901
 30
0.0
 11
1197.0919879458
 21
711.0500004262
 31
0.0
  0
LINE
  5
8E
330
1F
100
AcDbEntity
  8
0
  6
CONTINUOUS
 62
     7
100
AcDbLine
 10
1205.1022710583
 20
711.0500004262
 30
0.0
 11
1197.0919879458
 21
711.0500004262
 31
0.0
  0
LINE
  5
8F
330
1F
100
AcDbEntity
  8
0
  6
CONTINUOUS
 62
     7
100
AcDbLine
 10
1205.1022710583
 20
680.8000005901
 30
0.0
 11
1197.0919879458
 21
680.8000005901
 31
0.0
  0
LINE
  5
90
330
1F
100
AcDbEntity
  8
0
  6
CONTINUOUS
 62
     7
100
AcDbLine
 10
1205.1022710583
 20
618.2999968648
 30
0.0
 11
1197.0919879458
 21
618.2999968648
 31
0.0
  0
LINE
  5
91
330
1F
100
AcDbEntity
  8
0
  6
CONTINUOUS
 62
     7
100
AcDbLine
 10
1197.0919879458
 20
618.2999968648
 30
0.0
 11
1197.0919879458
 21
648.5500022888
 31
0.0
  0
LINE
  5
92
330
1F
100
AcDbEntity
  8
0
  6
CONTINUOUS
 62
     7
100
AcDbLine
 10
1205.1022710583
 20
648.5500022888
 30
0.0
 11
1197.0919879458
 21
648.5500022888
 31
0.0
  0
LINE
  5
93
330
1F
100
AcDbEntity
  8
0
  6
CONTINUOUS
 62
     7
100
AcDbLine
 10
1197.0919879458
 20
743.3000005901
 30
0.0
 11
1197.0919879458
 21
773.5499985635
 31
0.0
  0
LINE
  5
94
330
1F
100
AcDbEntity
  8
0
  6
CONTINUOUS
 62
     7
100
AcDbLine
 10
1205.1022710583
 20
743.3000005901
 30
0.0
 11
1197.0919879458
 21
743.3000005901
 31
0.0
  0
LINE
  5
95
330
1F
100
AcDbEntity
  8
0
  6
CONTINUOUS
 62
     7
100
AcDbLine
 10
1205.1022710583
 20
773.5499985635
 30
0.0
 11
1197.0919879458
 21
773.5499985635
 31
0.0
  0
LINE
  5
96
330
1F
100
AcDbEntity
  8
0
  6
CONTINUOUS
 62
     7
100
AcDbLine
 10
1197.0919879458
 20
555.8000043154
 30
0.0
 11
1197.0919879458
 21
586.0500022888
 31
0.0
  0
LINE
  5
97
330
1F
100
AcDbEntity
  8
0
  6
CONTINUOUS
 62
     7
100
AcDbLine
 10
1205.1022710583
 20
586.0500022888
 30
0.0
 11
1197.0919879458
 21
586.0500022888
 31
0.0
  0
LINE
  5
98
330
1F
100
AcDbEntity
  8
0
  6
CONTINUOUS
 62
     7
100
AcDbLine
 10
1205.1022710583
 20
555.8000043154
 30
0.0
 11
1197.0919879458
 21
555.8000043154
 31
0.0
  0
ARC
  5
99
330
1F
100
AcDbEntity
  8
0
  6
CONTINUOUS
 62
     7
100
AcDbCircle
 10
1212.1022727273
 20
941.65
 30
0.0
 40
4.744143792229804
100
AcDbArc
 50
54.9448937263
 51
214.9947394967
  0
ELLIPSE
  5
9A
330
1F
100
AcDbEntity
  8
0
  6
CONTINUOUS
 62
     7
100
AcDbEllipse
 10
1210.2355386195
 20
941.65
 30
0.0
 11
3.734606072749329
 21
0.0
 31
0.0
210
0.0
220
0.0
230
1.0
 40
0.8661133393
 41
4.136702630544029
 42
4.14099604383514
  0
ELLIPSE
  5
9B
330
1F
100
AcDbEntity
  8
0
  6
CONTINUOUS
 62
     7
100
AcDbEllipse
 10
1212.1022727273
 20
943.5176895843
 30
0.0
 11
0.0
 21
3.736517608217355
 31
0.0
210
0.0
220
0.0
230
1.0
 40
0.8661133393
 41
5.28223700908294
 42
5.286523943867248
  0
ELLIPSE
  5
9C
330
1F
100
AcDbEntity
  8
0
  6
CONTINUOUS
 62
     7
100
AcDbEllipse
 10
1583.9690068351
 20
941.65
 30
0.0
 11
3.734606072749557
 21
0.0
 31
0.0
210
0.0
220
0.0
230
1.0
 40
0.8661133393
 41
5.283781916934187
 42
5.288075330225299
  0
ARC
  5
9D
330
1F
100
AcDbEntity
  8
0
  6
CONTINUOUS
 62
     7
100
AcDbCircle
 10
1582.1022727273
 20
941.65
 30
0.0
 40
4.744143792229647
100
AcDbArc
 50
325.0052605033
 51
125.0551062737
  0
ELLIPSE
  5
9E
330
1F
100
AcDbEntity
  8
0
  6
CONTINUOUS
 62
     7
100
AcDbEllipse
 10
1582.1022727273
 20
943.5176895843
 30
0.0
 11
0.0
 21
3.736517608217355
 31
0.0
210
0.0
220
0.0
230
1.0
 40
0.8661133393
 41
0.9966613633124214
 42
1.000948298096692
  0
ELLIPSE
  5
9F
330
1F
100
AcDbEntity
  8
0
  6
CONTINUOUS
 62
     7
100
AcDbEllipse
 10
1210.2355386195
 20
512.75
 30
0.0
 11
3.734606072749329
 21
0.0
 31
0.0
210
0.0
220
0.0
230
1.0
 40
0.8661133393
 41
2.142189263344475
 42
2.146482676635568
  0
ARC
  5
A0
330
1F
100
AcDbEntity
  8
0
  6
CONTINUOUS
 62
     7
100
AcDbCircle
 10
1212.1022727273
 20
512.75
 30
0.0
 40
4.744143792229804
100
AcDbArc
 50
145.0052605033
 51
305.0551062737
  0
ELLIPSE
  5
A1
330
1F
100
AcDbEntity
  8
0
  6
CONTINUOUS
 62
     7
100
AcDbEllipse
 10
1212.1022727273
 20
510.8823104157
 30
0.0
 11
0.0
 21
3.736517608217468
 31
0.0
210
0.0
220
0.0
230
1.0
 40
0.8661133393
 41
4.138254016902158
 42
4.142540951686493
  0
ELLIPSE
  5
A2
330
1F
100
AcDbEntity
  8
0
  6
CONTINUOUS
 62
     7
100
AcDbEllipse
 10
1582.1022727273
 20
510.8823104157
 30
0.0
 11
0.0
 21
3.736517608217468
 31
0.0
210
0.0
220
0.0
230
1.0
 40
0.8661133393
 41
2.140644355493075
 42
2.144931290277371
  0
ARC
  5
A3
330
1F
100
AcDbEntity
  8
0
  6
CONTINUOUS
 62
     7
100
AcDbCircle
 10
1582.1022727273
 20
512.75
 30
0.0
 40
4.744143792229618
100
AcDbArc
 50
234.9448937263
 51
34.9947394967
  0
ELLIPSE
  5
A4
330
1F
100
AcDbEntity
  8
0
  6
CONTINUOUS
 62
     7
100
AcDbEllipse
 10
1583.9690068351
 20
512.75
 30
0.0
 11
3.734606072749557
 21
0.0
 31
0.0
210
0.0
220
0.0
230
1.0
 40
0.8661133393
 41
0.9951099769543044
 42
0.9994033902453973
  0
LINE
  5
A5
330
1F
100
AcDbEntity
  8
0
  6
CONTINUOUS
 62
     7
100
AcDbLine
 10
1232.7922495387
 20
935.9345272303
 30
0.0
 11
1218.6899097941
 21
935.6883749485
 31
0.0
  0
LINE
  5
A6
330
1F
100
AcDbEntity
  8
0
  6
CONTINUOUS
 62
     7
100
AcDbLine
 10
1218.5302140496
 20
935.8453139782
 30
0.0
 11
1218.6899097941
 21
935.6883749485
 31
0.0
  0
LINE
  5
A7
330
1F
100
AcDbEntity
  8
0
  6
CONTINUOUS
 62
     7
100
AcDbLine
 10
1218.5302140496
 20
935.8453139782
 30
0.0
 11
1397.1022727273
 21
938.9622941732
 31
0.0
  0
LINE
  5
A8
330
1F
100
AcDbEntity
  8
0
  6
CONTINUOUS
 62
     7
100
AcDbLine
 10
1397.1022727273
 20
938.9622941732
 30
0.0
 11
1397.1022727273
 21
938.8613686085
 31
0.0
  0
LINE
  5
A9
330
1F
100
AcDbEntity
  8
0
  6
CONTINUOUS
 62
     7
100
AcDbLine
 10
1397.1022727273
 20
938.8613686085
 30
0.0
 11
1232.8510346196
 21
935.9943553925
 31
0.0
  0
LINE
  5
AA
330
1F
100
AcDbEntity
  8
0
  6
CONTINUOUS
 62
     7
100
AcDbLine
 10
1232.8510346196
 20
935.9943553925
 30
0.0
 11
1232.7922495387
 21
935.9345272303
 31
0.0
  0
LINE
  5
AB
330
1F
100
AcDbEntity
  8
0
  6
CONTINUOUS
 62
     7
100
AcDbLine
 10
1575.6743314049
 20
518.5546860218
 30
0.0
 11
1575.5146356604
 21
518.7116250515
 31
0.0
  0
LINE
  5
AC
330
1F
100
AcDbEntity
  8
0
  6
CONTINUOUS
 62
     7
100
AcDbLine
 10
1575.6743314049
 20
518.5546860218
 30
0.0
 11
1397.1022727273
 21
515.4377058268
 31
0.0
  0
LINE
  5
AD
330
1F
100
AcDbEntity
  8
0
  6
CONTINUOUS
 62
     7
100
AcDbLine
 10
1397.1022727273
 20
515.4377058268
 30
0.0
 11
1397.1022727273
 21
515.5386313915
 31
0.0
  0
LINE
  5
AE
330
1F
100
AcDbEntity
  8
0
  6
CONTINUOUS
 62
     7
100
AcDbLine
 10
1397.1022727273
 20
515.5386313915
 30
0.0
 11
1561.353510835
 21
518.4056446075
 31
0.0
  0
LINE
  5
AF
330
1F
100
AcDbEntity
  8
0
  6
CONTINUOUS
 62
     7
100
AcDbLine
 10
1561.353510835
 20
518.4056446075
 30
0.0
 11
1561.4122959159
 21
518.4654727697
 31
0.0
  0
LINE
  5
B0
330
1F
100
AcDbEntity
  8
0
  6
CONTINUOUS
 62
     7
100
AcDbLine
 10
1561.4122959159
 20
518.4654727697
 30
0.0
 11
1575.5146356604
 21
518.7116250515
 31
0.0
  0
ELLIPSE
  5
B1
330
1F
100
AcDbEntity
  8
0
  6
CONTINUOUS
 62
     7
100
AcDbEllipse
 10
1575.6129857204
 20
522.0542853223
 30
0.0
 11
2.496563423516591
 21
-2.453366043484607
 31
0.0
210
0.0
220
0.0
230
1.0
 40
0.9999251565
 41
5.506551207454867
 42
7.059819406904352
  0
LINE
  5
B2
330
1F
100
AcDbEntity
  8
0
  6
CONTINUOUS
 62
     7
100
AcDbLine
 10
1575.5146356604
 20
518.7116250515
 30
0.0
 11
1576.8351169608
 21
518.9953133583
 31
0.0
  0
LINE
  5
B3
330
1F
100
AcDbEntity
  8
0
  6
CONTINUOUS
 62
     7
100
AcDbLine
 10
1576.8351169608
 20
518.9953133583
 30
0.0
 11
1577.9498430274
 21
519.7578504801
 31
0.0
  0
LINE
  5
B4
330
1F
100
AcDbEntity
  8
0
  6
CONTINUOUS
 62
     7
100
AcDbLine
 10
1577.9498430274
 20
519.7578504801
 30
0.0
 11
1578.6928298257
 21
520.8857193708
 31
0.0
  0
LINE
  5
B5
330
1F
100
AcDbEntity
  8
0
  6
CONTINUOUS
 62
     7
100
AcDbLine
 10
1578.6928298257
 20
520.8857193708
 30
0.0
 11
1578.9534213326
 21
522.2109690428
 31
0.0
  0
LINE
  5
B6
330
1F
100
AcDbEntity
  8
0
  6
CONTINUOUS
 62
     7
100
AcDbLine
 10
1578.9534213326
 20
522.2109690428
 30
0.0
 11
1579.1131170771
 21
522.0540300131
 31
0.0
  0
ELLIPSE
  5
B7
330
1F
100
AcDbEntity
  8
0
  6
CONTINUOUS
 62
     7
100
AcDbEllipse
 10
1218.5915597342
 20
932.3457146777
 30
0.0
 11
-2.49656342351659
 21
2.45336604348438
 31
0.0
210
0.0
220
0.0
230
1.0
 40
0.9999251565
 41
5.506551207454863
 42
7.059819406904329
  0
LINE
  5
B8
330
1F
100
AcDbEntity
  8
0
  6
CONTINUOUS
 62
     7
100
AcDbLine
 10
1218.6899097941
 20
935.6883749485
 30
0.0
 11
1217.3694284938
 21
935.4046866417
 31
0.0
  0
LINE
  5
B9
330
1F
100
AcDbEntity
  8
0
  6
CONTINUOUS
 62
     7
100
AcDbLine
 10
1217.3694284938
 20
935.4046866417
 30
0.0
 11
1216.2547024272
 21
934.6421495199
 31
0.0
  0
LINE
  5
BA
330
1F
100
AcDbEntity
  8
0
  6
CONTINUOUS
 62
     7
100
AcDbLine
 10
1216.2547024272
 20
934.6421495199
 30
0.0
 11
1215.5117156289
 21
933.5142806292
 31
0.0
  0
LINE
  5
BB
330
1F
100
AcDbEntity
  8
0
  6
CONTINUOUS
 62
     7
100
AcDbLine
 10
1215.5117156289
 20
933.5142806292
 30
0.0
 11
1215.2511241219
 21
932.1890309572
 31
0.0
  0
LINE
  5
BC
330
1F
100
AcDbEntity
  8
0
  6
CONTINUOUS
 62
     7
100
AcDbLine
 10
1215.2511241219
 20
932.1890309572
 30
0.0
 11
1215.0914283774
 21
932.3459699869
 31
0.0
  0
LINE
  5
BD
330
1F
100
AcDbEntity
  8
0
  6
CONTINUOUS
 62
     7
100
AcDbLine
 10
1397.1022727273
 20
938.9622941732
 30
0.0
 11
1575.6743314049
 21
935.8453139782
 31
0.0
  0
LINE
  5
BE
330
1F
100
AcDbEntity
  8
0
  6
CONTINUOUS
 62
     7
100
AcDbLine
 10
1575.5146356604
 20
935.6883749485
 30
0.0
 11
1575.6743314049
 21
935.8453139782
 31
0.0
  0
LINE
  5
BF
330
1F
100
AcDbEntity
  8
0
  6
CONTINUOUS
 62
     7
100
AcDbLine
 10
1575.5146356604
 20
935.6883749485
 30
0.0
 11
1561.4122959159
 21
935.9345272303
 31
0.0
  0
LINE
  5
C0
330
1F
100
AcDbEntity
  8
0
  6
CONTINUOUS
 62
     7
100
AcDbLine
 10
1561.353510835
 20
935.9943553925
 30
0.0
 11
1561.4122959159
 21
935.9345272303
 31
0.0
  0
LINE
  5
C1
330
1F
100
AcDbEntity
  8
0
  6
CONTINUOUS
 62
     7
100
AcDbLine
 10
1561.353510835
 20
935.9943553925
 30
0.0
 11
1397.1022727273
 21
938.8613686085
 31
0.0
  0
ELLIPSE
  5
C2
330
1F
100
AcDbEntity
  8
0
  6
CONTINUOUS
 62
     7
100
AcDbEllipse
 10
1575.6129857204
 20
932.3457146777
 30
0.0
 11
2.49656342351659
 21
2.45336604348438
 31
0.0
210
0.0
220
0.0
230
1.0
 40
0.9999251565
 41
5.506551207454869
 42
7.059819406904377
  0
LINE
  5
C3
330
1F
100
AcDbEntity
  8
0
  6
CONTINUOUS
 62
     7
100
AcDbLine
 10
1579.1131170771
 20
932.3459699869
 30
0.0
 11
1578.9534213326
 21
932.1890309572
 31
0.0
  0
LINE
  5
C4
330
1F
100
AcDbEntity
  8
0
  6
CONTINUOUS
 62
     7
100
AcDbLine
 10
1578.9534213326
 20
932.1890309572
 30
0.0
 11
1578.6928298257
 21
933.5142806292
 31
0.0
  0
LINE
  5
C5
330
1F
100
AcDbEntity
  8
0
  6
CONTINUOUS
 62
     7
100
AcDbLine
 10
1578.6928298257
 20
933.5142806292
 30
0.0
 11
1577.9498430274
 21
934.6421495199
 31
0.0
  0
LINE
  5
C6
330
1F
100
AcDbEntity
  8
0
  6
CONTINUOUS
 62
     7
100
AcDbLine
 10
1577.9498430274
 20
934.6421495199
 30
0.0
 11
1576.8351169608
 21
935.4046866417
 31
0.0
  0
LINE
  5
C7
330
1F
100
AcDbEntity
  8
0
  6
CONTINUOUS
 62
     7
100
AcDbLine
 10
1576.8351169608
 20
935.4046866417
 30
0.0
 11
1575.5146356604
 21
935.6883749485
 31
0.0
  0
LINE
  5
C8
330
1F
100
AcDbEntity
  8
0
  6
CONTINUOUS
 62
     7
100
AcDbLine
 10
1579.1131170771
 20
932.3459699869
 30
0.0
 11
1579.1131170771
 21
522.0540300131
 31
0.0
  0
LINE
  5
C9
330
1F
100
AcDbEntity
  8
0
  6
CONTINUOUS
 62
     7
100
AcDbLine
 10
1578.9534213326
 20
522.2109690428
 30
0.0
 11
1578.9534213326
 21
537.8899708509
 31
0.0
  0
LINE
  5
CA
330
1F
100
AcDbEntity
  8
0
  6
CONTINUOUS
 62
     7
100
AcDbLine
 10
1579.0122064135
 20
537.9487559319
 30
0.0
 11
1578.9534213326
 21
537.8899708509
 31
0.0
  0
LINE
  5
CB
330
1F
100
AcDbEntity
  8
0
  6
CONTINUOUS
 62
     7
100
AcDbLine
 10
1579.0122064135
 20
537.9487559319
 30
0.0
 11
1579.0122064135
 21
916.4512440681
 31
0.0
  0
LINE
  5
CC
330
1F
100
AcDbEntity
  8
0
  6
CONTINUOUS
 62
     7
100
AcDbLine
 10
1579.0122064135
 20
916.4512440681
 30
0.0
 11
1578.9534213326
 21
916.5100291491
 31
0.0
  0
LINE
  5
CD
330
1F
100
AcDbEntity
  8
0
  6
CONTINUOUS
 62
     7
100
AcDbLine
 10
1578.9534213326
 20
916.5100291491
 30
0.0
 11
1578.9534213326
 21
932.1890309572
 31
0.0
  0
LINE
  5
CE
330
1F
100
AcDbEntity
  8
0
  6
CONTINUOUS
 62
     7
100
AcDbLine
 10
1397.1022727273
 20
515.4377058268
 30
0.0
 11
1218.5302140496
 21
518.5546860218
 31
0.0
  0
LINE
  5
CF
330
1F
100
AcDbEntity
  8
0
  6
CONTINUOUS
 62
     7
100
AcDbLine
 10
1218.6899097941
 20
518.7116250515
 30
0.0
 11
1218.5302140496
 21
518.5546860218
 31
0.0
  0
LINE
  5
D0
330
1F
100
AcDbEntity
  8
0
  6
CONTINUOUS
 62
     7
100
AcDbLine
 10
1218.6899097941
 20
518.7116250515
 30
0.0
 11
1232.7922495387
 21
518.4654727697
 31
0.0
  0
LINE
  5
D1
330
1F
100
AcDbEntity
  8
0
  6
CONTINUOUS
 62
     7
100
AcDbLine
 10
1232.8510346196
 20
518.4056446075
 30
0.0
 11
1232.7922495387
 21
518.4654727697
 31
0.0
  0
LINE
  5
D2
330
1F
100
AcDbEntity
  8
0
  6
CONTINUOUS
 62
     7
100
AcDbLine
 10
1232.8510346196
 20
518.4056446075
 30
0.0
 11
1397.1022727273
 21
515.5386313915
 31
0.0
  0
ELLIPSE
  5
D3
330
1F
100
AcDbEntity
  8
0
  6
CONTINUOUS
 62
     7
100
AcDbEllipse
 10
1218.5915597342
 20
522.0542853223
 30
0.0
 11
-2.496563423516591
 21
-2.453366043484607
 31
0.0
210
0.0
220
0.0
230
1.0
 40
0.9999251565
 41
5.5065512074548
 42
7.059819406904355
  0
LINE
  5
D4
330
1F
100
AcDbEntity
  8
0
  6
CONTINUOUS
 62
     7
100
AcDbLine
 10
1215.0914283774
 20
522.0540300131
 30
0.0
 11
1215.2511241219
 21
522.2109690428
 31
0.0
  0
LINE
  5
D5
330
1F
100
AcDbEntity
  8
0
  6
CONTINUOUS
 62
     7
100
AcDbLine
 10
1215.2511241219
 20
522.2109690428
 30
0.0
 11
1215.5117156289
 21
520.8857193708
 31
0.0
  0
LINE
  5
D6
330
1F
100
AcDbEntity
  8
0
  6
CONTINUOUS
 62
     7
100
AcDbLine
 10
1215.5117156289
 20
520.8857193708
 30
0.0
 11
1216.2547024272
 21
519.7578504801
 31
0.0
  0
LINE
  5
D7
330
1F
100
AcDbEntity
  8
0
  6
CONTINUOUS
 62
     7
100
AcDbLine
 10
1216.2547024272
 20
519.7578504801
 30
0.0
 11
1217.3694284938
 21
518.9953133583
 31
0.0
  0
LINE
  5
D8
330
1F
100
AcDbEntity
  8
0
  6
CONTINUOUS
 62
     7
100
AcDbLine
 10
1217.3694284938
 20
518.9953133583
 30
0.0
 11
1218.6899097941
 21
518.7116250515
 31
0.0
  0
LINE
  5
D9
330
1F
100
AcDbEntity
  8
0
  6
CONTINUOUS
 62
     7
100
AcDbLine
 10
1215.192339041
 20
537.9487559319
 30
0.0
 11
1215.2511241219
 21
537.8899708509
 31
0.0
  0
LINE
  5
DA
330
1F
100
AcDbEntity
  8
0
  6
CONTINUOUS
 62
     7
100
AcDbLine
 10
1215.2511241219
 20
537.8899708509
 30
0.0
 11
1215.2511241219
 21
522.2109690428
 31
0.0
  0
LINE
  5
DB
330
1F
100
AcDbEntity
  8
0
  6
CONTINUOUS
 62
     7
100
AcDbLine
 10
1215.0914283774
 20
522.0540300131
 30
0.0
 11
1215.0914283774
 21
932.3459699869
 31
0.0
  0
LINE
  5
DC
330
1F
100
AcDbEntity
  8
0
  6
CONTINUOUS
 62
     7
100
AcDbLine
 10
1215.2511241219
 20
932.1890309572
 30
0.0
 11
1215.2511241219
 21
916.5100291491
 31
0.0
  0
LINE
  5
DD
330
1F
100
AcDbEntity
  8
0
  6
CONTINUOUS
 62
     7
100
AcDbLine
 10
1215.192339041
 20
916.4512440681
 30
0.0
 11
1215.2511241219
 21
916.5100291491
 31
0.0
  0
LINE
  5
DE
330
1F
100
AcDbEntity
  8
0
  6
CONTINUOUS
 62
     7
100
AcDbLine
 10
1215.192339041
 20
916.4512440681
 30
0.0
 11
1215.192339041
 21
537.9487559319
 31
0.0
  0
LINE
  5
DF
330
1F
100
AcDbEntity
  8
0
  6
CONTINUOUS
 62
     7
100
AcDbLine
 10
1577.4551095746
 20
516.7827144384
 30
0.0
 11
1575.776851394
 21
516.4886251211
 31
0.0
  0
LINE
  5
E0
330
1F
100
AcDbEntity
  8
0
  6
CONTINUOUS
 62
     7
100
AcDbLine
 10
1575.776851394
 20
516.4886251211
 30
0.0
 11
1575.6866248629
 21
516.5772870302
 31
0.0
  0
ELLIPSE
  5
E1
330
1F
100
AcDbEntity
  8
0
  6
CONTINUOUS
 62
     7
100
AcDbEllipse
 10
1575.5902197073
 20
522.076657421
 30
0.0
 11
3.923171094097598
 21
-3.855289496904107
 31
0.0
210
0.0
220
0.0
230
1.0
 40
0.9999251565
 41
5.506551207454862
 42
7.059819406904326
  0
LINE
  5
E2
330
1F
100
AcDbEntity
  8
0
  6
CONTINUOUS
 62
     7
100
AcDbLine
 10
1581.0904266618
 20
522.0762476444
 30
0.0
 11
1581.1758848212
 21
521.9922796011
 31
0.0
  0
ELLIPSE
  5
E3
330
1F
100
AcDbEntity
  8
0
  6
CONTINUOUS
 62
     7
100
AcDbEllipse
 10
1575.6858528154
 20
521.9826790274
 30
0.0
 11
2.028496174355496
 21
5.11452972700306
 31
0.0
210
0.0
220
0.0
230
1.0
 40
0.9974578349
 41
4.547587599344713
 42
5.090846472151746
  0
LINE
  5
E4
330
1F
100
AcDbEntity
  8
0
  6
CONTINUOUS
 62
     7
100
AcDbLine
 10
1580.3854676268
 20
519.1476777315
 30
0.0
 11
1579.9313994429
 21
518.5031578064
 31
0.0
  0
LINE
  5
E5
330
1F
100
AcDbEntity
  8
0
  6
CONTINUOUS
 62
     7
100
AcDbLine
 10
1579.9313994429
 20
518.5031578064
 30
0.0
 11
1579.4495107911
 21
518.1317165613
 31
0.0
  0
ELLIPSE
  5
E6
330
1F
100
AcDbEntity
  8
0
  6
CONTINUOUS
 62
     7
100
AcDbEllipse
 10
1575.603310009
 20
522.0637936174
 30
0.0
 11
3.923171094097598
 21
-3.855289496904107
 31
0.0
210
0.0
220
0.0
230
1.0
 40
0.9999251565
 41
5.933170804248053
 42
6.263418012409331
  0
LINE
  5
E7
330
1F
100
AcDbEntity
  8
0
  6
CONTINUOUS
 62
     7
100
AcDbLine
 10
1577.9666813395
 20
517.0970544338
 30
0.0
 11
1577.4551095746
 21
516.7827144384
 31
0.0
  0
LINE
  5
E8
330
1F
100
AcDbEntity
  8
0
  6
CONTINUOUS
 62
     7
100
AcDbLine
 10
1214.2731460116
 20
518.5031578064
 30
0.0
 11
1213.8190778277
 21
519.1476777315
 31
0.0
  0
ELLIPSE
  5
E9
330
1F
100
AcDbEntity
  8
0
  6
CONTINUOUS
 62
     7
100
AcDbEllipse
 10
1218.5186926391
 20
521.9826790274
 30
0.0
 11
-2.028496174355496
 21
5.11452972700306
 31
0.0
210
0.0
220
0.0
230
1.0
 40
0.9974578349
 41
1.192338835027878
 42
1.735597707834876
  0
LINE
  5
EA
330
1F
100
AcDbEntity
  8
0
  6
CONTINUOUS
 62
     7
100
AcDbLine
 10
1213.0286606333
 20
521.9922796011
 30
0.0
 11
1213.1141187928
 21
522.0762476444
 31
0.0
  0
ELLIPSE
  5
EB
330
1F
100
AcDbEntity
  8
0
  6
CONTINUOUS
 62
     7
100
AcDbEllipse
 10
1218.6143257472
 20
522.076657421
 30
0.0
 11
-3.923171094097598
 21
-3.855289496904107
 31
0.0
210
0.0
220
0.0
230
1.0
 40
0.9999251565
 41
5.50655120745486
 42
7.059819406904366
  0
LINE
  5
EC
330
1F
100
AcDbEntity
  8
0
  6
CONTINUOUS
 62
     7
100
AcDbLine
 10
1218.5179205916
 20
516.5772870302
 30
0.0
 11
1218.4276940606
 21
516.4886251211
 31
0.0
  0
LINE
  5
ED
330
1F
100
AcDbEntity
  8
0
  6
CONTINUOUS
 62
     7
100
AcDbLine
 10
1218.4276940606
 20
516.4886251211
 30
0.0
 11
1216.74943588
 21
516.7827144384
 31
0.0
  0
LINE
  5
EE
330
1F
100
AcDbEntity
  8
0
  6
CONTINUOUS
 62
     7
100
AcDbLine
 10
1216.74943588
 20
516.7827144384
 30
0.0
 11
1216.237864115
 21
517.0970544338
 31
0.0
  0
ELLIPSE
  5
EF
330
1F
100
AcDbEntity
  8
0
  6
CONTINUOUS
 62
     7
100
AcDbEllipse
 10
1218.6012354455
 20
522.0637936174
 30
0.0
 11
-3.923171094097369
 21
-3.85528949690422
 31
0.0
210
0.0
220
0.0
230
1.0
 40
0.9999251565
 41
0.0197672947702243
 42
0.3500145029314707
  0
LINE
  5
F0
330
1F
100
AcDbEntity
  8
0
  6
CONTINUOUS
 62
     7
100
AcDbLine
 10
1214.7550346635
 20
518.1317165613
 30
0.0
 11
1214.2731460116
 21
518.5031578064
 31
0.0
  0
LINE
  5
F1
330
1F
100
AcDbEntity
  8
0
  6
CONTINUOUS
 62
     7
100
AcDbLine
 10
1216.74943588
 20
937.6172855616
 30
0.0
 11
1218.4276940606
 21
937.9113748789
 31
0.0
  0
LINE
  5
F2
330
1F
100
AcDbEntity
  8
0
  6
CONTINUOUS
 62
     7
100
AcDbLine
 10
1218.4276940606
 20
937.9113748789
 30
0.0
 11
1218.5179205916
 21
937.8227129698
 31
0.0
  0
ELLIPSE
  5
F3
330
1F
100
AcDbEntity
  8
0
  6
CONTINUOUS
 62
     7
100
AcDbEllipse
 10
1218.6143257472
 20
932.323342579
 30
0.0
 11
-3.923171094097825
 21
3.855289496904334
 31
0.0
210
0.0
220
0.0
230
0.9999999999999999
 40
0.9999251565
 41
5.506551207454784
 42
7.059819406904322
  0
LINE
  5
F4
330
1F
100
AcDbEntity
  8
0
  6
CONTINUOUS
 62
     7
100
AcDbLine
 10
1213.1141187928
 20
932.3237523556
 30
0.0
 11
1213.0286606333
 21
932.4077203989
 31
0.0
  0
ELLIPSE
  5
F5
330
1F
100
AcDbEntity
  8
0
  6
CONTINUOUS
 62
     7
100
AcDbEllipse
 10
1218.5186926391
 20
932.4173209726
 30
0.0
 11
2.028496174355496
 21
5.11452972700306
 31
0.0
210
0.0
220
0.0
230
1.0
 40
0.9974578349
 41
1.405994945754912
 42
1.949253818561905
  0
LINE
  5
F6
330
1F
100
AcDbEntity
  8
0
  6
CONTINUOUS
 62
     7
100
AcDbLine
 10
1213.8190778277
 20
935.2523222685
 30
0.0
 11
1214.2731460116
 21
935.8968421936
 31
0.0
  0
LINE
  5
F7
330
1F
100
AcDbEntity
  8
0
  6
CONTINUOUS
 62
     7
100
AcDbLine
 10
1214.2731460116
 20
935.8968421936
 30
0.0
 11
1214.7550346635
 21
936.2682834387
 31
0.0
  0
ELLIPSE
  5
F8
330
1F
100
AcDbEntity
  8
0
  6
CONTINUOUS
 62
     7
100
AcDbEllipse
 10
1218.6012354455
 20
932.3362063826
 30
0.0
 11
-3.923171094097597
 21
3.855289496904333
 31
0.0
210
0.0
220
0.0
230
1.0
 40
0.9999251565
 41
5.933170804248139
 42
6.26341801240942
  0
LINE
  5
F9
330
1F
100
AcDbEntity
  8
0
  6
CONTINUOUS
 62
     7
100
AcDbLine
 10
1216.237864115
 20
937.3029455662
 30
0.0
 11
1216.74943588
 21
937.6172855616
 31
0.0
  0
LINE
  5
FA
330
1F
100
AcDbEntity
  8
0
  6
CONTINUOUS
 62
     7
100
AcDbLine
 10
1397.1022727273
 20
940.9399017811
 30
0.0
 11
1575.6866248629
 21
937.8227129698
 31
0.0
  0
ELLIPSE
  5
FB
330
1F
100
AcDbEntity
  8
0
  6
CONTINUOUS
 62
     7
100
AcDbEllipse
 10
1575.5902197073
 20
932.323342579
 30
0.0
 11
3.923171094097598
 21
3.855289496904107
 31
0.0
210
0.0
220
0.0
230
1.0
 40
0.9999251565
 41
5.506551207454845
 42
7.059819406904339
  0
LINE
  5
FC
330
1F
100
AcDbEntity
  8
0
  6
CONTINUOUS
 62
     7
100
AcDbLine
 10
1581.0904266618
 20
932.3237523556
 30
0.0
 11
1581.0904266618
 21
522.0762476444
 31
0.0
  0
LINE
  5
FD
330
1F
100
AcDbEntity
  8
0
  6
CONTINUOUS
 62
     7
100
AcDbLine
 10
1575.6866248629
 20
516.5772870302
 30
0.0
 11
1397.1022727273
 21
513.4600982189
 31
0.0
  0
LINE
  5
FE
330
1F
100
AcDbEntity
  8
0
  6
CONTINUOUS
 62
     7
100
AcDbLine
 10
1397.1022727273
 20
513.4600982189
 30
0.0
 11
1218.5179205916
 21
516.5772870302
 31
0.0
  0
LINE
  5
FF
330
1F
100
AcDbEntity
  8
0
  6
CONTINUOUS
 62
     7
100
AcDbLine
 10
1213.1141187928
 20
522.0762476444
 30
0.0
 11
1213.1141187928
 21
932.3237523556
 31
0.0
  0
LINE
  5
100
330
1F
100
AcDbEntity
  8
0
  6
CONTINUOUS
 62
     7
100
AcDbLine
 10
1218.5179205916
 20
937.8227129698
 30
0.0
 11
1397.1022727273
 21
940.9399017811
 31
0.0
  0
LINE
  5
101
330
1F
100
AcDbEntity
  8
0
  6
CONTINUOUS
 62
     7
100
AcDbLine
 10
1397.1022727273
 20
940.9399017811
 30
0.0
 11
1397.1022727273
 21
941.0248085976
 31
0.0
  0
LINE
  5
102
330
1F
100
AcDbEntity
  8
0
  6
CONTINUOUS
 62
     7
100
AcDbLine
 10
1573.7246932767
 20
937.9475548983
 30
0.0
 11
1397.1022727273
 21
941.0248085976
 31
0.0
  0
ELLIPSE
  5
103
330
1F
100
AcDbEntity
  8
0
  6
CONTINUOUS
 62
     7
100
AcDbEllipse
 10
1578.1256252079
 20
937.6704837211
 30
0.0
 11
31.24656021695455
 21
-0.5726492574905252
 31
0.0
210
0.0
220
0.0
230
1.0
 40
0.0063474414
 41
1.646152842814873
 42
1.712228006651003
  0
LINE
  5
104
330
1F
100
AcDbEntity
  8
0
  6
CONTINUOUS
 62
     7
100
AcDbLine
 10
1575.6866248629
 20
937.8227129698
 30
0.0
 11
1575.776851394
 21
937.9113748789
 31
0.0
  0
LINE
  5
105
330
1F
100
AcDbEntity
  8
0
  6
CONTINUOUS
 62
     7
100
AcDbLine
 10
1579.9313994429
 20
935.8968421936
 30
0.0
 11
1580.3854676268
 21
935.2523222685
 31
0.0
  0
ELLIPSE
  5
106
330
1F
100
AcDbEntity
  8
0
  6
CONTINUOUS
 62
     7
100
AcDbEllipse
 10
1575.6858528154
 20
932.4173209726
 30
0.0
 11
-2.028496174355496
 21
5.11452972700306
 31
0.0
210
0.0
220
0.0
230
1.0
 40
0.9974578349
 41
4.333931488617676
 42
4.877190361424715
  0
LINE
  5
107
330
1F
100
AcDbEntity
  8
0
  6
CONTINUOUS
 62
     7
100
AcDbLine
 10
1581.1758848212
 20
932.4077203989
 30
0.0
 11
1581.0904266618
 21
932.3237523556
 31
0.0
  0
LINE
  5
108
330
1F
100
AcDbEntity
  8
0
  6
CONTINUOUS
 62
     7
100
AcDbLine
 10
1575.776851394
 20
937.9113748789
 30
0.0
 11
1577.4551095746
 21
937.6172855616
 31
0.0
  0
LINE
  5
109
330
1F
100
AcDbEntity
  8
0
  6
CONTINUOUS
 62
     7
100
AcDbLine
 10
1577.4551095746
 20
937.6172855616
 30
0.0
 11
1577.9666813395
 21
937.3029455662
 31
0.0
  0
ELLIPSE
  5
10A
330
1F
100
AcDbEntity
  8
0
  6
CONTINUOUS
 62
     7
100
AcDbEllipse
 10
1575.603310009
 20
932.3362063826
 30
0.0
 11
3.923171094097598
 21
3.855289496904107
 31
0.0
210
0.0
220
0.0
230
1.0
 40
0.9999251565
 41
0.0197672947702685
 42
0.3500145029315009
  0
LINE
  5
10B
330
1F
100
AcDbEntity
  8
0
  6
CONTINUOUS
 62
     7
100
AcDbLine
 10
1579.4495107911
 20
936.2682834387
 30
0.0
 11
1579.9313994429
 21
935.8968421936
 31
0.0
  0
LINE
  5
10C
330
1F
100
AcDbEntity
  8
0
  6
CONTINUOUS
 62
     7
100
AcDbLine
 10
1397.1022727273
 20
513.3751914024
 30
0.0
 11
1573.7246932767
 21
516.4524451017
 31
0.0
  0
LINE
  5
10D
330
1F
100
AcDbEntity
  8
0
  6
CONTINUOUS
 62
     7
100
AcDbLine
 10
1397.1022727273
 20
513.4600982189
 30
0.0
 11
1397.1022727273
 21
513.3751914024
 31
0.0
  0
ELLIPSE
  5
10E
330
1F
100
AcDbEntity
  8
0
  6
CONTINUOUS
 62
     7
100
AcDbEllipse
 10
1578.1256252079
 20
516.7295162789
 30
0.0
 11
31.24656021695455
 21
0.5726492574907525
 31
0.0
210
0.0
220
0.0
230
1.0
 40
0.0063474414
 41
4.570957300528601
 42
4.637032464364632
  0
LINE
  5
10F
330
1F
100
AcDbEntity
  8
0
  6
CONTINUOUS
 62
     7
100
AcDbLine
 10
1213.0286606333
 20
932.4077203989
 30
0.0
 11
1213.0286606333
 21
898.5500022888
 31
0.0
  0
LINE
  5
110
330
1F
100
AcDbEntity
  8
0
  6
CONTINUOUS
 62
     7
100
AcDbLine
 10
1213.0286606333
 20
555.8000043154
 30
0.0
 11
1213.0286606333
 21
521.9922796011
 31
0.0
  0
LINE
  5
111
330
1F
100
AcDbEntity
  8
0
  6
CONTINUOUS
 62
     7
100
AcDbLine
 10
1213.0732002042
 20
555.8000043154
 30
0.0
 11
1213.0732002042
 21
586.0500022888
 31
0.0
  0
LINE
  5
112
330
1F
100
AcDbEntity
  8
0
  6
CONTINUOUS
 62
     7
100
AcDbLine
 10
1213.0286606333
 20
618.2999968648
 30
0.0
 11
1213.0286606333
 21
586.0500022888
 31
0.0
  0
LINE
  5
113
330
1F
100
AcDbEntity
  8
0
  6
CONTINUOUS
 62
     7
100
AcDbLine
 10
1213.0732002042
 20
618.2999968648
 30
0.0
 11
1213.0732002042
 21
648.5500022888
 31
0.0
  0
LINE
  5
114
330
1F
100
AcDbEntity
  8
0
  6
CONTINUOUS
 62
     7
100
AcDbLine
 10
1213.0286606333
 20
680.8000005901
 30
0.0
 11
1213.0286606333
 21
648.5500022888
 31
0.0
  0
LINE
  5
115
330
1F
100
AcDbEntity
  8
0
  6
CONTINUOUS
 62
     7
100
AcDbLine
 10
1213.0732002042
 20
680.8000005901
 30
0.0
 11
1213.0732002042
 21
711.0500004262
 31
0.0
  0
LINE
  5
116
330
1F
100
AcDbEntity
  8
0
  6
CONTINUOUS
 62
     7
100
AcDbLine
 10
1213.0286606333
 20
743.3000005901
 30
0.0
 11
1213.0286606333
 21
711.0500004262
 31
0.0
  0
LINE
  5
117
330
1F
100
AcDbEntity
  8
0
  6
CONTINUOUS
 62
     7
100
AcDbLine
 10
1213.0732002042
 20
743.3000005901
 30
0.0
 11
1213.0732002042
 21
773.5499985635
 31
0.0
  0
LINE
  5
118
330
1F
100
AcDbEntity
  8
0
  6
CONTINUOUS
 62
     7
100
AcDbLine
 10
1213.0286606333
 20
805.7999968648
 30
0.0
 11
1213.0286606333
 21
773.5499985635
 31
0.0
  0
LINE
  5
119
330
1F
100
AcDbEntity
  8
0
  6
CONTINUOUS
 62
     7
100
AcDbLine
 10
1213.0732002042
 20
805.7999968648
 30
0.0
 11
1213.0732002042
 21
836.0500022888
 31
0.0
  0
LINE
  5
11A
330
1F
100
AcDbEntity
  8
0
  6
CONTINUOUS
 62
     7
100
AcDbLine
 10
1213.0286606333
 20
868.3000043154
 30
0.0
 11
1213.0286606333
 21
836.0500022888
 31
0.0
  0
LINE
  5
11B
330
1F
100
AcDbEntity
  8
0
  6
CONTINUOUS
 62
     7
100
AcDbLine
 10
1213.0732002042
 20
868.3000043154
 30
0.0
 11
1213.0732002042
 21
898.5500022888
 31
0.0
  0
LINE
  5
11C
330
1F
100
AcDbEntity
  8
0
  6
CONTINUOUS
 62
     7
100
AcDbLine
 10
1397.1022727273
 20
941.0248085976
 30
0.0
 11
1220.4798521779
 21
937.9475548983
 31
0.0
  0
ELLIPSE
  5
11D
330
1F
100
AcDbEntity
  8
0
  6
CONTINUOUS
 62
     7
100
AcDbEllipse
 10
1216.0789202466
 20
937.6704837211
 30
0.0
 11
31.24656021695455
 21
0.5726492574907525
 31
0.0
210
0.0
220
0.0
230
1.0
 40
0.0063474414
 41
1.429364646938926
 42
1.495439810774946
  0
LINE
  5
11E
330
1F
100
AcDbEntity
  8
0
  6
CONTINUOUS
 62
     7
100
AcDbLine
 10
1581.1758848212
 20
521.9922796011
 30
0.0
 11
1581.1758848212
 21
932.4077203989
 31
0.0
  0
LINE
  5
11F
330
1F
100
AcDbEntity
  8
0
  6
CONTINUOUS
 62
     7
100
AcDbLine
 10
1220.4798521779
 20
516.4524451017
 30
0.0
 11
1397.1022727273
 21
513.3751914024
 31
0.0
  0
ELLIPSE
  5
120
330
1F
100
AcDbEntity
  8
0
  6
CONTINUOUS
 62
     7
100
AcDbEllipse
 10
1216.0789202466
 20
516.7295162789
 30
0.0
 11
31.24656021695455
 21
-0.5726492574907525
 31
0.0
210
0.0
220
0.0
230
1.0
 40
0.0063474414
 41
4.78774549640478
 42
4.853820660240943
  0
LINE
  5
121
330
1F
100
AcDbEntity
  8
0
  6
CONTINUOUS
 62
     7
100
AcDbLine
 10
1197.0919879458
 20
711.0500004262
 30
0.0
 11
1193.6022701047
 21
711.0500004262
 31
0.0
  0
LINE
  5
122
330
1F
100
AcDbEntity
  8
0
  6
CONTINUOUS
 62
     7
100
AcDbLine
 10
1197.0919879458
 20
680.8000005901
 30
0.0
 11
1193.6022701047
 21
680.8000005901
 31
0.0
  0
LINE
  5
123
330
1F
100
AcDbEntity
  8
0
  6
CONTINUOUS
 62
     7
100
AcDbLine
 10
1197.0919879458
 20
836.0500022888
 30
0.0
 11
1193.6022701047
 21
836.0500022888
 31
0.0
  0
LINE
  5
124
330
1F
100
AcDbEntity
  8
0
  6
CONTINUOUS
 62
     7
100
AcDbLine
 10
1197.0919879458
 20
805.7999968648
 30
0.0
 11
1193.6022701047
 21
805.7999968648
 31
0.0
  0
LINE
  5
125
330
1F
100
AcDbEntity
  8
0
  6
CONTINUOUS
 62
     7
100
AcDbLine
 10
1197.0919879458
 20
898.5500022888
 30
0.0
 11
1193.6022701047
 21
898.5500022888
 31
0.0
  0
LINE
  5
126
330
1F
100
AcDbEntity
  8
0
  6
CONTINUOUS
 62
     7
100
AcDbLine
 10
1197.0919879458
 20
868.3000043154
 30
0.0
 11
1193.6022701047
 21
868.3000043154
 31
0.0
  0
LINE
  5
127
330
1F
100
AcDbEntity
  8
0
  6
CONTINUOUS
 62
     7
100
AcDbLine
 10
1197.0919879458
 20
586.0500022888
 30
0.0
 11
1193.6022701047
 21
586.0500022888
 31
0.0
  0
LINE
  5
128
330
1F
100
AcDbEntity
  8
0
  6
CONTINUOUS
 62
     7
100
AcDbLine
 10
1197.0919879458
 20
555.8000043154
 30
0.0
 11
1193.6022701047
 21
555.8000043154
 31
0.0
  0
LINE
  5
129
330
1F
100
AcDbEntity
  8
0
  6
CONTINUOUS
 62
     7
100
AcDbLine
 10
1197.0919879458
 20
743.3000005901
 30
0.0
 11
1193.6022701047
 21
743.3000005901
 31
0.0
  0
LINE
  5
12A
330
1F
100
AcDbEntity
  8
0
  6
CONTINUOUS
 62
     7
100
AcDbLine
 10
1197.0919879458
 20
773.5499985635
 30
0.0
 11
1193.6022701047
 21
773.5499985635
 31
0.0
  0
LINE
  5
12B
330
1F
100
AcDbEntity
  8
0
  6
CONTINUOUS
 62
     7
100
AcDbLine
 10
1197.0919879458
 20
648.5500022888
 30
0.0
 11
1193.6022701047
 21
648.5500022888
 31
0.0
  0
LINE
  5
12C
330
1F
100
AcDbEntity
  8
0
  6
CONTINUOUS
 62
     7
100
AcDbLine
 10
1197.0919879458
 20
618.2999968648
 30
0.0
 11
1193.6022701047
 21
618.2999968648
 31
0.0
  0
LINE
  5
12D
330
1F
100
AcDbEntity
  8
0
  6
CONTINUOUS
 62
     7
100
AcDbLine
 10
1214.8271413825
 20
508.8664427519
 30
0.0
 11
1216.6758986495
 21
508.8664427519
 31
0.0
  0
ELLIPSE
  5
12E
330
1F
100
AcDbEntity
  8
0
  6
CONTINUOUS
 62
     7
100
AcDbEllipse
 10
1212.1022727273
 20
518.0414366616
 30
0.0
 11
0.0
 21
10.58609868821759
 31
0.0
210
0.0
220
0.0
230
1.0
 40
0.8661133393
 41
3.663836665468197
 42
3.710396781577713
  0
LINE
  5
12F
330
1F
100
AcDbEntity
  8
0
  6
CONTINUOUS
 62
     7
100
AcDbLine
 10
1577.1637471698
 20
509.1221615791
 30
0.0
 11
1217.0407982848
 21
509.1221615791
 31
0.0
  0
ELLIPSE
  5
130
330
1F
100
AcDbEntity
  8
0
  6
CONTINUOUS
 62
     7
100
AcDbEllipse
 10
1582.1022727273
 20
518.0414366616
 30
0.0
 11
0.0
 21
10.58609868821759
 31
0.0
210
0.0
220
0.0
230
1.0
 40
0.8661133393
 41
2.572788525601845
 42
2.619348641711361
  0
LINE
  5
131
330
1F
100
AcDbEntity
  8
0
  6
CONTINUOUS
 62
     7
100
AcDbLine
 10
1579.3774040721
 20
508.8664427519
 30
0.0
 11
1577.5286468051
 21
508.8664427519
 31
0.0
  0
LINE
  5
132
330
1F
100
AcDbEntity
  8
0
  6
CONTINUOUS
 62
     7
100
AcDbLine
 10
1208.2158537886
 20
937.0788172007
 30
0.0
 11
1208.2158537886
 21
938.9292284966
 31
0.0
  0
ELLIPSE
  5
133
330
1F
100
AcDbEntity
  8
0
  6
CONTINUOUS
 62
     7
100
AcDbEllipse
 10
1217.3946648654
 20
941.65
 30
0.0
 11
10.58801022368561
 21
0.0
 31
0.0
210
0.0
220
0.0
230
1.0
 40
0.8661133393
 41
3.663426129454853
 42
3.710008500668867
  0
LINE
  5
134
330
1F
100
AcDbEntity
  8
0
  6
CONTINUOUS
 62
     7
100
AcDbLine
 10
1208.4715726159
 20
898.5500022888
 30
0.0
 11
1208.4715726159
 21
936.7135897398
 31
0.0
  0
LINE
  5
135
330
1F
100
AcDbEntity
  8
0
  6
CONTINUOUS
 62
     7
100
AcDbLine
 10
1208.2917305014
 20
868.3000043154
 30
0.0
 11
1208.2917305014
 21
898.5500022888
 31
0.0
  0
LINE
  5
136
330
1F
100
AcDbEntity
  8
0
  6
CONTINUOUS
 62
     7
100
AcDbLine
 10
1208.4715726159
 20
836.0500022888
 30
0.0
 11
1208.4715726159
 21
868.3000043154
 31
0.0
  0
LINE
  5
137
330
1F
100
AcDbEntity
  8
0
  6
CONTINUOUS
 62
     7
100
AcDbLine
 10
1208.2917305014
 20
805.7999968648
 30
0.0
 11
1208.2917305014
 21
836.0500022888
 31
0.0
  0
LINE
  5
138
330
1F
100
AcDbEntity
  8
0
  6
CONTINUOUS
 62
     7
100
AcDbLine
 10
1208.4715726159
 20
773.5499985635
 30
0.0
 11
1208.4715726159
 21
805.7999968648
 31
0.0
  0
LINE
  5
139
330
1F
100
AcDbEntity
  8
0
  6
CONTINUOUS
 62
     7
100
AcDbLine
 10
1208.2917305014
 20
743.3000005901
 30
0.0
 11
1208.2917305014
 21
773.5499985635
 31
0.0
  0
LINE
  5
13A
330
1F
100
AcDbEntity
  8
0
  6
CONTINUOUS
 62
     7
100
AcDbLine
 10
1208.4715726159
 20
711.0500004262
 30
0.0
 11
1208.4715726159
 21
743.3000005901
 31
0.0
  0
LINE
  5
13B
330
1F
100
AcDbEntity
  8
0
  6
CONTINUOUS
 62
     7
100
AcDbLine
 10
1208.2917305014
 20
680.8000005901
 30
0.0
 11
1208.2917305014
 21
711.0500004262
 31
0.0
  0
LINE
  5
13C
330
1F
100
AcDbEntity
  8
0
  6
CONTINUOUS
 62
     7
100
AcDbLine
 10
1208.4715726159
 20
648.5500022888
 30
0.0
 11
1208.4715726159
 21
680.8000005901
 31
0.0
  0
LINE
  5
13D
330
1F
100
AcDbEntity
  8
0
  6
CONTINUOUS
 62
     7
100
AcDbLine
 10
1208.2917305014
 20
618.2999968648
 30
0.0
 11
1208.2917305014
 21
648.5500022888
 31
0.0
  0
LINE
  5
13E
330
1F
100
AcDbEntity
  8
0
  6
CONTINUOUS
 62
     7
100
AcDbLine
 10
1208.4715726159
 20
586.0500022888
 30
0.0
 11
1208.4715726159
 21
618.2999968648
 31
0.0
  0
LINE
  5
13F
330
1F
100
AcDbEntity
  8
0
  6
CONTINUOUS
 62
     7
100
AcDbLine
 10
1208.2917305014
 20
555.8000043154
 30
0.0
 11
1208.2917305014
 21
586.0500022888
 31
0.0
  0
LINE
  5
140
330
1F
100
AcDbEntity
  8
0
  6
CONTINUOUS
 62
     7
100
AcDbLine
 10
1208.4715726159
 20
517.6864102602
 30
0.0
 11
1208.4715726159
 21
555.8000043154
 31
0.0
  0
ELLIPSE
  5
141
330
1F
100
AcDbEntity
  8
0
  6
CONTINUOUS
 62
     7
100
AcDbEllipse
 10
1217.3946648654
 20
512.75
 30
0.0
 11
10.58801022368561
 21
0.0
 31
0.0
210
0.0
220
0.0
230
1.0
 40
0.8661133393
 41
2.57317680651074
 42
2.619759177724753
  0
LINE
  5
142
330
1F
100
AcDbEntity
  8
0
  6
CONTINUOUS
 62
     7
100
AcDbLine
 10
1208.2158537886
 20
517.3211827993
 30
0.0
 11
1208.2158537886
 21
515.4707715034
 31
0.0
  0
LINE
  5
143
330
1F
100
AcDbEntity
  8
0
  6
CONTINUOUS
 62
     7
100
AcDbLine
 10
1579.3774040721
 20
945.5335572481
 30
0.0
 11
1577.5286468051
 21
945.5335572481
 31
0.0
  0
ELLIPSE
  5
144
330
1F
100
AcDbEntity
  8
0
  6
CONTINUOUS
 62
     7
100
AcDbEllipse
 10
1582.1022727273
 20
936.3585633384
 30
0.0
 11
0.0
 21
10.58609868821759
 31
0.0
210
0.0
220
0.0
230
1.0
 40
0.8661133393
 41
0.5222440118784294
 42
0.5688041279879488
  0
LINE
  5
145
330
1F
100
AcDbEntity
  8
0
  6
CONTINUOUS
 62
     7
100
AcDbLine
 10
1217.0407982848
 20
945.2778384209
 30
0.0
 11
1577.1637471698
 21
945.2778384209
 31
0.0
  0
ELLIPSE
  5
146
330
1F
100
AcDbEntity
  8
0
  6
CONTINUOUS
 62
     7
100
AcDbEllipse
 10
1212.1022727273
 20
936.3585633384
 30
0.0
 11
0.0
 21
10.58609868821759
 31
0.0
210
0.0
220
0.0
230
1.0
 40
0.8661133393
 41
5.714381179191696
 42
5.760941295301215
  0
LINE
  5
147
330
1F
100
AcDbEntity
  8
0
  6
CONTINUOUS
 62
     7
100
AcDbLine
 10
1214.8271413825
 20
945.5335572481
 30
0.0
 11
1216.6758986495
 21
945.5335572481
 31
0.0
  0
LINE
  5
148
330
1F
100
AcDbEntity
  8
0
  6
CONTINUOUS
 62
     7
100
AcDbLine
 10
1585.9886916659
 20
517.3211827993
 30
0.0
 11
1585.9886916659
 21
515.4707715034
 31
0.0
  0
ELLIPSE
  5
149
330
1F
100
AcDbEntity
  8
0
  6
CONTINUOUS
 62
     7
100
AcDbEllipse
 10
1576.8098805892
 20
512.75
 30
0.0
 11
10.58801022368539
 21
0.0
 31
0.0
210
0.0
220
0.0
230
1.0
 40
0.8661133393
 41
0.5218334758650409
 42
0.5684158470790553
  0
LINE
  5
14A
330
1F
100
AcDbEntity
  8
0
  6
CONTINUOUS
 62
     7
100
AcDbLine
 10
1585.7329728387
 20
936.7135897398
 30
0.0
 11
1585.7329728387
 21
517.6864102602
 31
0.0
  0
ELLIPSE
  5
14B
330
1F
100
AcDbEntity
  8
0
  6
CONTINUOUS
 62
     7
100
AcDbEllipse
 10
1576.8098805892
 20
941.65
 30
0.0
 11
10.58801022368539
 21
0.0
 31
0.0
210
0.0
220
0.0
230
1.0
 40
0.8661133393
 41
5.714769460100551
 42
5.761351831314555
  0
LINE
  5
14C
330
1F
100
AcDbEntity
  8
0
  6
CONTINUOUS
 62
     7
100
AcDbLine
 10
1585.9886916659
 20
937.0788172007
 30
0.0
 11
1585.9886916659
 21
938.9292284966
 31
0.0
  0
CIRCLE
  5
14D
330
1F
100
AcDbEntity
  8
0
  6
CONTINUOUS
 62
     7
100
AcDbCircle
 10
1582.1022727273
 20
941.65
 30
0.0
 40
3.500000000000114
  0
CIRCLE
  5
14E
330
1F
100
AcDbEntity
  8
0
  6
CONTINUOUS
 62
     7
100
AcDbCircle
 10
1582.1022727273
 20
941.65
 30
0.0
 40
2.800731880564967
  0
ARC
  5
14F
330
1F
100
AcDbEntity
  8
0
  6
CONTINUOUS
 62
     7
100
AcDbCircle
 10
1582.0831164726
 20
512.7749546796
 30
0.0
 40
6.122139016122429
100
AcDbArc
 50
139.1081036314
 51
167.7277295622
  0
ARC
  5
150
330
1F
100
AcDbEntity
  8
0
  6
CONTINUOUS
 62
     7
100
AcDbCircle
 10
1582.1022727273
 20
512.75
 30
0.0
 40
6.000000000000142
100
AcDbArc
 50
133.5719059348
 51
220.3352864634
  0
ELLIPSE
  5
151
330
1F
100
AcDbEntity
  8
0
  6
CONTINUOUS
 62
     7
100
AcDbEllipse
 10
1582.1022727273
 20
512.7727856259
 30
0.0
 11
0.0
 21
6.141365953835475
 31
0.0
210
0.0
220
0.0
230
1.0
 40
0.9999931172
 41
1.356924785032511
 42
2.207354740313264
  0
ARC
  5
152
330
1F
100
AcDbEntity
  8
0
  6
CONTINUOUS
 62
     7
100
AcDbCircle
 10
1212.1214289818
 20
941.6250453204
 30
0.0
 40
6.122139016262068
100
AcDbArc
 50
319.1081036317
 51
347.7277295619
  0
ARC
  5
153
330
1F
100
AcDbEntity
  8
0
  6
CONTINUOUS
 62
     7
100
AcDbCircle
 10
1212.1022727273
 20
941.65
 30
0.0
 40
5.999999999999825
100
AcDbArc
 50
313.5719059348
 51
40.3352864634
  0
ELLIPSE
  5
154
330
1F
100
AcDbEntity
  8
0
  6
CONTINUOUS
 62
     7
100
AcDbEllipse
 10
1212.1022727273
 20
941.6272143741
 30
0.0
 11
0.0
 21
6.141365953835588
 31
0.0
210
0.0
220
0.0
230
1.0
 40
0.9999931172
 41
4.498517438622331
 42
5.348947393903083
  0
ARC
  5
155
330
1F
100
AcDbEntity
  8
0
  6
CONTINUOUS
 62
     7
100
AcDbCircle
 10
1582.1022727273
 20
512.75
 30
0.0
 40
6.000000000000173
100
AcDbArc
 50
49.6287657198
 51
116.2396077917
  0
CIRCLE
  5
156
330
1F
100
AcDbEntity
  8
0
  6
CONTINUOUS
 62
     7
100
AcDbCircle
 10
1582.1022727273
 20
512.75
 30
0.0
 40
3.5
  0
LWPOLYLINE
  5
157
330
1F
100
AcDbEntity
  8
0
  6
CONTINUOUS
 62
     7
100
AcDbPolyline
 90
        3
 70
   128
 43
0.0
 10
1214.2731460116
 20
935.8968421936
 10
1213.5399492762
 20
935.6738761187
 10
1213.423824527
 20
935.647560668
  0
ELLIPSE
  5
158
330
1F
100
AcDbEntity
  8
0
  6
CONTINUOUS
 62
     7
100
AcDbEllipse
 10
1212.1250583926
 20
941.65
 30
0.0
 11
6.141376597621047
 21
0.0
 31
0.0
210
0.0
220
0.0
230
1.0
 40
0.9999931172
 41
4.075250826488549
 42
4.925476001306422
  0
ARC
  5
159
330
1F
100
AcDbEntity
  8
0
  6
CONTINUOUS
 62
     7
100
AcDbCircle
 10
1212.1022727273
 20
941.65
 30
0.0
 40
6.000000000000127
100
AcDbArc
 50
229.6287657198
 51
296.2396077917
  0
CIRCLE
  5
15A
330
1F
100
AcDbEntity
  8
0
  6
CONTINUOUS
 62
     7
100
AcDbCircle
 10
1212.1022727273
 20
941.65
 30
0.0
 40
3.500000000000114
  0
ARC
  5
15B
330
1F
100
AcDbEntity
  8
0
  6
CONTINUOUS
 62
     7
100
AcDbCircle
 10
1212.1300539856
 20
512.7792703869
 30
0.0
 40
6.112794235010043
100
AcDbArc
 50
12.2499270687
 51
40.9142397377
  0
ELLIPSE
  5
15C
330
1F
100
AcDbEntity
  8
0
  6
CONTINUOUS
 62
     7
100
AcDbEllipse
 10
1212.1022727273
 20
512.7727856259
 30
0.0
 11
0.0
 21
6.141365953835475
 31
0.0
210
0.0
220
0.0
230
1.0
 40
0.9999931172
 41
4.075830566866315
 42
4.926260522147097
  0
ARC
  5
15D
330
1F
100
AcDbEntity
  8
0
  6
CONTINUOUS
 62
     7
100
AcDbCircle
 10
1212.1022727273
 20
512.75
 30
0.0
 40
5.999999999999985
100
AcDbArc
 50
319.6647135366
 51
46.4280940652
  0
LINE
  5
15E
330
1F
100
AcDbEntity
  8
0
  6
CONTINUOUS
 62
     7
100
AcDbLine
 10
1213.423824527
 20
518.752439332
 30
0.0
 11
1214.2731460116
 21
518.5031578064
 31
0.0
  0
ARC
  5
15F
330
1F
100
AcDbEntity
  8
0
  6
CONTINUOUS
 62
     7
100
AcDbCircle
 10
1212.1022727273
 20
512.75
 30
0.0
 40
6.000000000000127
100
AcDbArc
 50
63.7603922083
 51
130.3712342802
  0
ELLIPSE
  5
160
330
1F
100
AcDbEntity
  8
0
  6
CONTINUOUS
 62
     7
100
AcDbEllipse
 10
1212.1250583926
 20
512.75
 30
0.0
 11
6.141376597621047
 21
0.0
 31
0.0
210
0.0
220
0.0
230
1.0
 40
0.9999931172
 41
1.357709305873174
 42
2.207934480691059
  0
ARC
  5
161
330
1F
100
AcDbEntity
  8
0
  6
CONTINUOUS
 62
     7
100
AcDbCircle
 10
1582.1022727273
 20
941.65
 30
0.0
 40
6.000000000000173
100
AcDbArc
 50
243.7603922083
 51
310.3712342802
  0
ARC
  5
162
330
1F
100
AcDbEntity
  8
0
  6
CONTINUOUS
 62
     7
100
AcDbCircle
 10
1582.1022727273
 20
941.65
 30
0.0
 40
5.999999999999999
100
AcDbArc
 50
139.6647135366
 51
226.4280940652
  0
CIRCLE
  5
163
330
1F
100
AcDbEntity
  8
0
  6
CONTINUOUS
 62
     7
100
AcDbCircle
 10
1212.1022727273
 20
512.75
 30
0.0
 40
3.5
  0
LINE
  5
164
330
1F
100
AcDbEntity
  8
0
  6
CONTINUOUS
 62
     7
100
AcDbLine
 10
1580.7807209275
 20
935.647560668
 30
0.0
 11
1579.9313994429
 21
935.8968421936
 31
0.0
  0
ELLIPSE
  5
165
330
1F
100
AcDbEntity
  8
0
  6
CONTINUOUS
 62
     7
100
AcDbEllipse
 10
1582.0794870619
 20
941.65
 30
0.0
 11
6.14137659762082
 21
0.0
 31
0.0
210
0.0
220
0.0
230
1.0
 40
0.9999931172
 41
4.499301959462978
 42
5.349527134280856
  0
LWPOLYLINE
  5
166
330
1F
100
AcDbEntity
  8
0
  6
CONTINUOUS
 62
     7
100
AcDbPolyline
 90
        3
 70
   128
 43
0.0
 10
1579.9313994429
 20
518.5031578064
 10
1580.6645961783
 20
518.7261238813
 10
1580.7807209275
 20
518.752439332
  0
ELLIPSE
  5
167
330
1F
100
AcDbEntity
  8
0
  6
CONTINUOUS
 62
     7
100
AcDbEllipse
 10
1582.0794870619
 20
512.75
 30
0.0
 11
6.14137659762082
 21
0.0
 31
0.0
210
0.0
220
0.0
230
1.0
 40
0.9999931172
 41
0.9336581728987463
 42
1.783883347716626
  0
CIRCLE
  5
168
330
1F
100
AcDbEntity
  8
0
  6
CONTINUOUS
 62
     7
100
AcDbCircle
 10
1582.1022727273
 20
512.75
 30
0.0
 40
2.800731880564854
  0
CIRCLE
  5
169
330
1F
100
AcDbEntity
  8
0
  6
CONTINUOUS
 62
     7
100
AcDbCircle
 10
1212.1022727273
 20
941.65
 30
0.0
 40
2.800731880564967
  0
ARC
  5
16A
330
1F
100
AcDbEntity
  8
0
  6
CONTINUOUS
 62
     7
100
AcDbCircle
 10
1582.0744914689
 20
941.6207296131
 30
0.0
 40
6.112794235007056
100
AcDbArc
 50
192.2499270687
 51
220.9142397377
  0
ELLIPSE
  5
16B
330
1F
100
AcDbEntity
  8
0
  6
CONTINUOUS
 62
     7
100
AcDbEllipse
 10
1582.1022727273
 20
941.6272143741
 30
0.0
 11
0.0
 21
6.141365953835588
 31
0.0
210
0.0
220
0.0
230
1.0
 40
0.9999931172
 41
0.9342379132765387
 42
1.784667868557261
  0
CIRCLE
  5
16C
330
1F
100
AcDbEntity
  8
0
  6
CONTINUOUS
 62
     7
100
AcDbCircle
 10
1212.1022727273
 20
512.75
 30
0.0
 40
2.800731880564854
  0
LINE
  5
16D
330
1F
100
AcDbEntity
  8
0
  6
CONTINUOUS
 62
     7
100
AcDbLine
 10
1213.0732002042
 20
555.8000043154
 30
0.0
 11
1208.2917305014
 21
555.8000043154
 31
0.0
  0
LINE
  5
16E
330
1F
100
AcDbEntity
  8
0
  6
CONTINUOUS
 62
     7
100
AcDbLine
 10
1213.0732002042
 20
586.0500022888
 30
0.0
 11
1208.2917305014
 21
586.0500022888
 31
0.0
  0
LINE
  5
16F
330
1F
100
AcDbEntity
  8
0
  6
CONTINUOUS
 62
     7
100
AcDbLine
 10
1213.0732002042
 20
618.2999968648
 30
0.0
 11
1208.2917305014
 21
618.2999968648
 31
0.0
  0
LINE
  5
170
330
1F
100
AcDbEntity
  8
0
  6
CONTINUOUS
 62
     7
100
AcDbLine
 10
1213.0732002042
 20
648.5500022888
 30
0.0
 11
1208.2917305014
 21
648.5500022888
 31
0.0
  0
LINE
  5
171
330
1F
100
AcDbEntity
  8
0
  6
CONTINUOUS
 62
     7
100
AcDbLine
 10
1213.0732002042
 20
711.0500004262
 30
0.0
 11
1208.2917305014
 21
711.0500004262
 31
0.0
  0
LINE
  5
172
330
1F
100
AcDbEntity
  8
0
  6
CONTINUOUS
 62
     7
100
AcDbLine
 10
1213.0732002042
 20
680.8000005901
 30
0.0
 11
1208.2917305014
 21
680.8000005901
 31
0.0
  0
LINE
  5
173
330
1F
100
AcDbEntity
  8
0
  6
CONTINUOUS
 62
     7
100
AcDbLine
 10
1213.0732002042
 20
898.5500022888
 30
0.0
 11
1208.2917305014
 21
898.5500022888
 31
0.0
  0
LINE
  5
174
330
1F
100
AcDbEntity
  8
0
  6
CONTINUOUS
 62
     7
100
AcDbLine
 10
1213.0732002042
 20
868.3000043154
 30
0.0
 11
1208.2917305014
 21
868.3000043154
 31
0.0
  0
LINE
  5
175
330
1F
100
AcDbEntity
  8
0
  6
CONTINUOUS
 62
     7
100
AcDbLine
 10
1213.0732002042
 20
773.5499985635
 30
0.0
 11
1208.2917305014
 21
773.5499985635
 31
0.0
  0
LINE
  5
176
330
1F
100
AcDbEntity
  8
0
  6
CONTINUOUS
 62
     7
100
AcDbLine
 10
1213.0732002042
 20
743.3000005901
 30
0.0
 11
1208.2917305014
 21
743.3000005901
 31
0.0
  0
LINE
  5
177
330
1F
100
AcDbEntity
  8
0
  6
CONTINUOUS
 62
     7
100
AcDbLine
 10
1213.0732002042
 20
836.0500022888
 30
0.0
 11
1208.2917305014
 21
836.0500022888
 31
0.0
  0
LINE
  5
178
330
1F
100
AcDbEntity
  8
0
  6
CONTINUOUS
 62
     7
100
AcDbLine
 10
1213.0732002042
 20
805.7999968648
 30
0.0
 11
1208.2917305014
 21
805.7999968648
 31
0.0
  0
LINE
  5
179
330
1F
100
AcDbEntity
  8
0
  6
CONTINUOUS
 62
     7
100
AcDbLine
 10
1213.8190778277
 20
519.1476777315
 30
0.0
 11
1213.423824527
 21
518.752439332
 31
0.0
  0
LINE
  5
17A
330
1F
100
AcDbEntity
  8
0
  6
CONTINUOUS
 62
     7
100
AcDbLine
 10
1580.7807209275
 20
518.752439332
 30
0.0
 11
1580.3854676268
 21
519.1476777315
 31
0.0
  0
LINE
  5
17B
330
1F
100
AcDbEntity
  8
0
  6
CONTINUOUS
 62
     7
100
AcDbLine
 10
1580.3854676268
 20
935.2523222685
 30
0.0
 11
1580.7807209275
 21
935.647560668
 31
0.0
  0
LINE
  5
17C
330
1F
100
AcDbEntity
  8
0
  6
CONTINUOUS
 62
     7
100
AcDbLine
 10
1218.1036683104
 20
514.0762612343
 30
0.0
 11
1220.4798521779
 21
516.4524451017
 31
0.0
  0
LINE
  5
17D
330
1F
100
AcDbEntity
  8
0
  6
CONTINUOUS
 62
     7
100
AcDbLine
 10
1573.7246932767
 20
516.4524451017
 30
0.0
 11
1576.1008771441
 21
514.0762612343
 31
0.0
  0
LINE
  5
17E
330
1F
100
AcDbEntity
  8
0
  6
CONTINUOUS
 62
     7
100
AcDbLine
 10
1576.1008771441
 20
940.3237387657
 30
0.0
 11
1573.7246932767
 21
937.9475548983
 31
0.0
  0
LINE
  5
17F
330
1F
100
AcDbEntity
  8
0
  6
CONTINUOUS
 62
     7
100
AcDbLine
 10
1220.4798521779
 20
937.9475548983
 30
0.0
 11
1218.1036683104
 21
940.3237387657
 31
0.0
  0
LINE
  5
180
330
1F
100
AcDbEntity
  8
0
  6
CONTINUOUS
 62
     7
100
AcDbLine
 10
1213.423824527
 20
935.647560668
 30
0.0
 11
1213.8190778277
 21
935.2523222685
 31
0.0
  0
LINE
  5
181
330
1F
100
AcDbEntity
  8
0
  6
CONTINUOUS
 62
     7
100
AcDbLine
 10
1571.5252818845
 20
919.3505481005
 30
0.0
 11
1577.2863986275
 21
913.5894462585
 31
0.0
  0
LINE
  5
182
330
1F
100
AcDbEntity
  8
0
  6
CONTINUOUS
 62
     7
100
AcDbLine
 10
1575.7841827653
 20
908.7170049667
 30
0.0
 11
1577.2863986275
 21
913.5894462585
 31
0.0
  0
LINE
  5
183
330
1F
100
AcDbEntity
  8
0
  6
CONTINUOUS
 62
     7
100
AcDbLine
 10
1575.7841827653
 20
908.7170049667
 30
0.0
 11
1553.6192866347
 21
930.8819159985
 31
0.0
  0
LINE
  5
184
330
1F
100
AcDbEntity
  8
0
  6
CONTINUOUS
 62
     7
100
AcDbLine
 10
1558.4917130254
 20
932.3841318607
 30
0.0
 11
1553.6192866347
 21
930.8819159985
 31
0.0
  0
LINE
  5
185
330
1F
100
AcDbEntity
  8
0
  6
CONTINUOUS
 62
     7
100
AcDbLine
 10
1558.4917130254
 20
932.3841318607
 30
0.0
 11
1563.605687239
 21
927.270142746
 31
0.0
  0
LINE
  5
186
330
1F
100
AcDbEntity
  8
0
  6
CONTINUOUS
 62
     7
100
AcDbLine
 10
1563.605687239
 20
927.270142746
 30
0.0
 11
1563.6242242835
 21
927.1405175447
 31
0.0
  0
LINE
  5
187
330
1F
100
AcDbEntity
  8
0
  6
CONTINUOUS
 62
     7
100
AcDbLine
 10
1563.6242242835
 20
927.1405175447
 30
0.0
 11
1571.3956566832
 21
919.369085145
 31
0.0
  0
LINE
  5
188
330
1F
100
AcDbEntity
  8
0
  6
CONTINUOUS
 62
     7
100
AcDbLine
 10
1571.3956566832
 20
919.369085145
 30
0.0
 11
1571.5252818845
 21
919.3505481005
 31
0.0
  0
LINE
  5
189
330
1F
100
AcDbEntity
  8
0
  6
CONTINUOUS
 62
     7
100
AcDbLine
 10
1558.4917130254
 20
522.0158681393
 30
0.0
 11
1553.6192866347
 21
523.5180840015
 31
0.0
  0
LINE
  5
18A
330
1F
100
AcDbEntity
  8
0
  6
CONTINUOUS
 62
     7
100
AcDbLine
 10
1575.7841827653
 20
545.6829950333
 30
0.0
 11
1553.6192866347
 21
523.5180840015
 31
0.0
  0
LINE
  5
18B
330
1F
100
AcDbEntity
  8
0
  6
CONTINUOUS
 62
     7
100
AcDbLine
 10
1575.7841827653
 20
545.6829950333
 30
0.0
 11
1577.2863986275
 21
540.8105537415
 31
0.0
  0
LINE
  5
18C
330
1F
100
AcDbEntity
  8
0
  6
CONTINUOUS
 62
     7
100
AcDbLine
 10
1577.2863986275
 20
540.8105537415
 30
0.0
 11
1571.5252818845
 21
535.0494518995
 31
0.0
  0
LINE
  5
18D
330
1F
100
AcDbEntity
  8
0
  6
CONTINUOUS
 62
     7
100
AcDbLine
 10
1571.3956566832
 20
535.030914855
 30
0.0
 11
1571.5252818845
 21
535.0494518995
 31
0.0
  0
LINE
  5
18E
330
1F
100
AcDbEntity
  8
0
  6
CONTINUOUS
 62
     7
100
AcDbLine
 10
1571.3956566832
 20
535.030914855
 30
0.0
 11
1563.6242242835
 21
527.2594824553
 31
0.0
  0
LINE
  5
18F
330
1F
100
AcDbEntity
  8
0
  6
CONTINUOUS
 62
     7
100
AcDbLine
 10
1563.605687239
 20
527.129857254
 30
0.0
 11
1563.6242242835
 21
527.2594824553
 31
0.0
  0
LINE
  5
190
330
1F
100
AcDbEntity
  8
0
  6
CONTINUOUS
 62
     7
100
AcDbLine
 10
1563.605687239
 20
527.129857254
 30
0.0
 11
1558.4917130254
 21
522.0158681393
 31
0.0
  0
LINE
  5
191
330
1F
100
AcDbEntity
  8
0
  6
CONTINUOUS
 62
     7
100
AcDbLine
 10
1240.5852588198
 20
930.8819159985
 30
0.0
 11
1553.6192866347
 21
930.8819159985
 31
0.0
  0
LINE
  5
192
330
1F
100
AcDbEntity
  8
0
  6
CONTINUOUS
 62
     7
100
AcDbLine
 10
1235.7128324292
 20
932.3841318607
 30
0.0
 11
1240.5852588198
 21
930.8819159985
 31
0.0
  0
LINE
  5
193
330
1F
100
AcDbEntity
  8
0
  6
CONTINUOUS
 62
     7
100
AcDbLine
 10
1235.7128324292
 20
932.3841318607
 30
0.0
 11
1558.4917130254
 21
932.3841318607
 31
0.0
  0
LINE
  5
194
330
1F
100
AcDbEntity
  8
0
  6
CONTINUOUS
 62
     7
100
AcDbLine
 10
1229.2268934033
 20
525.7578924417
 30
0.0
 11
1230.5988582156
 21
527.129857254
 31
0.0
  0
LINE
  5
195
330
1F
100
AcDbEntity
  8
0
  6
CONTINUOUS
 62
     7
100
AcDbLine
 10
1235.7128324292
 20
522.0158681393
 30
0.0
 11
1230.5988582156
 21
527.129857254
 31
0.0
  0
LINE
  5
196
330
1F
100
AcDbEntity
  8
0
  6
CONTINUOUS
 62
     7
100
AcDbLine
 10
1558.4917130254
 20
522.0158681393
 30
0.0
 11
1235.7128324292
 21
522.0158681393
 31
0.0
  0
LINE
  5
197
330
1F
100
AcDbEntity
  8
0
  6
CONTINUOUS
 62
     7
100
AcDbLine
 10
1563.605687239
 20
527.129857254
 30
0.0
 11
1564.9776520512
 21
525.7578924417
 31
0.0
  0
ARC
  5
198
330
1F
100
AcDbEntity
  8
0
  6
CONTINUOUS
 62
     7
100
AcDbCircle
 10
1571.6022727273
 20
527.0528687596
 30
0.0
 40
6.750000000000152
100
AcDbArc
 50
191.0607107913
 51
191.3116269694
  0
LINE
  5
199
330
1F
100
AcDbEntity
  8
0
  6
CONTINUOUS
 62
     7
100
AcDbLine
 10
1561.353510835
 20
522.0990166187
 30
0.0
 11
1564.9833889983
 21
525.7288947821
 31
0.0
  0
LINE
  5
19A
330
1F
100
AcDbEntity
  8
0
  6
CONTINUOUS
 62
     7
100
AcDbLine
 10
1561.353510835
 20
518.4056446075
 30
0.0
 11
1561.353510835
 21
522.0990166187
 31
0.0
  0
LINE
  5
19B
330
1F
100
AcDbEntity
  8
0
  6
CONTINUOUS
 62
     7
100
AcDbLine
 10
1232.8510346196
 20
522.0990166187
 30
0.0
 11
1232.8510346196
 21
518.4056446075
 31
0.0
  0
LINE
  5
19C
330
1F
100
AcDbEntity
  8
0
  6
CONTINUOUS
 62
     7
100
AcDbLine
 10
1229.2211564563
 20
525.7288947821
 30
0.0
 11
1232.8510346196
 21
522.0990166187
 31
0.0
  0
ARC
  5
19D
330
1F
100
AcDbEntity
  8
0
  6
CONTINUOUS
 62
     7
100
AcDbCircle
 10
1222.6022727273
 20
527.0528687596
 30
0.0
 40
6.750000000000171
100
AcDbArc
 50
348.6883730307
 51
348.9392892087
  0
LINE
  5
19E
330
1F
100
AcDbEntity
  8
0
  6
CONTINUOUS
 62
     7
100
AcDbLine
 10
1564.9776520512
 20
928.6421075583
 30
0.0
 11
1563.605687239
 21
927.270142746
 31
0.0
  0
LINE
  5
19F
330
1F
100
AcDbEntity
  8
0
  6
CONTINUOUS
 62
     7
100
AcDbLine
 10
1230.5988582156
 20
927.270142746
 30
0.0
 11
1235.7128324292
 21
932.3841318607
 31
0.0
  0
LINE
  5
1A0
330
1F
100
AcDbEntity
  8
0
  6
CONTINUOUS
 62
     7
100
AcDbLine
 10
1230.5988582156
 20
927.270142746
 30
0.0
 11
1229.2268934033
 21
928.6421075583
 31
0.0
  0
ARC
  5
1A1
330
1F
100
AcDbEntity
  8
0
  6
CONTINUOUS
 62
     7
100
AcDbCircle
 10
1222.6022727273
 20
927.3471312404
 30
0.0
 40
6.749999999999925
100
AcDbArc
 50
11.0607107913
 51
11.3116269693
  0
LINE
  5
1A2
330
1F
100
AcDbEntity
  8
0
  6
CONTINUOUS
 62
     7
100
AcDbLine
 10
1232.8510346196
 20
932.3009833813
 30
0.0
 11
1229.2211564563
 21
928.6711052179
 31
0.0
  0
LINE
  5
1A3
330
1F
100
AcDbEntity
  8
0
  6
CONTINUOUS
 62
     7
100
AcDbLine
 10
1232.8510346196
 20
935.9943553925
 30
0.0
 11
1232.8510346196
 21
932.3009833813
 31
0.0
  0
LINE
  5
1A4
330
1F
100
AcDbEntity
  8
0
  6
CONTINUOUS
 62
     7
100
AcDbLine
 10
1561.353510835
 20
932.3009833813
 30
0.0
 11
1561.353510835
 21
935.9943553925
 31
0.0
  0
LINE
  5
1A5
330
1F
100
AcDbEntity
  8
0
  6
CONTINUOUS
 62
     7
100
AcDbLine
 10
1564.9833889983
 20
928.6711052179
 30
0.0
 11
1561.353510835
 21
932.3009833813
 31
0.0
  0
ARC
  5
1A6
330
1F
100
AcDbEntity
  8
0
  6
CONTINUOUS
 62
     7
100
AcDbCircle
 10
1571.6022727273
 20
927.3471312404
 30
0.0
 40
6.750000000000175
100
AcDbArc
 50
168.6883730306
 51
168.9392892087
  0
LINE
  5
1A7
330
1F
100
AcDbEntity
  8
0
  6
CONTINUOUS
 62
     7
100
AcDbLine
 10
1553.6192866347
 20
523.5180840015
 30
0.0
 11
1240.5852588198
 21
523.5180840015
 31
0.0
  0
LINE
  5
1A8
330
1F
100
AcDbEntity
  8
0
  6
CONTINUOUS
 62
     7
100
AcDbLine
 10
1235.7128324292
 20
522.0158681393
 30
0.0
 11
1240.5852588198
 21
523.5180840015
 31
0.0
  0
LINE
  5
1A9
330
1F
100
AcDbEntity
  8
0
  6
CONTINUOUS
 62
     7
100
AcDbLine
 10
1222.6792635701
 20
535.0494518995
 30
0.0
 11
1216.918146827
 21
540.8105537415
 31
0.0
  0
LINE
  5
1AA
330
1F
100
AcDbEntity
  8
0
  6
CONTINUOUS
 62
     7
100
AcDbLine
 10
1218.4203626893
 20
545.6829950333
 30
0.0
 11
1216.918146827
 21
540.8105537415
 31
0.0
  0
LINE
  5
1AB
330
1F
100
AcDbEntity
  8
0
  6
CONTINUOUS
 62
     7
100
AcDbLine
 10
1218.4203626893
 20
545.6829950333
 30
0.0
 11
1240.5852588198
 21
523.5180840015
 31
0.0
  0
LINE
  5
1AC
330
1F
100
AcDbEntity
  8
0
  6
CONTINUOUS
 62
     7
100
AcDbLine
 10
1230.5988582156
 20
527.129857254
 30
0.0
 11
1230.5803211711
 21
527.2594824553
 31
0.0
  0
LINE
  5
1AD
330
1F
100
AcDbEntity
  8
0
  6
CONTINUOUS
 62
     7
100
AcDbLine
 10
1230.5803211711
 20
527.2594824553
 30
0.0
 11
1222.8088887713
 21
535.030914855
 31
0.0
  0
LINE
  5
1AE
330
1F
100
AcDbEntity
  8
0
  6
CONTINUOUS
 62
     7
100
AcDbLine
 10
1222.8088887713
 20
535.030914855
 30
0.0
 11
1222.6792635701
 21
535.0494518995
 31
0.0
  0
LINE
  5
1AF
330
1F
100
AcDbEntity
  8
0
  6
CONTINUOUS
 62
     7
100
AcDbLine
 10
1218.4203626893
 20
908.7170049667
 30
0.0
 11
1216.918146827
 21
913.5894462585
 31
0.0
  0
LINE
  5
1B0
330
1F
100
AcDbEntity
  8
0
  6
CONTINUOUS
 62
     7
100
AcDbLine
 10
1218.4203626893
 20
545.6829950333
 30
0.0
 11
1218.4203626893
 21
908.7170049667
 31
0.0
  0
LINE
  5
1B1
330
1F
100
AcDbEntity
  8
0
  6
CONTINUOUS
 62
     7
100
AcDbLine
 10
1216.918146827
 20
540.8105537415
 30
0.0
 11
1216.918146827
 21
913.5894462585
 31
0.0
  0
LINE
  5
1B2
330
1F
100
AcDbEntity
  8
0
  6
CONTINUOUS
 62
     7
100
AcDbLine
 10
1217.0012804053
 20
537.9487559319
 30
0.0
 11
1221.278286197
 21
533.6717501402
 31
0.0
  0
LINE
  5
1B3
330
1F
100
AcDbEntity
  8
0
  6
CONTINUOUS
 62
     7
100
AcDbLine
 10
1215.192339041
 20
537.9487559319
 30
0.0
 11
1217.0012804053
 21
537.9487559319
 31
0.0
  0
LINE
  5
1B4
330
1F
100
AcDbEntity
  8
0
  6
CONTINUOUS
 62
     7
100
AcDbLine
 10
1217.0012804053
 20
916.4512440681
 30
0.0
 11
1215.192339041
 21
916.4512440681
 31
0.0
  0
LINE
  5
1B5
330
1F
100
AcDbEntity
  8
0
  6
CONTINUOUS
 62
     7
100
AcDbLine
 10
1221.278286197
 20
920.7282498598
 30
0.0
 11
1217.0012804053
 21
916.4512440681
 31
0.0
  0
ARC
  5
1B6
330
1F
100
AcDbEntity
  8
0
  6
CONTINUOUS
 62
     7
100
AcDbCircle
 10
1222.6022727273
 20
927.3471312404
 30
0.0
 40
6.749999999999925
100
AcDbArc
 50
258.6883730307
 51
258.9392892087
  0
LINE
  5
1B7
330
1F
100
AcDbEntity
  8
0
  6
CONTINUOUS
 62
     7
100
AcDbLine
 10
1221.3072987578
 20
920.7225129127
 30
0.0
 11
1222.6792635701
 21
919.3505481005
 31
0.0
  0
LINE
  5
1B8
330
1F
100
AcDbEntity
  8
0
  6
CONTINUOUS
 62
     7
100
AcDbLine
 10
1216.918146827
 20
913.5894462585
 30
0.0
 11
1222.6792635701
 21
919.3505481005
 31
0.0
  0
LINE
  5
1B9
330
1F
100
AcDbEntity
  8
0
  6
CONTINUOUS
 62
     7
100
AcDbLine
 10
1222.6792635701
 20
535.0494518995
 30
0.0
 11
1221.3072987578
 21
533.6774870872
 31
0.0
  0
ARC
  5
1BA
330
1F
100
AcDbEntity
  8
0
  6
CONTINUOUS
 62
     7
100
AcDbCircle
 10
1222.6022727273
 20
527.0528687596
 30
0.0
 40
6.749999999999951
100
AcDbArc
 50
101.0607107913
 51
101.3116269694
  0
LINE
  5
1BB
330
1F
100
AcDbEntity
  8
0
  6
CONTINUOUS
 62
     7
100
AcDbLine
 10
1215.2511241219
 20
916.5100291491
 30
0.0
 11
1216.9769319079
 21
916.5100291491
 31
0.0
  0
LINE
  5
1BC
330
1F
100
AcDbEntity
  8
0
  6
CONTINUOUS
 62
     7
100
AcDbLine
 10
1217.0012804053
 20
916.4512440681
 30
0.0
 11
1216.9769319079
 21
916.5100291491
 31
0.0
  0
LINE
  5
1BD
330
1F
100
AcDbEntity
  8
0
  6
CONTINUOUS
 62
     7
100
AcDbLine
 10
1232.8510346196
 20
932.3009833813
 30
0.0
 11
1232.7922495387
 21
932.3253467798
 31
0.0
  0
LINE
  5
1BE
330
1F
100
AcDbEntity
  8
0
  6
CONTINUOUS
 62
     7
100
AcDbLine
 10
1232.7922495387
 20
932.3253467798
 30
0.0
 11
1232.7922495387
 21
935.9345272303
 31
0.0
  0
LINE
  5
1BF
330
1F
100
AcDbEntity
  8
0
  6
CONTINUOUS
 62
     7
100
AcDbLine
 10
1561.353510835
 20
932.3009833813
 30
0.0
 11
1561.4122959159
 21
932.3253467798
 31
0.0
  0
LINE
  5
1C0
330
1F
100
AcDbEntity
  8
0
  6
CONTINUOUS
 62
     7
100
AcDbLine
 10
1561.4122959159
 20
932.3253467798
 30
0.0
 11
1564.9975600026
 21
928.7400826931
 31
0.0
  0
LINE
  5
1C1
330
1F
100
AcDbEntity
  8
0
  6
CONTINUOUS
 62
     7
100
AcDbLine
 10
1565.1006462357
 20
928.5908773661
 30
0.0
 11
1564.9975600026
 21
928.7400826931
 31
0.0
  0
LINE
  5
1C2
330
1F
100
AcDbEntity
  8
0
  6
CONTINUOUS
 62
     7
100
AcDbLine
 10
1565.1006462357
 20
928.5908773661
 30
0.0
 11
1565.0786819241
 21
928.6128416777
 31
0.0
  0
LINE
  5
1C3
330
1F
100
AcDbEntity
  8
0
  6
CONTINUOUS
 62
     7
100
AcDbLine
 10
1565.0786819241
 20
928.6128416777
 30
0.0
 11
1564.9833889983
 21
928.6711052179
 31
0.0
  0
LINE
  5
1C4
330
1F
100
AcDbEntity
  8
0
  6
CONTINUOUS
 62
     7
100
AcDbLine
 10
1561.4122959159
 20
935.9345272303
 30
0.0
 11
1561.4122959159
 21
932.3253467798
 31
0.0
  0
LINE
  5
1C5
330
1F
100
AcDbEntity
  8
0
  6
CONTINUOUS
 62
     7
100
AcDbLine
 10
1229.1038992188
 20
928.5908773661
 30
0.0
 11
1229.1258635304
 21
928.6128416777
 31
0.0
  0
LINE
  5
1C6
330
1F
100
AcDbEntity
  8
0
  6
CONTINUOUS
 62
     7
100
AcDbLine
 10
1229.206985452
 20
928.7400826931
 30
0.0
 11
1229.1038992188
 21
928.5908773661
 31
0.0
  0
LINE
  5
1C7
330
1F
100
AcDbEntity
  8
0
  6
CONTINUOUS
 62
     7
100
AcDbLine
 10
1229.206985452
 20
928.7400826931
 30
0.0
 11
1232.7922495387
 21
932.3253467798
 31
0.0
  0
LINE
  5
1C8
330
1F
100
AcDbEntity
  8
0
  6
CONTINUOUS
 62
     7
100
AcDbLine
 10
1229.2211564563
 20
928.6711052179
 30
0.0
 11
1229.1258635304
 21
928.6128416777
 31
0.0
  0
LINE
  5
1C9
330
1F
100
AcDbEntity
  8
0
  6
CONTINUOUS
 62
     7
100
AcDbLine
 10
1222.8088887713
 20
919.369085145
 30
0.0
 11
1222.6792635701
 21
919.3505481005
 31
0.0
  0
LINE
  5
1CA
330
1F
100
AcDbEntity
  8
0
  6
CONTINUOUS
 62
     7
100
AcDbLine
 10
1221.3586630604
 20
920.8192959547
 30
0.0
 11
1221.3072987578
 21
920.7225129127
 31
0.0
  0
LINE
  5
1CB
330
1F
100
AcDbEntity
  8
0
  6
CONTINUOUS
 62
     7
100
AcDbLine
 10
1221.3586630604
 20
920.8192959547
 30
0.0
 11
1222.8088887713
 21
919.369085145
 31
0.0
  0
LINE
  5
1CC
330
1F
100
AcDbEntity
  8
0
  6
CONTINUOUS
 62
     7
100
AcDbLine
 10
1579.0122064135
 20
916.4512440681
 30
0.0
 11
1577.2032650492
 21
916.4512440681
 31
0.0
  0
LINE
  5
1CD
330
1F
100
AcDbEntity
  8
0
  6
CONTINUOUS
 62
     7
100
AcDbLine
 10
1577.2032650492
 20
916.4512440681
 30
0.0
 11
1577.2276135466
 21
916.5100291491
 31
0.0
  0
LINE
  5
1CE
330
1F
100
AcDbEntity
  8
0
  6
CONTINUOUS
 62
     7
100
AcDbLine
 10
1577.2276135466
 20
916.5100291491
 30
0.0
 11
1578.9534213326
 21
916.5100291491
 31
0.0
  0
LINE
  5
1CF
330
1F
100
AcDbEntity
  8
0
  6
CONTINUOUS
 62
     7
100
AcDbLine
 10
1221.3365646384
 20
533.5764572144
 30
0.0
 11
1221.35852895
 21
533.5544929028
 31
0.0
  0
LINE
  5
1D0
330
1F
100
AcDbEntity
  8
0
  6
CONTINUOUS
 62
     7
100
AcDbLine
 10
1221.209323623
 20
533.6575791359
 30
0.0
 11
1221.35852895
 21
533.5544929028
 31
0.0
  0
LINE
  5
1D1
330
1F
100
AcDbEntity
  8
0
  6
CONTINUOUS
 62
     7
100
AcDbLine
 10
1221.209323623
 20
533.6575791359
 30
0.0
 11
1216.9769319079
 21
537.8899708509
 31
0.0
  0
LINE
  5
1D2
330
1F
100
AcDbEntity
  8
0
  6
CONTINUOUS
 62
     7
100
AcDbLine
 10
1217.0012804053
 20
537.9487559319
 30
0.0
 11
1216.9769319079
 21
537.8899708509
 31
0.0
  0
LINE
  5
1D3
330
1F
100
AcDbEntity
  8
0
  6
CONTINUOUS
 62
     7
100
AcDbLine
 10
1221.278286197
 20
533.6717501402
 30
0.0
 11
1221.3365646384
 21
533.5764572144
 31
0.0
  0
LINE
  5
1D4
330
1F
100
AcDbEntity
  8
0
  6
CONTINUOUS
 62
     7
100
AcDbLine
 10
1563.6242242835
 20
527.2594824553
 30
0.0
 11
1565.0744350932
 21
525.8092716455
 31
0.0
  0
LINE
  5
1D5
330
1F
100
AcDbEntity
  8
0
  6
CONTINUOUS
 62
     7
100
AcDbLine
 10
1565.0744350932
 20
525.8092716455
 30
0.0
 11
1564.9776520512
 21
525.7578924417
 31
0.0
  0
LINE
  5
1D6
330
1F
100
AcDbEntity
  8
0
  6
CONTINUOUS
 62
     7
100
AcDbLine
 10
1218.4203626893
 20
908.7170049667
 30
0.0
 11
1240.5852588198
 21
930.8819159985
 31
0.0
  0
LINE
  5
1D7
330
1F
100
AcDbEntity
  8
0
  6
CONTINUOUS
 62
     7
100
AcDbLine
 10
1222.8088887713
 20
919.369085145
 30
0.0
 11
1230.5803211711
 21
927.1405175447
 31
0.0
  0
LINE
  5
1D8
330
1F
100
AcDbEntity
  8
0
  6
CONTINUOUS
 62
     7
100
AcDbLine
 10
1230.5988582156
 20
927.270142746
 30
0.0
 11
1230.5803211711
 21
927.1405175447
 31
0.0
  0
LINE
  5
1D9
330
1F
100
AcDbEntity
  8
0
  6
CONTINUOUS
 62
     7
100
AcDbLine
 10
1216.9769319079
 20
537.8899708509
 30
0.0
 11
1215.2511241219
 21
537.8899708509
 31
0.0
  0
ARC
  5
1DA
330
1F
100
AcDbEntity
  8
0
  6
CONTINUOUS
 62
     7
100
AcDbCircle
 10
1571.6022727273
 20
527.0528687596
 30
0.0
 40
6.645237691524893
100
AcDbArc
 50
190.786054061
 51
190.9801349245
  0
LINE
  5
1DB
330
1F
100
AcDbEntity
  8
0
  6
CONTINUOUS
 62
     7
100
AcDbLine
 10
1564.9833889983
 20
525.7288947821
 30
0.0
 11
1565.0786819241
 21
525.7871583223
 31
0.0
  0
LINE
  5
1DC
330
1F
100
AcDbEntity
  8
0
  6
CONTINUOUS
 62
     7
100
AcDbLine
 10
1572.8972466967
 20
533.6774870872
 30
0.0
 11
1571.5252818845
 21
535.0494518995
 31
0.0
  0
LINE
  5
1DD
330
1F
100
AcDbEntity
  8
0
  6
CONTINUOUS
 62
     7
100
AcDbLine
 10
1577.2863986275
 20
913.5894462585
 30
0.0
 11
1577.2863986275
 21
540.8105537415
 31
0.0
  0
LINE
  5
1DE
330
1F
100
AcDbEntity
  8
0
  6
CONTINUOUS
 62
     7
100
AcDbLine
 10
1571.5252818845
 20
919.3505481005
 30
0.0
 11
1572.8972466967
 21
920.7225129127
 31
0.0
  0
ARC
  5
1DF
330
1F
100
AcDbEntity
  8
0
  6
CONTINUOUS
 62
     7
100
AcDbCircle
 10
1571.6022727273
 20
927.3471312404
 30
0.0
 40
6.749999999999925
100
AcDbArc
 50
281.0607107913
 51
281.3116269694
  0
LINE
  5
1E0
330
1F
100
AcDbEntity
  8
0
  6
CONTINUOUS
 62
     7
100
AcDbLine
 10
1577.2032650492
 20
916.4512440681
 30
0.0
 11
1572.9262592576
 21
920.7282498598
 31
0.0
  0
LINE
  5
1E1
330
1F
100
AcDbEntity
  8
0
  6
CONTINUOUS
 62
     7
100
AcDbLine
 10
1577.2032650492
 20
537.9487559319
 30
0.0
 11
1579.0122064135
 21
537.9487559319
 31
0.0
  0
LINE
  5
1E2
330
1F
100
AcDbEntity
  8
0
  6
CONTINUOUS
 62
     7
100
AcDbLine
 10
1572.9262592576
 20
533.6717501402
 30
0.0
 11
1577.2032650492
 21
537.9487559319
 31
0.0
  0
ARC
  5
1E3
330
1F
100
AcDbEntity
  8
0
  6
CONTINUOUS
 62
     7
100
AcDbCircle
 10
1571.6022727273
 20
527.0528687596
 30
0.0
 40
6.749999999999925
100
AcDbArc
 50
78.6883730307
 51
78.9392892087
  0
LINE
  5
1E4
330
1F
100
AcDbEntity
  8
0
  6
CONTINUOUS
 62
     7
100
AcDbLine
 10
1221.3586630604
 20
533.5807040453
 30
0.0
 11
1221.3072987578
 21
533.6774870872
 31
0.0
  0
ARC
  5
1E5
330
1F
100
AcDbEntity
  8
0
  6
CONTINUOUS
 62
     7
100
AcDbCircle
 10
1222.6022727273
 20
527.0528687596
 30
0.0
 40
6.64523769152474
100
AcDbArc
 50
100.786054061
 51
100.9801349245
  0
LINE
  5
1E6
330
1F
100
AcDbEntity
  8
0
  6
CONTINUOUS
 62
     7
100
AcDbLine
 10
1577.2032650492
 20
537.9487559319
 30
0.0
 11
1577.2276135466
 21
537.8899708509
 31
0.0
  0
LINE
  5
1E7
330
1F
100
AcDbEntity
  8
0
  6
CONTINUOUS
 62
     7
100
AcDbLine
 10
1577.2276135466
 20
537.8899708509
 30
0.0
 11
1572.9952218316
 21
533.6575791359
 31
0.0
  0
LINE
  5
1E8
330
1F
100
AcDbEntity
  8
0
  6
CONTINUOUS
 62
     7
100
AcDbLine
 10
1572.8460165045
 20
533.5544929028
 30
0.0
 11
1572.9952218316
 21
533.6575791359
 31
0.0
  0
LINE
  5
1E9
330
1F
100
AcDbEntity
  8
0
  6
CONTINUOUS
 62
     7
100
AcDbLine
 10
1572.8679808161
 20
533.5764572144
 30
0.0
 11
1572.8460165045
 21
533.5544929028
 31
0.0
  0
LINE
  5
1EA
330
1F
100
AcDbEntity
  8
0
  6
CONTINUOUS
 62
     7
100
AcDbLine
 10
1572.8679808161
 20
533.5764572144
 30
0.0
 11
1572.9262592576
 21
533.6717501402
 31
0.0
  0
LINE
  5
1EB
330
1F
100
AcDbEntity
  8
0
  6
CONTINUOUS
 62
     7
100
AcDbLine
 10
1565.1006462357
 20
525.8091226339
 30
0.0
 11
1565.0786819241
 21
525.7871583223
 31
0.0
  0
LINE
  5
1EC
330
1F
100
AcDbEntity
  8
0
  6
CONTINUOUS
 62
     7
100
AcDbLine
 10
1564.9975600026
 20
525.6599173069
 30
0.0
 11
1565.1006462357
 21
525.8091226339
 31
0.0
  0
LINE
  5
1ED
330
1F
100
AcDbEntity
  8
0
  6
CONTINUOUS
 62
     7
100
AcDbLine
 10
1564.9975600026
 20
525.6599173069
 30
0.0
 11
1561.4122959159
 21
522.0746532202
 31
0.0
  0
LINE
  5
1EE
330
1F
100
AcDbEntity
  8
0
  6
CONTINUOUS
 62
     7
100
AcDbLine
 10
1561.353510835
 20
522.0990166187
 30
0.0
 11
1561.4122959159
 21
522.0746532202
 31
0.0
  0
LINE
  5
1EF
330
1F
100
AcDbEntity
  8
0
  6
CONTINUOUS
 62
     7
100
AcDbLine
 10
1230.5803211711
 20
927.1405175447
 30
0.0
 11
1229.1301103614
 21
928.5907283545
 31
0.0
  0
LINE
  5
1F0
330
1F
100
AcDbEntity
  8
0
  6
CONTINUOUS
 62
     7
100
AcDbLine
 10
1229.1301103614
 20
928.5907283545
 30
0.0
 11
1229.2268934033
 21
928.6421075583
 31
0.0
  0
LINE
  5
1F1
330
1F
100
AcDbEntity
  8
0
  6
CONTINUOUS
 62
     7
100
AcDbLine
 10
1216.9769319079
 20
916.5100291491
 30
0.0
 11
1221.209323623
 21
920.7424208641
 31
0.0
  0
LINE
  5
1F2
330
1F
100
AcDbEntity
  8
0
  6
CONTINUOUS
 62
     7
100
AcDbLine
 10
1221.35852895
 20
920.8455070972
 30
0.0
 11
1221.209323623
 21
920.7424208641
 31
0.0
  0
LINE
  5
1F3
330
1F
100
AcDbEntity
  8
0
  6
CONTINUOUS
 62
     7
100
AcDbLine
 10
1221.3365646384
 20
920.8235427856
 30
0.0
 11
1221.35852895
 21
920.8455070972
 31
0.0
  0
LINE
  5
1F4
330
1F
100
AcDbEntity
  8
0
  6
CONTINUOUS
 62
     7
100
AcDbLine
 10
1221.3365646384
 20
920.8235427856
 30
0.0
 11
1221.278286197
 21
920.7282498598
 31
0.0
  0
LINE
  5
1F5
330
1F
100
AcDbEntity
  8
0
  6
CONTINUOUS
 62
     7
100
AcDbLine
 10
1565.0744350932
 20
928.5907283545
 30
0.0
 11
1564.9776520512
 21
928.6421075583
 31
0.0
  0
LINE
  5
1F6
330
1F
100
AcDbEntity
  8
0
  6
CONTINUOUS
 62
     7
100
AcDbLine
 10
1565.0744350932
 20
928.5907283545
 30
0.0
 11
1563.6242242835
 21
927.1405175447
 31
0.0
  0
LINE
  5
1F7
330
1F
100
AcDbEntity
  8
0
  6
CONTINUOUS
 62
     7
100
AcDbLine
 10
1571.3956566832
 20
919.369085145
 30
0.0
 11
1572.8458823941
 21
920.8192959547
 31
0.0
  0
LINE
  5
1F8
330
1F
100
AcDbEntity
  8
0
  6
CONTINUOUS
 62
     7
100
AcDbLine
 10
1572.8458823941
 20
920.8192959547
 30
0.0
 11
1572.8972466967
 21
920.7225129127
 31
0.0
  0
LINE
  5
1F9
330
1F
100
AcDbEntity
  8
0
  6
CONTINUOUS
 62
     7
100
AcDbLine
 10
1572.8458823941
 20
533.5807040453
 30
0.0
 11
1572.8972466967
 21
533.6774870872
 31
0.0
  0
LINE
  5
1FA
330
1F
100
AcDbEntity
  8
0
  6
CONTINUOUS
 62
     7
100
AcDbLine
 10
1572.8458823941
 20
533.5807040453
 30
0.0
 11
1571.3956566832
 21
535.030914855
 31
0.0
  0
LINE
  5
1FB
330
1F
100
AcDbEntity
  8
0
  6
CONTINUOUS
 62
     7
100
AcDbLine
 10
1578.9534213326
 20
537.8899708509
 30
0.0
 11
1577.2276135466
 21
537.8899708509
 31
0.0
  0
LINE
  5
1FC
330
1F
100
AcDbEntity
  8
0
  6
CONTINUOUS
 62
     7
100
AcDbLine
 10
1572.8679808161
 20
920.8235427856
 30
0.0
 11
1572.8460165045
 21
920.8455070972
 31
0.0
  0
LINE
  5
1FD
330
1F
100
AcDbEntity
  8
0
  6
CONTINUOUS
 62
     7
100
AcDbLine
 10
1572.9952218316
 20
920.7424208641
 30
0.0
 11
1572.8460165045
 21
920.8455070972
 31
0.0
  0
LINE
  5
1FE
330
1F
100
AcDbEntity
  8
0
  6
CONTINUOUS
 62
     7
100
AcDbLine
 10
1572.9952218316
 20
920.7424208641
 30
0.0
 11
1577.2276135466
 21
916.5100291491
 31
0.0
  0
LINE
  5
1FF
330
1F
100
AcDbEntity
  8
0
  6
CONTINUOUS
 62
     7
100
AcDbLine
 10
1572.9262592576
 20
920.7282498598
 30
0.0
 11
1572.8679808161
 21
920.8235427856
 31
0.0
  0
ARC
  5
200
330
1F
100
AcDbEntity
  8
0
  6
CONTINUOUS
 62
     7
100
AcDbCircle
 10
1222.6022727273
 20
927.3471312404
 30
0.0
 40
6.645237691524872
100
AcDbArc
 50
10.786054061
 51
10.9801349245
  0
LINE
  5
201
330
1F
100
AcDbEntity
  8
0
  6
CONTINUOUS
 62
     7
100
AcDbLine
 10
1222.8088887713
 20
535.030914855
 30
0.0
 11
1221.3586630604
 21
533.5807040453
 31
0.0
  0
ARC
  5
202
330
1F
100
AcDbEntity
  8
0
  6
CONTINUOUS
 62
     7
100
AcDbCircle
 10
1571.6022727273
 20
927.3471312404
 30
0.0
 40
6.645237691524893
100
AcDbArc
 50
169.0198650755
 51
169.213945939
  0
ARC
  5
203
330
1F
100
AcDbEntity
  8
0
  6
CONTINUOUS
 62
     7
100
AcDbCircle
 10
1222.6022727273
 20
927.3471312404
 30
0.0
 40
6.64523769152474
100
AcDbArc
 50
259.0198650755
 51
259.213945939
  0
LINE
  5
204
330
1F
100
AcDbEntity
  8
0
  6
CONTINUOUS
 62
     7
100
AcDbLine
 10
1232.8510346196
 20
522.0990166187
 30
0.0
 11
1232.7922495387
 21
522.0746532202
 31
0.0
  0
LINE
  5
205
330
1F
100
AcDbEntity
  8
0
  6
CONTINUOUS
 62
     7
100
AcDbLine
 10
1232.7922495387
 20
522.0746532202
 30
0.0
 11
1229.206985452
 21
525.6599173069
 31
0.0
  0
LINE
  5
206
330
1F
100
AcDbEntity
  8
0
  6
CONTINUOUS
 62
     7
100
AcDbLine
 10
1229.1038992188
 20
525.8091226339
 30
0.0
 11
1229.206985452
 21
525.6599173069
 31
0.0
  0
LINE
  5
207
330
1F
100
AcDbEntity
  8
0
  6
CONTINUOUS
 62
     7
100
AcDbLine
 10
1229.1038992188
 20
525.8091226339
 30
0.0
 11
1229.1258635304
 21
525.7871583223
 31
0.0
  0
LINE
  5
208
330
1F
100
AcDbEntity
  8
0
  6
CONTINUOUS
 62
     7
100
AcDbLine
 10
1229.1258635304
 20
525.7871583223
 30
0.0
 11
1229.2211564563
 21
525.7288947821
 31
0.0
  0
ARC
  5
209
330
1F
100
AcDbEntity
  8
0
  6
CONTINUOUS
 62
     7
100
AcDbCircle
 10
1571.6022727273
 20
927.3471312404
 30
0.0
 40
6.64523769152474
100
AcDbArc
 50
280.786054061
 51
280.9801349245
  0
ARC
  5
20A
330
1F
100
AcDbEntity
  8
0
  6
CONTINUOUS
 62
     7
100
AcDbCircle
 10
1222.6022727273
 20
527.0528687596
 30
0.0
 40
6.645237691524781
100
AcDbArc
 50
349.0198650755
 51
349.213945939
  0
LINE
  5
20B
330
1F
100
AcDbEntity
  8
0
  6
CONTINUOUS
 62
     7
100
AcDbLine
 10
1229.1301103614
 20
525.8092716455
 30
0.0
 11
1229.2268934033
 21
525.7578924417
 31
0.0
  0
LINE
  5
20C
330
1F
100
AcDbEntity
  8
0
  6
CONTINUOUS
 62
     7
100
AcDbLine
 10
1232.7922495387
 20
518.4654727697
 30
0.0
 11
1232.7922495387
 21
522.0746532202
 31
0.0
  0
ARC
  5
20D
330
1F
100
AcDbEntity
  8
0
  6
CONTINUOUS
 62
     7
100
AcDbCircle
 10
1571.6022727273
 20
527.0528687596
 30
0.0
 40
6.64523769152474
100
AcDbArc
 50
79.0198650755
 51
79.213945939
  0
LINE
  5
20E
330
1F
100
AcDbEntity
  8
0
  6
CONTINUOUS
 62
     7
100
AcDbLine
 10
1229.1301103614
 20
525.8092716455
 30
0.0
 11
1230.5803211711
 21
527.2594824553
 31
0.0
  0
LINE
  5
20F
330
1F
100
AcDbEntity
  8
0
  6
CONTINUOUS
 62
     7
100
AcDbLine
 10
1561.4122959159
 20
522.0746532202
 30
0.0
 11
1561.4122959159
 21
518.4654727697
 31
0.0
  0
LINE
  5
210
330
1F
100
AcDbEntity
  8
0
  6
CONTINUOUS
 62
     7
100
AcDbLine
 10
1575.7841827653
 20
908.7170049667
 30
0.0
 11
1575.7841827653
 21
545.6829950333
 31
0.0
  0
ARC
  5
211
330
1F
100
AcDbEntity
  8
0
  6
CONTINUOUS
 62
     7
100
AcDbCircle
 10
1571.6022727273
 20
527.0528687596
 30
0.0
 40
6.750000000000039
100
AcDbArc
 50
191.9092841139
 51
78.0907158861
  0
ARC
  5
212
330
1F
100
AcDbEntity
  8
0
  6
CONTINUOUS
 62
     7
100
AcDbCircle
 10
1571.6022727273
 20
527.0528687596
 30
0.0
 40
6.619519539982135
100
AcDbArc
 50
190.8297398803
 51
79.1702601197
  0
ARC
  5
213
330
1F
100
AcDbEntity
  8
0
  6
CONTINUOUS
 62
     7
100
AcDbCircle
 10
1222.6022727273
 20
527.0528687596
 30
0.0
 40
6.750000000000039
100
AcDbArc
 50
101.9092841139
 51
348.0907158861
  0
ARC
  5
214
330
1F
100
AcDbEntity
  8
0
  6
CONTINUOUS
 62
     7
100
AcDbCircle
 10
1222.6022727273
 20
527.0528687596
 30
0.0
 40
6.619519539981912
100
AcDbArc
 50
100.8297398803
 51
349.1702601197
  0
CIRCLE
  5
215
330
1F
100
AcDbEntity
  8
0
  6
CONTINUOUS
 62
     7
100
AcDbCircle
 10
1571.6022727273
 20
927.3471312404
 30
0.0
 40
3.5
  0
CIRCLE
  5
216
330
1F
100
AcDbEntity
  8
0
  6
CONTINUOUS
 62
     7
100
AcDbCircle
 10
1571.6022727273
 20
927.3471312404
 30
0.0
 40
2.800731880564854
  0
ARC
  5
217
330
1F
100
AcDbEntity
  8
0
  6
CONTINUOUS
 62
     7
100
AcDbCircle
 10
1222.6022727273
 20
927.3471312404
 30
0.0
 40
6.619519539981912
100
AcDbArc
 50
10.8297398803
 51
259.1702601197
  0
CIRCLE
  5
218
330
1F
100
AcDbEntity
  8
0
  6
CONTINUOUS
 62
     7
100
AcDbCircle
 10
1222.6022727273
 20
927.3471312404
 30
0.0
 40
3.5
  0
ARC
  5
219
330
1F
100
AcDbEntity
  8
0
  6
CONTINUOUS
 62
     7
100
AcDbCircle
 10
1222.6022727273
 20
927.3471312404
 30
0.0
 40
6.750000000000039
100
AcDbArc
 50
11.9092841139
 51
258.0907158861
  0
CIRCLE
  5
21A
330
1F
100
AcDbEntity
  8
0
  6
CONTINUOUS
 62
     7
100
AcDbCircle
 10
1222.6022727273
 20
927.3471312404
 30
0.0
 40
2.800731880564854
  0
CIRCLE
  5
21B
330
1F
100
AcDbEntity
  8
0
  6
CONTINUOUS
 62
     7
100
AcDbCircle
 10
1571.6022727273
 20
527.0528687596
 30
0.0
 40
3.5
  0
CIRCLE
  5
21C
330
1F
100
AcDbEntity
  8
0
  6
CONTINUOUS
 62
     7
100
AcDbCircle
 10
1571.6022727273
 20
527.0528687596
 30
0.0
 40
2.800731880564967
  0
CIRCLE
  5
21D
330
1F
100
AcDbEntity
  8
0
  6
CONTINUOUS
 62
     7
100
AcDbCircle
 10
1222.6022727273
 20
527.0528687596
 30
0.0
 40
3.5
  0
CIRCLE
  5
21E
330
1F
100
AcDbEntity
  8
0
  6
CONTINUOUS
 62
     7
100
AcDbCircle
 10
1222.6022727273
 20
527.0528687596
 30
0.0
 40
2.800731880564967
  0
ARC
  5
21F
330
1F
100
AcDbEntity
  8
0
  6
CONTINUOUS
 62
     7
100
AcDbCircle
 10
1571.6022727273
 20
927.3471312404
 30
0.0
 40
6.619519539982135
100
AcDbArc
 50
280.8297398803
 51
169.1702601197
  0
ARC
  5
220
330
1F
100
AcDbEntity
  8
0
  6
CONTINUOUS
 62
     7
100
AcDbCircle
 10
1571.6022727273
 20
927.3471312404
 30
0.0
 40
6.750000000000016
100
AcDbArc
 50
281.9092841139
 51
168.0907158861
  0
LINE
  5
221
330
1F
100
AcDbEntity
  8
0
  6
CONTINUOUS
 62
     7
100
AcDbLine
 10
1418.3472549848
 20
795.9995553017
 30
0.0
 11
1420.8797576211
 21
798.7143159032
 31
0.0
  0
LINE
  5
222
330
1F
100
AcDbEntity
  8
0
  6
CONTINUOUS
 62
     7
100
AcDbLine
 10
1415.6083302877
 20
795.9995553017
 30
0.0
 11
1418.3472549848
 21
795.9995553017
 31
0.0
  0
LINE
  5
223
330
1F
100
AcDbEntity
  8
0
  6
CONTINUOUS
 62
     7
100
AcDbLine
 10
1419.5102962039
 20
800.49954952
 30
0.0
 11
1415.6083302877
 21
795.9995553017
 31
0.0
  0
LINE
  5
224
330
1F
100
AcDbEntity
  8
0
  6
CONTINUOUS
 62
     7
100
AcDbLine
 10
1415.6083302877
 20
804.9995511889
 30
0.0
 11
1419.5102962039
 21
800.49954952
 31
0.0
  0
LINE
  5
225
330
1F
100
AcDbEntity
  8
0
  6
CONTINUOUS
 62
     7
100
AcDbLine
 10
1418.3472549848
 20
804.9995511889
 30
0.0
 11
1415.6083302877
 21
804.9995511889
 31
0.0
  0
LINE
  5
226
330
1F
100
AcDbEntity
  8
0
  6
CONTINUOUS
 62
     7
100
AcDbLine
 10
1420.8797576211
 20
802.2847905874
 30
0.0
 11
1418.3472549848
 21
804.9995511889
 31
0.0
  0
LINE
  5
227
330
1F
100
AcDbEntity
  8
0
  6
CONTINUOUS
 62
     7
100
AcDbLine
 10
1423.41226212
 20
804.9995511889
 30
0.0
 11
1420.8797576211
 21
802.2847905874
 31
0.0
  0
LINE
  5
228
330
1F
100
AcDbEntity
  8
0
  6
CONTINUOUS
 62
     7
100
AcDbLine
 10
1426.1511868171
 20
804.9995511889
 30
0.0
 11
1423.41226212
 21
804.9995511889
 31
0.0
  0
LINE
  5
229
330
1F
100
AcDbEntity
  8
0
  6
CONTINUOUS
 62
     7
100
AcDbLine
 10
1422.2492209009
 20
800.49954952
 30
0.0
 11
1426.1511868171
 21
804.9995511889
 31
0.0
  0
LINE
  5
22A
330
1F
100
AcDbEntity
  8
0
  6
CONTINUOUS
 62
     7
100
AcDbLine
 10
1426.1511868171
 20
795.9995553017
 30
0.0
 11
1422.2492209009
 21
800.49954952
 31
0.0
  0
LINE
  5
22B
330
1F
100
AcDbEntity
  8
0
  6
CONTINUOUS
 62
     7
100
AcDbLine
 10
1423.41226212
 20
795.9995553017
 30
0.0
 11
1426.1511868171
 21
795.9995553017
 31
0.0
  0
LINE
  5
22C
330
1F
100
AcDbEntity
  8
0
  6
CONTINUOUS
 62
     7
100
AcDbLine
 10
1420.8797576211
 20
798.7143159032
 30
0.0
 11
1423.41226212
 21
795.9995553017
 31
0.0
  0
LINE
  5
22D
330
1F
100
AcDbEntity
  8
0
  6
CONTINUOUS
 62
     7
100
AcDbLine
 10
1386.9690435312
 20
801.3031244397
 30
0.0
 11
1380.5404721133
 21
801.3031244397
 31
0.0
  0
LINE
  5
22E
330
1F
100
AcDbEntity
  8
0
  6
CONTINUOUS
 62
     7
100
AcDbLine
 10
1380.5404721133
 20
799.6959820509
 30
0.0
 11
1386.9690435312
 21
799.6959820509
 31
0.0
  0
LINE
  5
22F
330
1F
100
AcDbEntity
  8
0
  6
CONTINUOUS
 62
     7
100
AcDbLine
 10
1380.5404721133
 20
795.9995553017
 30
0.0
 11
1380.5404721133
 21
799.6959820509
 31
0.0
  0
LINE
  5
230
330
1F
100
AcDbEntity
  8
0
  6
CONTINUOUS
 62
     7
100
AcDbLine
 10
1378.2904731415
 20
795.9995553017
 30
0.0
 11
1380.5404721133
 21
795.9995553017
 31
0.0
  0
LINE
  5
231
330
1F
100
AcDbEntity
  8
0
  6
CONTINUOUS
 62
     7
100
AcDbLine
 10
1378.2904731415
 20
804.9995511889
 30
0.0
 11
1378.2904731415
 21
795.9995553017
 31
0.0
  0
LINE
  5
232
330
1F
100
AcDbEntity
  8
0
  6
CONTINUOUS
 62
     7
100
AcDbLine
 10
1387.933329337
 20
804.9995511889
 30
0.0
 11
1378.2904731415
 21
804.9995511889
 31
0.0
  0
LINE
  5
233
330
1F
100
AcDbEntity
  8
0
  6
CONTINUOUS
 62
     7
100
AcDbLine
 10
1387.933329337
 20
803.3924088001
 30
0.0
 11
1387.933329337
 21
804.9995511889
 31
0.0
  0
LINE
  5
234
330
1F
100
AcDbEntity
  8
0
  6
CONTINUOUS
 62
     7
100
AcDbLine
 10
1380.5404721133
 20
803.3924088001
 30
0.0
 11
1387.933329337
 21
803.3924088001
 31
0.0
  0
LINE
  5
235
330
1F
100
AcDbEntity
  8
0
  6
CONTINUOUS
 62
     7
100
AcDbLine
 10
1380.5404721133
 20
801.3031244397
 30
0.0
 11
1380.5404721133
 21
803.3924088001
 31
0.0
  0
LINE
  5
236
330
1F
100
AcDbEntity
  8
0
  6
CONTINUOUS
 62
     7
100
AcDbLine
 10
1386.9690435312
 20
799.6959820509
 30
0.0
 11
1386.9690435312
 21
801.3031244397
 31
0.0
  0
LINE
  5
237
330
1F
100
AcDbEntity
  8
0
  6
CONTINUOUS
 62
     7
100
AcDbLine
 10
1395.6476154343
 20
803.3924088001
 30
0.0
 11
1395.6476154343
 21
801.3031244397
 31
0.0
  0
LINE
  5
238
330
1F
100
AcDbEntity
  8
0
  6
CONTINUOUS
 62
     7
100
AcDbLine
 10
1395.6476154343
 20
801.3031244397
 30
0.0
 11
1400.7904726385
 21
801.3031244397
 31
0.0
  0
ARC
  5
239
330
1F
100
AcDbEntity
  8
0
  6
CONTINUOUS
 62
     7
100
AcDbCircle
 10
1400.7904725402
 20
802.3477666876
 30
0.0
 40
1.04464285714289
100
AcDbArc
 50
270.0
 51
90.0
  0
LINE
  5
23A
330
1F
100
AcDbEntity
  8
0
  6
CONTINUOUS
 62
     7
100
AcDbLine
 10
1400.7904726385
 20
803.3924088001
 30
0.0
 11
1395.6476154343
 21
803.3924088001
 31
0.0
  0
LINE
  5
23B
330
1F
100
AcDbEntity
  8
0
  6
CONTINUOUS
 62
     7
100
AcDbLine
 10
1393.3976154148
 20
804.9995511889
 30
0.0
 11
1393.3976154148
 21
795.9995553017
 31
0.0
  0
LINE
  5
23C
330
1F
100
AcDbEntity
  8
0
  6
CONTINUOUS
 62
     7
100
AcDbLine
 10
1401.7547584444
 20
804.9995511889
 30
0.0
 11
1393.3976154148
 21
804.9995511889
 31
0.0
  0
ARC
  5
23D
330
1F
100
AcDbEntity
  8
0
  6
CONTINUOUS
 62
     7
100
AcDbCircle
 10
1401.7547582545
 20
802.4281238304
 30
0.0
 40
2.571428571428776
100
AcDbArc
 50
311.4096221093
 51
90.0
  0
ARC
  5
23E
330
1F
100
AcDbEntity
  8
0
  6
CONTINUOUS
 62
     7
100
AcDbCircle
 10
1401.7547582545
 20
798.5709809733
 30
0.0
 40
2.571428571428625
100
AcDbArc
 50
270.0
 51
48.5903778907
  0
LINE
  5
23F
330
1F
100
AcDbEntity
  8
0
  6
CONTINUOUS
 62
     7
100
AcDbLine
 10
1395.6476154343
 20
797.6066976905
 30
0.0
 11
1400.7904726385
 21
797.6066976905
 31
0.0
  0
ARC
  5
240
330
1F
100
AcDbEntity
  8
0
  6
CONTINUOUS
 62
     7
100
AcDbCircle
 10
1400.7904725402
 20
798.6513381161
 30
0.0
 40
1.04464285714289
100
AcDbArc
 50
270.0
 51
90.0
  0
LINE
  5
241
330
1F
100
AcDbEntity
  8
0
  6
CONTINUOUS
 62
     7
100
AcDbLine
 10
1400.7904726385
 20
799.6959820509
 30
0.0
 11
1395.6476154343
 21
799.6959820509
 31
0.0
  0
LINE
  5
242
330
1F
100
AcDbEntity
  8
0
  6
CONTINUOUS
 62
     7
100
AcDbLine
 10
1395.6476154343
 20
799.6959820509
 30
0.0
 11
1395.6476154343
 21
797.6066976905
 31
0.0
  0
LINE
  5
243
330
1F
100
AcDbEntity
  8
0
  6
CONTINUOUS
 62
     7
100
AcDbLine
 10
1393.3976154148
 20
795.9995553017
 30
0.0
 11
1401.7547584444
 21
795.9995553017
 31
0.0
  0
LINE
  5
244
330
1F
100
AcDbEntity
  8
0
  6
CONTINUOUS
 62
     7
100
AcDbLine
 10
1391.7904725603
 20
804.9995511889
 30
0.0
 11
1389.5404726572
 21
804.9995511889
 31
0.0
  0
LINE
  5
245
330
1F
100
AcDbEntity
  8
0
  6
CONTINUOUS
 62
     7
100
AcDbLine
 10
1391.7904725603
 20
795.9995553017
 30
0.0
 11
1391.7904725603
 21
804.9995511889
 31
0.0
  0
LINE
  5
246
330
1F
100
AcDbEntity
  8
0
  6
CONTINUOUS
 62
     7
100
AcDbLine
 10
1389.5404726572
 20
795.9995553017
 30
0.0
 11
1391.7904725603
 21
795.9995553017
 31
0.0
  0
LINE
  5
247
330
1F
100
AcDbEntity
  8
0
  6
CONTINUOUS
 62
     7
100
AcDbLine
 10
1389.5404726572
 20
804.9995511889
 30
0.0
 11
1389.5404726572
 21
795.9995553017
 31
0.0
  0
ARC
  5
248
330
1F
100
AcDbEntity
  8
0
  6
CONTINUOUS
 62
     7
100
AcDbCircle
 10
1408.5921993283
 20
798.6513381161
 30
0.0
 40
0.960416069009284
100
AcDbArc
 50
180.0
 51
270.0
  0
LINE
  5
249
330
1F
100
AcDbEntity
  8
0
  6
CONTINUOUS
 62
     7
100
AcDbLine
 10
1408.5921995647
 20
797.6909190536
 30
0.0
 11
1412.6473168216
 21
797.6909190536
 31
0.0
  0
ARC
  5
24A
330
1F
100
AcDbEntity
  8
0
  6
CONTINUOUS
 62
     7
100
AcDbCircle
 10
1412.6473171807
 20
798.6513381161
 30
0.0
 40
0.9604160690093977
100
AcDbArc
 50
270.0
 51
0.0
  0
LINE
  5
24B
330
1F
100
AcDbEntity
  8
0
  6
CONTINUOUS
 62
     7
100
AcDbLine
 10
1413.6077339134
 20
798.6513361454
 30
0.0
 11
1413.6077339134
 21
802.3477703452
 31
0.0
  0
ARC
  5
24C
330
1F
100
AcDbEntity
  8
0
  6
CONTINUOUS
 62
     7
100
AcDbCircle
 10
1408.5921993283
 20
802.3477666876
 30
0.0
 40
0.9604160690093977
100
AcDbArc
 50
90.0
 51
180.0
  0
LINE
  5
24D
330
1F
100
AcDbEntity
  8
0
  6
CONTINUOUS
 62
     7
100
AcDbLine
 10
1407.6317834041
 20
802.3477703452
 30
0.0
 11
1407.6317834041
 21
798.6513361454
 31
0.0
  0
LINE
  5
24E
330
1F
100
AcDbEntity
  8
0
  6
CONTINUOUS
 62
     7
100
AcDbLine
 10
1415.5761866204
 20
798.5709816337
 30
0.0
 11
1415.5761866204
 21
802.4281248569
 31
0.0
  0
ARC
  5
24F
330
1F
100
AcDbEntity
  8
0
  6
CONTINUOUS
 62
     7
100
AcDbCircle
 10
1408.2347582545
 20
798.5709809733
 30
0.0
 40
2.571428571428669
100
AcDbArc
 50
180.0
 51
270.0
  0
LINE
  5
250
330
1F
100
AcDbEntity
  8
0
  6
CONTINUOUS
 62
     7
100
AcDbLine
 10
1408.2347579605
 20
795.9995553017
 30
0.0
 11
1413.0047584257
 21
795.9995553017
 31
0.0
  0
ARC
  5
251
330
1F
100
AcDbEntity
  8
0
  6
CONTINUOUS
 62
     7
100
AcDbCircle
 10
1412.6473171807
 20
802.3477666876
 30
0.0
 40
0.9604160690095114
100
AcDbArc
 50
0.0
 51
90.0
  0
ARC
  5
252
330
1F
100
AcDbEntity
  8
0
  6
CONTINUOUS
 62
     7
100
AcDbCircle
 10
1413.0047582545
 20
802.4281238304
 30
0.0
 40
2.571428571428669
100
AcDbArc
 50
0.0
 51
90.0
  0
LINE
  5
253
330
1F
100
AcDbEntity
  8
0
  6
CONTINUOUS
 62
     7
100
AcDbLine
 10
1412.6473168216
 20
803.3081799865
 30
0.0
 11
1408.5921995647
 21
803.3081799865
 31
0.0
  0
ARC
  5
254
330
1F
100
AcDbEntity
  8
0
  6
CONTINUOUS
 62
     7
100
AcDbCircle
 10
1408.2347582545
 20
802.4281238304
 30
0.0
 40
2.571428571428669
100
AcDbArc
 50
90.0
 51
180.0
  0
LINE
  5
255
330
1F
100
AcDbEntity
  8
0
  6
CONTINUOUS
 62
     7
100
AcDbLine
 10
1413.0047584257
 20
804.9995511889
 30
0.0
 11
1408.2347579605
 21
804.9995511889
 31
0.0
  0
ARC
  5
256
330
1F
100
AcDbEntity
  8
0
  6
CONTINUOUS
 62
     7
100
AcDbCircle
 10
1413.0047582545
 20
798.5709809733
 30
0.0
 40
2.571428571428669
100
AcDbArc
 50
270.0
 51
0.0
  0
LINE
  5
257
330
1F
100
AcDbEntity
  8
0
  6
CONTINUOUS
 62
     7
100
AcDbLine
 10
1405.6633297659
 20
802.4281248569
 30
0.0
 11
1405.6633297659
 21
798.5709816337
 31
0.0
  0
INSERT
  5
263
330
1F
100
AcDbEntity
  8
0
  6
CONTINUOUS
 62
     7
100
AcDbBlockReference
  2
SW_CENTERMARKSYMBOL_0
 10
1571.6022727273
 20
527.0528687596
 30
0.0
  0
INSERT
  5
26F
330
1F
100
AcDbEntity
  8
0
  6
CONTINUOUS
 62
     7
100
AcDbBlockReference
  2
SW_CENTERMARKSYMBOL_1
 10
1222.6022727273
 20
927.3471312404
 30
0.0
  0
INSERT
  5
27B
330
1F
100
AcDbEntity
  8
0
  6
CONTINUOUS
 62
     7
100
AcDbBlockReference
  2
SW_CENTERMARKSYMBOL_2
 10
1571.6022727273
 20
927.3471312404
 30
0.0
  0
INSERT
  5
287
330
1F
100
AcDbEntity
  8
0
  6
CONTINUOUS
 62
     7
100
AcDbBlockReference
  2
SW_CENTERMARKSYMBOL_3
 10
1222.6022727273
 20
527.0528687596
 30
0.0
  0
INSERT
  5
293
330
1F
100
AcDbEntity
  8
0
  6
CONTINUOUS
 62
     7
100
AcDbBlockReference
  2
SW_CENTERMARKSYMBOL_4
 10
1582.1022727273
 20
941.65
 30
0.0
  0
INSERT
  5
29F
330
1F
100
AcDbEntity
  8
0
  6
CONTINUOUS
 62
     7
100
AcDbBlockReference
  2
SW_CENTERMARKSYMBOL_5
 10
1212.1022727273
 20
941.65
 30
0.0
  0
INSERT
  5
2AB
330
1F
100
AcDbEntity
  8
0
  6
CONTINUOUS
 62
     7
100
AcDbBlockReference
  2
SW_CENTERMARKSYMBOL_6
 10
1582.1022727273
 20
512.75
 30
0.0
  0
INSERT
  5
2B7
330
1F
100
AcDbEntity
  8
0
  6
CONTINUOUS
 62
     7
100
AcDbBlockReference
  2
SW_CENTERMARKSYMBOL_7
 10
1212.1022727273
 20
512.75
 30
0.0
  0
LINE
  5
2B8
330
1F
100
AcDbEntity
  8
0
  6
CENTERX2
 62
     7
100
AcDbLine
 10
1021.8161241995
 20
543.3698060814
 30
0.0
 11
989.3202767815
 21
543.3698060814
 31
0.0
  0
LINE
  5
2B9
330
1F
100
AcDbEntity
  8
0
  6
CONTINUOUS
 62
     7
100
AcDbLine
 10
1002.644935654
 20
743.3000005901
 30
0.0
 11
1002.644935654
 21
773.5499985635
 31
0.0
  0
LINE
  5
2BA
330
1F
100
AcDbEntity
  8
0
  6
CONTINUOUS
 62
     7
100
AcDbLine
 10
993.1593495733
 20
743.3000005901
 30
0.0
 11
993.1593495733
 21
773.5499985635
 31
0.0
  0
LINE
  5
2BB
330
1F
100
AcDbEntity
  8
0
  6
CONTINUOUS
 62
     7
100
AcDbLine
 10
1002.644935654
 20
773.5499985635
 30
0.0
 11
993.1593495733
 21
773.5499985635
 31
0.0
  0
LINE
  5
2BC
330
1F
100
AcDbEntity
  8
0
  6
CONTINUOUS
 62
     7
100
AcDbLine
 10
1002.644935654
 20
743.3000005901
 30
0.0
 11
993.1593495733
 21
743.3000005901
 31
0.0
  0
LINE
  5
2BD
330
1F
100
AcDbEntity
  8
0
  6
CONTINUOUS
 62
     7
100
AcDbLine
 10
1002.644935654
 20
618.2999968648
 30
0.0
 11
1002.644935654
 21
648.5500022888
 31
0.0
  0
LINE
  5
2BE
330
1F
100
AcDbEntity
  8
0
  6
CONTINUOUS
 62
     7
100
AcDbLine
 10
993.1593495733
 20
618.2999968648
 30
0.0
 11
993.1593495733
 21
648.5500022888
 31
0.0
  0
LINE
  5
2BF
330
1F
100
AcDbEntity
  8
0
  6
CONTINUOUS
 62
     7
100
AcDbLine
 10
1002.644935654
 20
648.5500022888
 30
0.0
 11
993.1593495733
 21
648.5500022888
 31
0.0
  0
LINE
  5
2C0
330
1F
100
AcDbEntity
  8
0
  6
CONTINUOUS
 62
     7
100
AcDbLine
 10
1002.644935654
 20
618.2999968648
 30
0.0
 11
993.1593495733
 21
618.2999968648
 31
0.0
  0
LINE
  5
2C1
330
1F
100
AcDbEntity
  8
0
  6
CONTINUOUS
 62
     7
100
AcDbLine
 10
1002.644935654
 20
805.7999968648
 30
0.0
 11
1002.644935654
 21
836.0500022888
 31
0.0
  0
LINE
  5
2C2
330
1F
100
AcDbEntity
  8
0
  6
CONTINUOUS
 62
     7
100
AcDbLine
 10
993.1593495733
 20
805.7999968648
 30
0.0
 11
993.1593495733
 21
836.0500022888
 31
0.0
  0
LINE
  5
2C3
330
1F
100
AcDbEntity
  8
0
  6
CONTINUOUS
 62
     7
100
AcDbLine
 10
1002.644935654
 20
836.0500022888
 30
0.0
 11
993.1593495733
 21
836.0500022888
 31
0.0
  0
LINE
  5
2C4
330
1F
100
AcDbEntity
  8
0
  6
CONTINUOUS
 62
     7
100
AcDbLine
 10
1002.644935654
 20
805.7999968648
 30
0.0
 11
993.1593495733
 21
805.7999968648
 31
0.0
  0
LINE
  5
2C5
330
1F
100
AcDbEntity
  8
0
  6
CONTINUOUS
 62
     7
100
AcDbLine
 10
1002.644935654
 20
680.8000005901
 30
0.0
 11
1002.644935654
 21
711.0500004262
 31
0.0
  0
LINE
  5
2C6
330
1F
100
AcDbEntity
  8
0
  6
CONTINUOUS
 62
     7
100
AcDbLine
 10
993.1593495733
 20
680.8000005901
 30
0.0
 11
993.1593495733
 21
711.0500004262
 31
0.0
  0
LINE
  5
2C7
330
1F
100
AcDbEntity
  8
0
  6
CONTINUOUS
 62
     7
100
AcDbLine
 10
1002.644935654
 20
711.0500004262
 30
0.0
 11
993.1593495733
 21
711.0500004262
 31
0.0
  0
LINE
  5
2C8
330
1F
100
AcDbEntity
  8
0
  6
CONTINUOUS
 62
     7
100
AcDbLine
 10
1002.644935654
 20
680.8000005901
 30
0.0
 11
993.1593495733
 21
680.8000005901
 31
0.0
  0
LINE
  5
2C9
330
1F
100
AcDbEntity
  8
0
  6
CONTINUOUS
 62
     7
100
AcDbLine
 10
1002.644935654
 20
868.3000043154
 30
0.0
 11
1002.644935654
 21
898.5500022888
 31
0.0
  0
LINE
  5
2CA
330
1F
100
AcDbEntity
  8
0
  6
CONTINUOUS
 62
     7
100
AcDbLine
 10
993.1593495733
 20
868.3000043154
 30
0.0
 11
993.1593495733
 21
898.5500022888
 31
0.0
  0
LINE
  5
2CB
330
1F
100
AcDbEntity
  8
0
  6
CONTINUOUS
 62
     7
100
AcDbLine
 10
1002.644935654
 20
898.5500022888
 30
0.0
 11
993.1593495733
 21
898.5500022888
 31
0.0
  0
LINE
  5
2CC
330
1F
100
AcDbEntity
  8
0
  6
CONTINUOUS
 62
     7
100
AcDbLine
 10
1002.644935654
 20
868.3000043154
 30
0.0
 11
993.1593495733
 21
868.3000043154
 31
0.0
  0
LINE
  5
2CD
330
1F
100
AcDbEntity
  8
0
  6
CONTINUOUS
 62
     7
100
AcDbLine
 10
1002.644935654
 20
555.8000043154
 30
0.0
 11
1002.644935654
 21
586.0500022888
 31
0.0
  0
LINE
  5
2CE
330
1F
100
AcDbEntity
  8
0
  6
CONTINUOUS
 62
     7
100
AcDbLine
 10
993.1593495733
 20
555.8000043154
 30
0.0
 11
993.1593495733
 21
586.0500022888
 31
0.0
  0
LINE
  5
2CF
330
1F
100
AcDbEntity
  8
0
  6
CONTINUOUS
 62
     7
100
AcDbLine
 10
1002.644935654
 20
586.0500022888
 30
0.0
 11
993.1593495733
 21
586.0500022888
 31
0.0
  0
LINE
  5
2D0
330
1F
100
AcDbEntity
  8
0
  6
CONTINUOUS
 62
     7
100
AcDbLine
 10
1002.644935654
 20
555.8000043154
 30
0.0
 11
993.1593495733
 21
555.8000043154
 31
0.0
  0
LINE
  5
2D1
330
1F
100
AcDbEntity
  8
0
  6
CONTINUOUS
 62
     7
100
AcDbLine
 10
1005.0522727273
 20
743.3000005901
 30
0.0
 11
1005.0522727273
 21
773.5499985635
 31
0.0
  0
LINE
  5
2D2
330
1F
100
AcDbEntity
  8
0
  6
CONTINUOUS
 62
     7
100
AcDbLine
 10
1005.0522727273
 20
773.5499985635
 30
0.0
 11
1002.644935654
 21
773.5499985635
 31
0.0
  0
LINE
  5
2D3
330
1F
100
AcDbEntity
  8
0
  6
CONTINUOUS
 62
     7
100
AcDbLine
 10
1005.0522727273
 20
743.3000005901
 30
0.0
 11
1002.644935654
 21
743.3000005901
 31
0.0
  0
LINE
  5
2D4
330
1F
100
AcDbEntity
  8
0
  6
CONTINUOUS
 62
     7
100
AcDbLine
 10
1005.0522727273
 20
618.2999968648
 30
0.0
 11
1005.0522727273
 21
648.5500022888
 31
0.0
  0
LINE
  5
2D5
330
1F
100
AcDbEntity
  8
0
  6
CONTINUOUS
 62
     7
100
AcDbLine
 10
1005.0522727273
 20
648.5500022888
 30
0.0
 11
1002.644935654
 21
648.5500022888
 31
0.0
  0
LINE
  5
2D6
330
1F
100
AcDbEntity
  8
0
  6
CONTINUOUS
 62
     7
100
AcDbLine
 10
1005.0522727273
 20
618.2999968648
 30
0.0
 11
1002.644935654
 21
618.2999968648
 31
0.0
  0
LINE
  5
2D7
330
1F
100
AcDbEntity
  8
0
  6
CONTINUOUS
 62
     7
100
AcDbLine
 10
1005.0522727273
 20
680.8000005901
 30
0.0
 11
1005.0522727273
 21
711.0500004262
 31
0.0
  0
LINE
  5
2D8
330
1F
100
AcDbEntity
  8
0
  6
CONTINUOUS
 62
     7
100
AcDbLine
 10
1005.0522727273
 20
711.0500004262
 30
0.0
 11
1002.644935654
 21
711.0500004262
 31
0.0
  0
LINE
  5
2D9
330
1F
100
AcDbEntity
  8
0
  6
CONTINUOUS
 62
     7
100
AcDbLine
 10
1005.0522727273
 20
680.8000005901
 30
0.0
 11
1002.644935654
 21
680.8000005901
 31
0.0
  0
LINE
  5
2DA
330
1F
100
AcDbEntity
  8
0
  6
CONTINUOUS
 62
     7
100
AcDbLine
 10
1005.0522727273
 20
555.8000043154
 30
0.0
 11
1005.0522727273
 21
586.0500022888
 31
0.0
  0
LINE
  5
2DB
330
1F
100
AcDbEntity
  8
0
  6
CONTINUOUS
 62
     7
100
AcDbLine
 10
1005.0522727273
 20
586.0500022888
 30
0.0
 11
1002.644935654
 21
586.0500022888
 31
0.0
  0
LINE
  5
2DC
330
1F
100
AcDbEntity
  8
0
  6
CONTINUOUS
 62
     7
100
AcDbLine
 10
1005.0522727273
 20
555.8000043154
 30
0.0
 11
1002.644935654
 21
555.8000043154
 31
0.0
  0
LINE
  5
2DD
330
1F
100
AcDbEntity
  8
0
  6
CONTINUOUS
 62
     7
100
AcDbLine
 10
1005.0522727273
 20
868.3000043154
 30
0.0
 11
1005.0522727273
 21
898.5500022888
 31
0.0
  0
LINE
  5
2DE
330
1F
100
AcDbEntity
  8
0
  6
CONTINUOUS
 62
     7
100
AcDbLine
 10
1005.0522727273
 20
898.5500022888
 30
0.0
 11
1002.644935654
 21
898.5500022888
 31
0.0
  0
LINE
  5
2DF
330
1F
100
AcDbEntity
  8
0
  6
CONTINUOUS
 62
     7
100
AcDbLine
 10
1005.0522727273
 20
868.3000043154
 30
0.0
 11
1002.644935654
 21
868.3000043154
 31
0.0
  0
LINE
  5
2E0
330
1F
100
AcDbEntity
  8
0
  6
CONTINUOUS
 62
     7
100
AcDbLine
 10
1005.0522727273
 20
805.7999968648
 30
0.0
 11
1005.0522727273
 21
836.0500022888
 31
0.0
  0
LINE
  5
2E1
330
1F
100
AcDbEntity
  8
0
  6
CONTINUOUS
 62
     7
100
AcDbLine
 10
1005.0522727273
 20
836.0500022888
 30
0.0
 11
1002.644935654
 21
836.0500022888
 31
0.0
  0
LINE
  5
2E2
330
1F
100
AcDbEntity
  8
0
  6
CONTINUOUS
 62
     7
100
AcDbLine
 10
1005.0522727273
 20
805.7999968648
 30
0.0
 11
1002.644935654
 21
805.7999968648
 31
0.0
  0
LINE
  5
2E3
330
1F
100
AcDbEntity
  8
0
  6
CONTINUOUS
 62
     7
100
AcDbLine
 10
991.2872589506
 20
868.3000043154
 30
0.0
 11
991.2872589506
 21
898.5500022888
 31
0.0
  0
LINE
  5
2E4
330
1F
100
AcDbEntity
  8
0
  6
CONTINUOUS
 62
     7
100
AcDbLine
 10
993.1593495733
 20
898.5500022888
 30
0.0
 11
991.2872589506
 21
898.5500022888
 31
0.0
  0
LINE
  5
2E5
330
1F
100
AcDbEntity
  8
0
  6
CONTINUOUS
 62
     7
100
AcDbLine
 10
993.1593495733
 20
868.3000043154
 30
0.0
 11
991.2872589506
 21
868.3000043154
 31
0.0
  0
LINE
  5
2E6
330
1F
100
AcDbEntity
  8
0
  6
CONTINUOUS
 62
     7
100
AcDbLine
 10
991.2872589506
 20
805.7999968648
 30
0.0
 11
991.2872589506
 21
836.0500022888
 31
0.0
  0
LINE
  5
2E7
330
1F
100
AcDbEntity
  8
0
  6
CONTINUOUS
 62
     7
100
AcDbLine
 10
993.1593495733
 20
836.0500022888
 30
0.0
 11
991.2872589506
 21
836.0500022888
 31
0.0
  0
LINE
  5
2E8
330
1F
100
AcDbEntity
  8
0
  6
CONTINUOUS
 62
     7
100
AcDbLine
 10
993.1593495733
 20
805.7999968648
 30
0.0
 11
991.2872589506
 21
805.7999968648
 31
0.0
  0
LINE
  5
2E9
330
1F
100
AcDbEntity
  8
0
  6
CONTINUOUS
 62
     7
100
AcDbLine
 10
991.2872589506
 20
743.3000005901
 30
0.0
 11
991.2872589506
 21
773.5499985635
 31
0.0
  0
LINE
  5
2EA
330
1F
100
AcDbEntity
  8
0
  6
CONTINUOUS
 62
     7
100
AcDbLine
 10
993.1593495733
 20
773.5499985635
 30
0.0
 11
991.2872589506
 21
773.5499985635
 31
0.0
  0
LINE
  5
2EB
330
1F
100
AcDbEntity
  8
0
  6
CONTINUOUS
 62
     7
100
AcDbLine
 10
993.1593495733
 20
743.3000005901
 30
0.0
 11
991.2872589506
 21
743.3000005901
 31
0.0
  0
LINE
  5
2EC
330
1F
100
AcDbEntity
  8
0
  6
CONTINUOUS
 62
     7
100
AcDbLine
 10
991.2872589506
 20
618.2999968648
 30
0.0
 11
991.2872589506
 21
648.5500022888
 31
0.0
  0
LINE
  5
2ED
330
1F
100
AcDbEntity
  8
0
  6
CONTINUOUS
 62
     7
100
AcDbLine
 10
993.1593495733
 20
648.5500022888
 30
0.0
 11
991.2872589506
 21
648.5500022888
 31
0.0
  0
LINE
  5
2EE
330
1F
100
AcDbEntity
  8
0
  6
CONTINUOUS
 62
     7
100
AcDbLine
 10
993.1593495733
 20
618.2999968648
 30
0.0
 11
991.2872589506
 21
618.2999968648
 31
0.0
  0
LINE
  5
2EF
330
1F
100
AcDbEntity
  8
0
  6
CONTINUOUS
 62
     7
100
AcDbLine
 10
991.2872589506
 20
555.8000043154
 30
0.0
 11
991.2872589506
 21
586.0500022888
 31
0.0
  0
LINE
  5
2F0
330
1F
100
AcDbEntity
  8
0
  6
CONTINUOUS
 62
     7
100
AcDbLine
 10
993.1593495733
 20
586.0500022888
 30
0.0
 11
991.2872589506
 21
586.0500022888
 31
0.0
  0
LINE
  5
2F1
330
1F
100
AcDbEntity
  8
0
  6
CONTINUOUS
 62
     7
100
AcDbLine
 10
993.1593495733
 20
555.8000043154
 30
0.0
 11
991.2872589506
 21
555.8000043154
 31
0.0
  0
LINE
  5
2F2
330
1F
100
AcDbEntity
  8
0
  6
CONTINUOUS
 62
     7
100
AcDbLine
 10
991.2872589506
 20
680.8000005901
 30
0.0
 11
991.2872589506
 21
711.0500004262
 31
0.0
  0
LINE
  5
2F3
330
1F
100
AcDbEntity
  8
0
  6
CONTINUOUS
 62
     7
100
AcDbLine
 10
993.1593495733
 20
711.0500004262
 30
0.0
 11
991.2872589506
 21
711.0500004262
 31
0.0
  0
LINE
  5
2F4
330
1F
100
AcDbEntity
  8
0
  6
CONTINUOUS
 62
     7
100
AcDbLine
 10
993.1593495733
 20
680.8000005901
 30
0.0
 11
991.2872589506
 21
680.8000005901
 31
0.0
  0
LINE
  5
2F5
330
1F
100
AcDbEntity
  8
0
  6
CONTINUOUS
 62
     7
100
AcDbLine
 10
1005.0522727273
 20
948.6471250772
 30
0.0
 11
1005.0522727273
 21
943.1504890442
 31
0.0
  0
LINE
  5
2F6
330
1F
100
AcDbEntity
  8
0
  6
CONTINUOUS
 62
     7
100
AcDbLine
 10
1005.0522727273
 20
943.1504890442
 30
0.0
 11
993.0474558226
 21
942.7312597752
 31
0.0
  0
LWPOLYLINE
  5
2F7
330
1F
100
AcDbEntity
  8
0
  6
CONTINUOUS
 62
     7
100
AcDbPolyline
 90
        6
 70
   128
 43
0.0
 10
993.0474558226
 20
948.2279107094
 10
993.0519885696
 20
947.9210659981
 10
993.0491443104
 20
947.0326140642
 10
993.0499657369
 20
945.6612452984
 10
993.0521524824
 20
943.9611420155
 10
993.0474558226
 20
942.7312597752
  0
LINE
  5
2F8
330
1F
100
AcDbEntity
  8
0
  6
CONTINUOUS
 62
     7
100
AcDbLine
 10
993.0474558226
 20
948.2279107094
 30
0.0
 11
1005.0522727273
 21
948.6471250772
 31
0.0
  0
LINE
  5
2F9
330
1F
100
AcDbEntity
  8
0
  6
CONTINUOUS
 62
     7
100
AcDbLine
 10
1005.0522727273
 20
511.2495109558
 30
0.0
 11
1005.0522727273
 21
505.7528749228
 31
0.0
  0
LINE
  5
2FA
330
1F
100
AcDbEntity
  8
0
  6
CONTINUOUS
 62
     7
100
AcDbLine
 10
1005.0522727273
 20
505.7528749228
 30
0.0
 11
993.0474558226
 21
506.1720892906
 31
0.0
  0
LWPOLYLINE
  5
2FB
330
1F
100
AcDbEntity
  8
0
  6
CONTINUOUS
 62
     7
100
AcDbPolyline
 90
        6
 70
   128
 43
0.0
 10
993.0474558226
 20
511.6687402248
 10
993.0519885696
 20
509.8565206051
 10
993.0491443104
 20
508.2455113649
 10
993.0499657369
 20
507.0174023628
 10
993.0521524824
 20
506.3111022234
 10
993.0474558226
 20
506.1720892906
  0
LINE
  5
2FC
330
1F
100
AcDbEntity
  8
0
  6
CONTINUOUS
 62
     7
100
AcDbLine
 10
993.0474558226
 20
511.6687402248
 30
0.0
 11
1005.0522727273
 21
511.2495109558
 31
0.0
  0
LINE
  5
2FD
330
1F
100
AcDbEntity
  8
0
  6
CONTINUOUS
 62
     7
100
AcDbLine
 10
1005.0522727273
 20
648.5500022888
 30
0.0
 11
1005.0522727273
 21
680.8000005901
 31
0.0
  0
LINE
  5
2FE
330
1F
100
AcDbEntity
  8
0
  6
CONTINUOUS
 62
     7
100
AcDbLine
 10
993.0042974032
 20
680.8000005901
 30
0.0
 11
993.0042974032
 21
648.5500022888
 31
0.0
  0
LINE
  5
2FF
330
1F
100
AcDbEntity
  8
0
  6
CONTINUOUS
 62
     7
100
AcDbLine
 10
1005.0522727273
 20
586.0500022888
 30
0.0
 11
1005.0522727273
 21
618.2999968648
 31
0.0
  0
LINE
  5
300
330
1F
100
AcDbEntity
  8
0
  6
CONTINUOUS
 62
     7
100
AcDbLine
 10
993.0042974032
 20
618.2999968648
 30
0.0
 11
993.0042974032
 21
586.0500022888
 31
0.0
  0
ELLIPSE
  5
301
330
1F
100
AcDbEntity
  8
0
  6
CONTINUOUS
 62
     7
100
AcDbEllipse
 10
1017.7239563253
 20
946.5911591149
 30
0.0
 11
8.293327514268299
 21
33.5902287951135
 31
0.0
210
0.0
220
0.0
230
0.9999999999999999
 40
0.6932657487
 41
1.853826406029925
 42
1.912927193580174
  0
LINE
  5
302
330
1F
100
AcDbEntity
  8
0
  6
CONTINUOUS
 62
     7
100
AcDbLine
 10
1005.0522727273
 20
898.5500022888
 30
0.0
 11
1005.0522727273
 21
943.1504890442
 31
0.0
  0
LINE
  5
303
330
1F
100
AcDbEntity
  8
0
  6
CONTINUOUS
 62
     7
100
AcDbLine
 10
993.0042974032
 20
940.7380506515
 30
0.0
 11
993.0042974032
 21
898.5500022888
 31
0.0
  0
LINE
  5
304
330
1F
100
AcDbEntity
  8
0
  6
CONTINUOUS
 62
     7
100
AcDbLine
 10
1005.0522727273
 20
773.5499985635
 30
0.0
 11
1005.0522727273
 21
805.7999968648
 31
0.0
  0
LINE
  5
305
330
1F
100
AcDbEntity
  8
0
  6
CONTINUOUS
 62
     7
100
AcDbLine
 10
993.0042974032
 20
805.7999968648
 30
0.0
 11
993.0042974032
 21
773.5499985635
 31
0.0
  0
LINE
  5
306
330
1F
100
AcDbEntity
  8
0
  6
CONTINUOUS
 62
     7
100
AcDbLine
 10
1005.0522727273
 20
836.0500022888
 30
0.0
 11
1005.0522727273
 21
868.3000043154
 31
0.0
  0
LINE
  5
307
330
1F
100
AcDbEntity
  8
0
  6
CONTINUOUS
 62
     7
100
AcDbLine
 10
993.0042974032
 20
868.3000043154
 30
0.0
 11
993.0042974032
 21
836.0500022888
 31
0.0
  0
LINE
  5
308
330
1F
100
AcDbEntity
  8
0
  6
CONTINUOUS
 62
     7
100
AcDbLine
 10
1005.0522727273
 20
511.2495109558
 30
0.0
 11
1005.0522727273
 21
555.8000043154
 31
0.0
  0
ELLIPSE
  5
309
330
1F
100
AcDbEntity
  8
0
  6
CONTINUOUS
 62
     7
100
AcDbEllipse
 10
1017.7239563253
 20
507.8088408851
 30
0.0
 11
-8.293327514268412
 21
33.59022879511338
 31
0.0
210
0.0
220
0.0
230
1.0
 40
0.6932657487
 41
1.228665460009611
 42
1.287766247559864
  0
LINE
  5
30A
330
1F
100
AcDbEntity
  8
0
  6
CONTINUOUS
 62
     7
100
AcDbLine
 10
993.0042974032
 20
555.8000043154
 30
0.0
 11
993.0042974032
 21
513.6619493484
 31
0.0
  0
LINE
  5
30B
330
1F
100
AcDbEntity
  8
0
  6
CONTINUOUS
 62
     7
100
AcDbLine
 10
1005.0522727273
 20
711.0500004262
 30
0.0
 11
1005.0522727273
 21
743.3000005901
 31
0.0
  0
LINE
  5
30C
330
1F
100
AcDbEntity
  8
0
  6
CONTINUOUS
 62
     7
100
AcDbLine
 10
993.0042974032
 20
743.3000005901
 30
0.0
 11
993.0042974032
 21
711.0500004262
 31
0.0
  0
ARC
  5
30D
330
1F
100
AcDbEntity
  8
0
  6
CONTINUOUS
 62
     7
100
AcDbCircle
 10
953.7116671047
 20
509.9079370618
 30
0.0
 40
36.99751581878004
100
AcDbArc
 50
357.4357704316
 51
2.5642295684
  0
LWPOLYLINE
  5
30E
330
1F
100
AcDbEntity
  8
0
  6
CONTINUOUS
 62
     7
100
AcDbPolyline
 90
        9
 70
   128
 43
0.0
 10
990.6721371538
 20
511.5631803989
 10
990.7790669552
 20
511.5684107065
 10
990.9547088049
 20
511.5765616417
 10
991.1939394973
 20
511.587409687
 10
991.4897815637
 20
511.6006419182
 10
991.8336035065
 20
511.6158411026
 10
992.2153777755
 20
511.6325900078
 10
992.6239676154
 20
511.6503968954
 10
993.0474558226
 20
511.6687402248
  0
ARC
  5
30F
330
1F
100
AcDbEntity
  8
0
  6
CONTINUOUS
 62
     7
100
AcDbCircle
 10
993.1354972013
 20
508.6687931522
 30
0.0
 40
2.498255682866287
100
AcDbArc
 50
189.5876365431
 51
267.9804132233
  0
LWPOLYLINE
  5
310
330
1F
100
AcDbEntity
  8
0
  6
CONTINUOUS
 62
     7
100
AcDbPolyline
 90
        9
 70
   128
 43
0.0
 10
993.0474558226
 20
942.7312597752
 10
992.6239676154
 20
942.7496031046
 10
992.2153777755
 20
942.7674099922
 10
991.8336035065
 20
942.7841588974
 10
991.4897815637
 20
942.7993580818
 10
991.1939394973
 20
942.812590313
 10
990.9547088049
 20
942.8234383583
 10
990.7790669552
 20
942.8315892935
 10
990.6721371538
 20
942.8368196011
  0
ARC
  5
311
330
1F
100
AcDbEntity
  8
0
  6
CONTINUOUS
 62
     7
100
AcDbCircle
 10
956.1751785637
 20
944.4920629382
 30
0.0
 40
34.53664694894253
100
AcDbArc
 50
357.2529237558
 51
2.7470762442
  0
ARC
  5
312
330
1F
100
AcDbEntity
  8
0
  6
CONTINUOUS
 62
     7
100
AcDbCircle
 10
993.1354972013
 20
945.7312068478
 30
0.0
 40
2.498255682866362
100
AcDbArc
 50
92.0195867767
 51
170.4123634569
  0
ELLIPSE
  5
313
330
1F
100
AcDbEntity
  8
0
  6
CONTINUOUS
 62
     7
100
AcDbEllipse
 10
1017.811205067
 20
507.8088408851
 30
0.0
 11
-8.836761542010665
 21
35.25755896152283
 31
0.0
210
0.0
220
0.0
230
1.0
 40
0.7286416184
 41
1.226120215117807
 42
1.285221002668057
  0
LINE
  5
314
330
1F
100
AcDbEntity
  8
0
  6
CONTINUOUS
 62
     7
100
AcDbLine
 10
993.0042974032
 20
513.6619493484
 30
0.0
 11
990.6461765371
 21
513.6619493484
 31
0.0
  0
LINE
  5
315
330
1F
100
AcDbEntity
  8
0
  6
CONTINUOUS
 62
     7
100
AcDbLine
 10
993.0042974032
 20
940.7380506515
 30
0.0
 11
990.6461765371
 21
940.7380506515
 31
0.0
  0
ELLIPSE
  5
316
330
1F
100
AcDbEntity
  8
0
  6
CONTINUOUS
 62
     7
100
AcDbEllipse
 10
1017.811205067
 20
946.5911591149
 30
0.0
 11
8.836761542010777
 21
35.25755896152282
 31
0.0
210
0.0
220
0.0
230
0.9999999999999999
 40
0.7286416184
 41
1.856371650921737
 42
1.915472438471985
  0
LINE
  5
317
330
1F
100
AcDbEntity
  8
0
  6
CONTINUOUS
 62
     7
100
AcDbLine
 10
990.6461765371
 20
513.6619493484
 30
0.0
 11
990.6461765371
 21
940.7380506515
 31
0.0
  0
LINE
  5
318
330
1F
100
AcDbEntity
  8
0
  6
CONTINUOUS
 62
     7
100
AcDbLine
 10
990.6461765371
 20
940.7380506515
 30
0.0
 11
989.6362922467
 21
935.986919713
 31
0.0
  0
ARC
  5
319
330
1F
100
AcDbEntity
  8
0
  6
CONTINUOUS
 62
     7
100
AcDbCircle
 10
984.3571612952
 20
935.8823583753
 30
0.0
 40
5.280166349242076
100
AcDbArc
 50
1.1346829962
 51
25.5654280106
  0
LINE
  5
31A
330
1F
100
AcDbEntity
  8
0
  6
CONTINUOUS
 62
     7
100
AcDbLine
 10
988.9269271246
 20
938.1592705965
 30
0.0
 11
990.6461765371
 21
946.2477102995
 31
0.0
  0
ELLIPSE
  5
31B
330
1F
100
AcDbEntity
  8
0
  6
CONTINUOUS
 62
     7
100
AcDbEllipse
 10
1017.811205067
 20
946.5911591149
 30
0.0
 11
27.16744992248925
 21
0.3677440409958307
 31
0.0
210
0.0
220
0.0
230
1.0
 40
0.0627541953
 41
3.127364404079108
 42
3.186465191629573
  0
ELLIPSE
  5
31C
330
1F
100
AcDbEntity
  8
0
  6
CONTINUOUS
 62
     7
100
AcDbEllipse
 10
1017.811205067
 20
507.8088408851
 30
0.0
 11
27.16744992248925
 21
-0.3677440409958307
 31
0.0
210
0.0
220
0.0
230
1.0
 40
0.0627541953
 41
3.0967201155502
 42
3.155820903100637
  0
LINE
  5
31D
330
1F
100
AcDbEntity
  8
0
  6
CONTINUOUS
 62
     7
100
AcDbLine
 10
990.6461765371
 20
508.1522897005
 30
0.0
 11
988.9269271246
 21
516.2407294035
 31
0.0
  0
ARC
  5
31E
330
1F
100
AcDbEntity
  8
0
  6
CONTINUOUS
 62
     7
100
AcDbCircle
 10
982.821683456
 20
518.8820299028
 30
0.0
 40
6.830725196679165
100
AcDbArc
 50
337.2365113011
 51
356.063377692
  0
LINE
  5
31F
330
1F
100
AcDbEntity
  8
0
  6
CONTINUOUS
 62
     7
100
AcDbLine
 10
989.6362922467
 20
518.413080287
 30
0.0
 11
990.6461765371
 21
513.6619493484
 31
0.0
  0
LINE
  5
320
330
1F
100
AcDbEntity
  8
0
  6
CONTINUOUS
 62
     7
100
AcDbLine
 10
989.320276802
 20
911.0301867247
 30
0.0
 11
989.8739508665
 21
913.1767436981
 31
0.0
  0
LINE
  5
321
330
1F
100
AcDbEntity
  8
0
  6
CONTINUOUS
 62
     7
100
AcDbLine
 10
989.8739508665
 20
932.6677456617
 30
0.0
 11
989.8739508665
 21
913.1767436981
 31
0.0
  0
ELLIPSE
  5
322
330
1F
100
AcDbEntity
  8
0
  6
CONTINUOUS
 62
     7
100
AcDbEllipse
 10
988.70267261
 20
932.6571097702
 30
0.0
 11
0.002373530184740957
 21
5.500219684190142
 31
0.0
210
0.0
220
0.0
230
1.0
 40
0.2129507426
 41
4.714415426078607
 42
5.362743207408145
  0
ELLIPSE
  5
323
330
1F
100
AcDbEntity
  8
0
  6
CONTINUOUS
 62
     7
100
AcDbEllipse
 10
988.70267261
 20
521.7428902298
 30
0.0
 11
-0.002373530184854644
 21
5.500219684190256
 31
0.0
210
0.0
220
0.0
230
1.0
 40
0.2129507426
 41
4.062034753361274
 42
4.710362534690815
  0
LINE
  5
324
330
1F
100
AcDbEntity
  8
0
  6
CONTINUOUS
 62
     7
100
AcDbLine
 10
989.8739508665
 20
541.2232563019
 30
0.0
 11
989.8739508665
 21
521.7322543383
 31
0.0
  0
LINE
  5
325
330
1F
100
AcDbEntity
  8
0
  6
CONTINUOUS
 62
     7
100
AcDbLine
 10
989.8739508665
 20
541.2232563019
 30
0.0
 11
989.320276802
 21
543.3698132753
 31
0.0
  0
LINE
  5
326
330
1F
100
AcDbEntity
  8
0
  6
CONTINUOUS
 62
     7
100
AcDbLine
 10
989.320276802
 20
543.3698132753
 30
0.0
 11
989.320276802
 21
911.0301867247
 31
0.0
  0
ARC
  5
327
330
1F
100
AcDbEntity
  8
0
  6
CONTINUOUS
 62
     7
100
AcDbCircle
 10
993.0915456901
 20
945.7279295879
 30
0.0
 40
2.500000000000068
100
AcDbArc
 50
92.0
 51
168.0
  0
LWPOLYLINE
  5
328
330
1F
100
AcDbEntity
  8
0
  6
CONTINUOUS
 62
     7
100
AcDbPolyline
 90
        4
 70
   128
 43
0.0
 10
993.0042974032
 20
948.2264056921
 10
993.0090937144
 20
948.2265696049
 10
993.0234817169
 20
948.2270762444
 10
993.0474558226
 20
948.2279107094
  0
ARC
  5
329
330
1F
100
AcDbEntity
  8
0
  6
CONTINUOUS
 62
     7
100
AcDbCircle
 10
993.0915456901
 20
508.6720704121
 30
0.0
 40
2.500000000000012
100
AcDbArc
 50
192.0
 51
268.0
  0
LWPOLYLINE
  5
32A
330
1F
100
AcDbEntity
  8
0
  6
CONTINUOUS
 62
     7
100
AcDbPolyline
 90
        4
 70
   128
 43
0.0
 10
993.0474558226
 20
506.1720892906
 10
993.0234817169
 20
506.1729237556
 10
993.0090937144
 20
506.1734303951
 10
993.0042974032
 20
506.1735943079
  0
LINE
  5
32B
330
1F
100
AcDbEntity
  8
0
  6
CONTINUOUS
 62
     7
100
AcDbLine
 10
813.6522663138
 20
541.3673356295
 30
0.0
 11
815.6522703669
 21
541.3830563545
 31
0.0
  0
LINE
  5
32C
330
1F
100
AcDbEntity
  8
0
  6
CONTINUOUS
 62
     7
100
AcDbLine
 10
815.6522703669
 20
541.3830563545
 30
0.0
 11
989.8739508665
 21
541.2232563019
 31
0.0
  0
LINE
  5
32D
330
1F
100
AcDbEntity
  8
0
  6
CONTINUOUS
 62
     7
100
AcDbLine
 10
813.6522663138
 20
523.2701137781
 30
0.0
 11
989.8739508665
 21
521.7322543383
 31
0.0
  0
LINE
  5
32E
330
1F
100
AcDbEntity
  8
0
  6
CONTINUOUS
 62
     7
100
AcDbLine
 10
813.6522663138
 20
541.3673356295
 30
0.0
 11
813.6522663138
 21
523.2701137781
 31
0.0
  0
LINE
  5
32F
330
1F
100
AcDbEntity
  8
0
  6
CONTINUOUS
 62
     7
100
AcDbLine
 10
815.6522703669
 20
541.3830563545
 30
0.0
 11
815.6522703669
 21
543.5291066885
 31
0.0
  0
LINE
  5
330
330
1F
100
AcDbEntity
  8
0
  6
CONTINUOUS
 62
     7
100
AcDbLine
 10
989.320276802
 20
543.3698132753
 30
0.0
 11
815.6522703669
 21
543.5291066885
 31
0.0
  0
LINE
  5
331
330
1F
100
AcDbEntity
  8
0
  6
CONTINUOUS
 62
     7
100
AcDbLine
 10
815.6522703669
 20
910.8708933115
 30
0.0
 11
815.6522703669
 21
913.0169436455
 31
0.0
  0
LINE
  5
332
330
1F
100
AcDbEntity
  8
0
  6
CONTINUOUS
 62
     7
100
AcDbLine
 10
815.6522703669
 20
913.0169436455
 30
0.0
 11
989.8739508665
 21
913.1767436981
 31
0.0
  0
LINE
  5
333
330
1F
100
AcDbEntity
  8
0
  6
CONTINUOUS
 62
     7
100
AcDbLine
 10
989.320276802
 20
911.0301867247
 30
0.0
 11
815.6522703669
 21
910.8708933115
 31
0.0
  0
LINE
  5
334
330
1F
100
AcDbEntity
  8
0
  6
CONTINUOUS
 62
     7
100
AcDbLine
 10
813.6522663138
 20
913.0326643705
 30
0.0
 11
815.6522703669
 21
913.0169436455
 31
0.0
  0
LINE
  5
335
330
1F
100
AcDbEntity
  8
0
  6
CONTINUOUS
 62
     7
100
AcDbLine
 10
813.6522663138
 20
931.1298862219
 30
0.0
 11
813.6522663138
 21
913.0326643705
 31
0.0
  0
LINE
  5
336
330
1F
100
AcDbEntity
  8
0
  6
CONTINUOUS
 62
     7
100
AcDbLine
 10
989.8739508665
 20
932.6677456617
 30
0.0
 11
813.6522663138
 21
931.1298862219
 31
0.0
  0
LINE
  5
337
330
1F
100
AcDbEntity
  8
0
  6
CONTINUOUS
 62
     7
100
AcDbLine
 10
989.1203628234
 20
516.2390306711
 30
0.0
 11
813.6522663138
 21
517.7703186989
 31
0.0
  0
LINE
  5
338
330
1F
100
AcDbEntity
  8
0
  6
CONTINUOUS
 62
     7
100
AcDbLine
 10
813.6522663138
 20
517.7703186989
 30
0.0
 11
813.6522663138
 21
523.2701137781
 31
0.0
  0
LINE
  5
339
330
1F
100
AcDbEntity
  8
0
  6
CONTINUOUS
 62
     7
100
AcDbLine
 10
813.6522663138
 20
936.6296813011
 30
0.0
 11
989.1203628234
 21
938.1609693289
 31
0.0
  0
LINE
  5
33A
330
1F
100
AcDbEntity
  8
0
  6
CONTINUOUS
 62
     7
100
AcDbLine
 10
813.6522663138
 20
931.1298862219
 30
0.0
 11
813.6522663138
 21
936.6296813011
 31
0.0
  0
LINE
  5
33B
330
1F
100
AcDbEntity
  8
0
  6
CONTINUOUS
 62
     7
100
AcDbLine
 10
813.6522663138
 20
913.0326643705
 30
0.0
 11
813.6522663138
 21
912.6981482029
 31
0.0
  0
LINE
  5
33C
330
1F
100
AcDbEntity
  8
0
  6
CONTINUOUS
 62
     7
100
AcDbLine
 10
815.6522703669
 20
912.6780316353
 30
0.0
 11
813.6522663138
 21
912.6981482029
 31
0.0
  0
LINE
  5
33D
330
1F
100
AcDbEntity
  8
0
  6
CONTINUOUS
 62
     7
100
AcDbLine
 10
813.6522663138
 20
541.7018517971
 30
0.0
 11
813.6522663138
 21
541.3673356295
 31
0.0
  0
LINE
  5
33E
330
1F
100
AcDbEntity
  8
0
  6
CONTINUOUS
 62
     7
100
AcDbLine
 10
815.6522703669
 20
541.7219683647
 30
0.0
 11
813.6522663138
 21
541.7018517971
 31
0.0
  0
LINE
  5
33F
330
1F
100
AcDbEntity
  8
0
  6
CONTINUOUS
 62
     7
100
AcDbLine
 10
815.6522703669
 20
543.5291066885
 30
0.0
 11
815.6522703669
 21
910.8708933115
 31
0.0
  0
LINE
  5
340
330
1F
100
AcDbEntity
  8
0
  6
CENTERX2
 62
     7
100
AcDbLine
 10
1745.588421255
 20
543.3698060814
 30
0.0
 11
1778.084268673
 21
543.3698060814
 31
0.0
  0
LINE
  5
341
330
1F
100
AcDbEntity
  8
0
  6
CONTINUOUS
 62
     7
100
AcDbLine
 10
1762.3522727273
 20
505.7528749228
 30
0.0
 11
1762.3522727273
 21
511.2495109558
 31
0.0
  0
LINE
  5
342
330
1F
100
AcDbEntity
  8
0
  6
CONTINUOUS
 62
     7
100
AcDbLine
 10
1762.3522727273
 20
511.2495109558
 30
0.0
 11
1774.3570896319
 21
511.6687402248
 31
0.0
  0
LWPOLYLINE
  5
343
330
1F
100
AcDbEntity
  8
0
  6
CONTINUOUS
 62
     7
100
AcDbPolyline
 90
        6
 70
   128
 43
0.0
 10
1774.3570896319
 20
506.1720892906
 10
1774.352556885
 20
506.4789340019
 10
1774.3554011441
 20
507.3673859358
 10
1774.3545797176
 20
508.7387547016
 10
1774.3523929722
 20
510.4388579845
 10
1774.3570896319
 20
511.6687402248
  0
LINE
  5
344
330
1F
100
AcDbEntity
  8
0
  6
CONTINUOUS
 62
     7
100
AcDbLine
 10
1774.3570896319
 20
506.1720892906
 30
0.0
 11
1762.3522727273
 21
505.7528749228
 31
0.0
  0
LINE
  5
345
330
1F
100
AcDbEntity
  8
0
  6
CONTINUOUS
 62
     7
100
AcDbLine
 10
1762.3522727273
 20
943.1504890442
 30
0.0
 11
1762.3522727273
 21
948.6471250772
 31
0.0
  0
LINE
  5
346
330
1F
100
AcDbEntity
  8
0
  6
CONTINUOUS
 62
     7
100
AcDbLine
 10
1762.3522727273
 20
948.6471250772
 30
0.0
 11
1774.3570896319
 21
948.2279107094
 31
0.0
  0
LWPOLYLINE
  5
347
330
1F
100
AcDbEntity
  8
0
  6
CONTINUOUS
 62
     7
100
AcDbPolyline
 90
        6
 70
   128
 43
0.0
 10
1774.3570896319
 20
942.7312597752
 10
1774.352556885
 20
944.5434793949
 10
1774.3554011441
 20
946.1544886351
 10
1774.3545797176
 20
947.3825976372
 10
1774.3523929722
 20
948.0888977766
 10
1774.3570896319
 20
948.2279107094
  0
LINE
  5
348
330
1F
100
AcDbEntity
  8
0
  6
CONTINUOUS
 62
     7
100
AcDbLine
 10
1774.3570896319
 20
942.7312597752
 30
0.0
 11
1762.3522727273
 21
943.1504890442
 31
0.0
  0
LINE
  5
349
330
1F
100
AcDbEntity
  8
0
  6
CONTINUOUS
 62
     7
100
AcDbLine
 10
1762.3522727273
 20
943.1504890442
 30
0.0
 11
1762.3522727273
 21
511.2495109558
 31
0.0
  0
ELLIPSE
  5
34A
330
1F
100
AcDbEntity
  8
0
  6
CONTINUOUS
 62
     7
100
AcDbEllipse
 10
1749.6805891293
 20
946.5911591149
 30
0.0
 11
-8.29332751426864
 21
33.59022879511349
 31
0.0
210
0.0
220
0.0
230
0.9999999999999998
 40
0.6932657487
 41
4.370258113599415
 42
4.429358901149664
  0
LINE
  5
34B
330
1F
100
AcDbEntity
  8
0
  6
CONTINUOUS
 62
     7
100
AcDbLine
 10
1774.4002480514
 20
513.6619493484
 30
0.0
 11
1774.4002480514
 21
940.7380506515
 31
0.0
  0
ELLIPSE
  5
34C
330
1F
100
AcDbEntity
  8
0
  6
CONTINUOUS
 62
     7
100
AcDbEllipse
 10
1749.6805891293
 20
507.8088408851
 30
0.0
 11
8.293327514268185
 21
33.59022879511338
 31
0.0
210
0.0
220
0.0
230
0.9999999999999999
 40
0.6932657487
 41
4.995419059619729
 42
5.054519847169981
  0
ARC
  5
34D
330
1F
100
AcDbEntity
  8
0
  6
CONTINUOUS
 62
     7
100
AcDbCircle
 10
1774.2690482533
 20
945.7312068478
 30
0.0
 40
2.498255682866138
100
AcDbArc
 50
9.5876365431
 51
87.9804132233
  0
ARC
  5
34E
330
1F
100
AcDbEntity
  8
0
  6
CONTINUOUS
 62
     7
100
AcDbCircle
 10
1813.6928783502
 20
944.4920629382
 30
0.0
 40
36.99751581908817
100
AcDbArc
 50
177.4357704316
 51
182.5642295684
  0
LWPOLYLINE
  5
34F
330
1F
100
AcDbEntity
  8
0
  6
CONTINUOUS
 62
     7
100
AcDbPolyline
 90
        9
 70
   128
 43
0.0
 10
1774.3570896319
 20
942.7312597752
 10
1774.7805778391
 20
942.7496031046
 10
1775.189167679
 20
942.7674099922
 10
1775.5709419481
 20
942.7841588974
 10
1775.9147638909
 20
942.7993580818
 10
1776.2106059573
 20
942.812590313
 10
1776.4498366497
 20
942.8234383583
 10
1776.6254784993
 20
942.8315892935
 10
1776.7324083007
 20
942.8368196011
  0
ARC
  5
350
330
1F
100
AcDbEntity
  8
0
  6
CONTINUOUS
 62
     7
100
AcDbCircle
 10
1811.2293668912
 20
509.9079370618
 30
0.0
 40
34.53664694922686
100
AcDbArc
 50
177.2529237558
 51
182.7470762442
  0
ARC
  5
351
330
1F
100
AcDbEntity
  8
0
  6
CONTINUOUS
 62
     7
100
AcDbCircle
 10
1774.2690482533
 20
508.6687931522
 30
0.0
 40
2.498255682866015
100
AcDbArc
 50
272.0195867767
 51
350.4123634569
  0
LWPOLYLINE
  5
352
330
1F
100
AcDbEntity
  8
0
  6
CONTINUOUS
 62
     7
100
AcDbPolyline
 90
        9
 70
   128
 43
0.0
 10
1776.7324083007
 20
511.5631803989
 10
1776.6254784993
 20
511.5684107065
 10
1776.4498366497
 20
511.5765616417
 10
1776.2106059573
 20
511.587409687
 10
1775.9147638909
 20
511.6006419182
 10
1775.5709419481
 20
511.6158411026
 10
1775.189167679
 20
511.6325900078
 10
1774.7805778391
 20
511.6503968954
 10
1774.3570896319
 20
511.6687402248
  0
ELLIPSE
  5
353
330
1F
100
AcDbEntity
  8
0
  6
CONTINUOUS
 62
     7
100
AcDbEllipse
 10
1749.5933403875
 20
946.5911591149
 30
0.0
 11
-8.836761542010665
 21
35.25755896152283
 31
0.0
210
0.0
220
0.0
230
1.0
 40
0.7286416184
 41
4.367712868707614
 42
4.426813656257862
  0
LINE
  5
354
330
1F
100
AcDbEntity
  8
0
  6
CONTINUOUS
 62
     7
100
AcDbLine
 10
1776.7583689175
 20
940.7380506515
 30
0.0
 11
1774.4002480514
 21
940.7380506515
 31
0.0
  0
ELLIPSE
  5
355
330
1F
100
AcDbEntity
  8
0
  6
CONTINUOUS
 62
     7
100
AcDbEllipse
 10
1749.5933403875
 20
507.8088408851
 30
0.0
 11
8.83676154201089
 21
35.25755896152282
 31
0.0
210
0.0
220
0.0
230
0.9999999999999998
 40
0.7286416184
 41
4.997964304511544
 42
5.057065092061794
  0
LINE
  5
356
330
1F
100
AcDbEntity
  8
0
  6
CONTINUOUS
 62
     7
100
AcDbLine
 10
1776.7583689175
 20
513.6619493484
 30
0.0
 11
1774.4002480514
 21
513.6619493484
 31
0.0
  0
LINE
  5
357
330
1F
100
AcDbEntity
  8
0
  6
CONTINUOUS
 62
     7
100
AcDbLine
 10
1776.7583689175
 20
940.7380506515
 30
0.0
 11
1776.7583689175
 21
513.6619493484
 31
0.0
  0
LINE
  5
358
330
1F
100
AcDbEntity
  8
0
  6
CONTINUOUS
 62
     7
100
AcDbLine
 10
1776.7583689175
 20
513.6619493484
 30
0.0
 11
1777.7682532079
 21
518.413080287
 31
0.0
  0
ARC
  5
359
330
1F
100
AcDbEntity
  8
0
  6
CONTINUOUS
 62
     7
100
AcDbCircle
 10
1783.0473841593
 20
518.5176416247
 30
0.0
 40
5.280166349252227
100
AcDbArc
 50
181.1346829963
 51
205.5654280106
  0
LINE
  5
35A
330
1F
100
AcDbEntity
  8
0
  6
CONTINUOUS
 62
     7
100
AcDbLine
 10
1778.4776183299
 20
516.2407294035
 30
0.0
 11
1776.7583689175
 21
508.1522897005
 31
0.0
  0
ELLIPSE
  5
35B
330
1F
100
AcDbEntity
  8
0
  6
CONTINUOUS
 62
     7
100
AcDbEllipse
 10
1749.5933403875
 20
507.8088408851
 30
0.0
 11
27.16744992248937
 21
0.367744040995774
 31
0.0
210
0.0
220
0.0
230
1.0
 40
0.0627541953
 41
6.268957057669217
 42
6.328057845219209
  0
ELLIPSE
  5
35C
330
1F
100
AcDbEntity
  8
0
  6
CONTINUOUS
 62
     7
100
AcDbEllipse
 10
1749.5933403875
 20
946.5911591149
 30
0.0
 11
27.16744992248937
 21
-0.3677440409957171
 31
0.0
210
0.0
220
0.0
230
1.0
 40
0.0627541953
 41
6.238312769140182
 42
6.297413556690202
  0
LINE
  5
35D
330
1F
100
AcDbEntity
  8
0
  6
CONTINUOUS
 62
     7
100
AcDbLine
 10
1776.7583689175
 20
946.2477102995
 30
0.0
 11
1778.4776183299
 21
938.1592705965
 31
0.0
  0
ARC
  5
35E
330
1F
100
AcDbEntity
  8
0
  6
CONTINUOUS
 62
     7
100
AcDbCircle
 10
1784.5828619986
 20
935.5179700972
 30
0.0
 40
6.830725196681586
100
AcDbArc
 50
157.2365113011
 51
176.063377692
  0
LINE
  5
35F
330
1F
100
AcDbEntity
  8
0
  6
CONTINUOUS
 62
     7
100
AcDbLine
 10
1777.7682532079
 20
935.986919713
 30
0.0
 11
1776.7583689175
 21
940.7380506515
 31
0.0
  0
ELLIPSE
  5
360
330
1F
100
AcDbEntity
  8
0
  6
CONTINUOUS
 62
     7
100
AcDbEllipse
 10
1778.7018728445
 20
521.7428902298
 30
0.0
 11
0.002373530184968331
 21
5.500219684190256
 31
0.0
210
0.0
220
0.0
230
1.0
 40
0.2129507426
 41
1.572822772488778
 42
2.221150553818247
  0
ELLIPSE
  5
361
330
1F
100
AcDbEntity
  8
0
  6
CONTINUOUS
 62
     7
100
AcDbEllipse
 10
1778.7018728445
 20
932.6571097702
 30
0.0
 11
-0.002373530184740957
 21
5.500219684190142
 31
0.0
210
0.0
220
0.0
230
1.0
 40
0.2129507426
 41
0.9204420997715963
 42
1.568769881100982
  0
LINE
  5
362
330
1F
100
AcDbEntity
  8
0
  6
CONTINUOUS
 62
     7
100
AcDbLine
 10
1777.530594588
 20
913.1767436981
 30
0.0
 11
1777.530594588
 21
932.6677456617
 31
0.0
  0
LINE
  5
363
330
1F
100
AcDbEntity
  8
0
  6
CONTINUOUS
 62
     7
100
AcDbLine
 10
1777.5343114964
 20
913.1749108553
 30
0.0
 11
1777.530594588
 21
913.1767436981
 31
0.0
  0
LINE
  5
364
330
1F
100
AcDbEntity
  8
0
  6
CONTINUOUS
 62
     7
100
AcDbLine
 10
1777.5343114964
 20
913.1749108553
 30
0.0
 11
1778.0842686526
 21
911.007387948
 31
0.0
  0
LINE
  5
365
330
1F
100
AcDbEntity
  8
0
  6
CONTINUOUS
 62
     7
100
AcDbLine
 10
1778.0842686526
 20
911.007387948
 30
0.0
 11
1778.0842686526
 21
543.3698132753
 31
0.0
  0
LINE
  5
366
330
1F
100
AcDbEntity
  8
0
  6
CONTINUOUS
 62
     7
100
AcDbLine
 10
1778.0842686526
 20
543.3698132753
 30
0.0
 11
1777.530594588
 21
541.2232563019
 31
0.0
  0
LINE
  5
367
330
1F
100
AcDbEntity
  8
0
  6
CONTINUOUS
 62
     7
100
AcDbLine
 10
1777.530594588
 20
521.7322543383
 30
0.0
 11
1777.530594588
 21
541.2232563019
 31
0.0
  0
ARC
  5
368
330
1F
100
AcDbEntity
  8
0
  6
CONTINUOUS
 62
     7
100
AcDbCircle
 10
1774.3129997645
 20
508.6720704121
 30
0.0
 40
2.50000000000019
100
AcDbArc
 50
272.0
 51
348.0
  0
LWPOLYLINE
  5
369
330
1F
100
AcDbEntity
  8
0
  6
CONTINUOUS
 62
     7
100
AcDbPolyline
 90
        4
 70
   128
 43
0.0
 10
1774.4002480514
 20
506.1735943079
 10
1774.3954517401
 20
506.1734303951
 10
1774.3810637377
 20
506.1729237556
 10
1774.3570896319
 20
506.1720892906
  0
ARC
  5
36A
330
1F
100
AcDbEntity
  8
0
  6
CONTINUOUS
 62
     7
100
AcDbCircle
 10
1774.3129997645
 20
945.7279295879
 30
0.0
 40
2.500000000000214
100
AcDbArc
 50
12.0
 51
88.0
  0
LWPOLYLINE
  5
36B
330
1F
100
AcDbEntity
  8
0
  6
CONTINUOUS
 62
     7
100
AcDbPolyline
 90
        4
 70
   128
 43
0.0
 10
1774.3570896319
 20
948.2279107094
 10
1774.3810637377
 20
948.2270762444
 10
1774.3954517401
 20
948.2265696049
 10
1774.4002480514
 20
948.2264056921
  0
LINE
  5
36C
330
1F
100
AcDbEntity
  8
0
  6
CONTINUOUS
 62
     7
100
AcDbLine
 10
1953.7522791407
 20
913.0326643705
 30
0.0
 11
1951.7522750876
 21
913.0169436455
 31
0.0
  0
LINE
  5
36D
330
1F
100
AcDbEntity
  8
0
  6
CONTINUOUS
 62
     7
100
AcDbLine
 10
1951.7522750876
 20
913.0169436455
 30
0.0
 11
1777.530594588
 21
913.1767436981
 31
0.0
  0
LINE
  5
36E
330
1F
100
AcDbEntity
  8
0
  6
CONTINUOUS
 62
     7
100
AcDbLine
 10
1953.7522791407
 20
931.1298862219
 30
0.0
 11
1777.530594588
 21
932.6677456617
 31
0.0
  0
LINE
  5
36F
330
1F
100
AcDbEntity
  8
0
  6
CONTINUOUS
 62
     7
100
AcDbLine
 10
1953.7522791407
 20
913.0326643705
 30
0.0
 11
1953.7522791407
 21
931.1298862219
 31
0.0
  0
LINE
  5
370
330
1F
100
AcDbEntity
  8
0
  6
CONTINUOUS
 62
     7
100
AcDbLine
 10
1951.7522750876
 20
913.0151108027
 30
0.0
 11
1951.7522750876
 21
913.0169436455
 31
0.0
  0
LINE
  5
371
330
1F
100
AcDbEntity
  8
0
  6
CONTINUOUS
 62
     7
100
AcDbLine
 10
1777.5343114964
 20
913.1749108553
 30
0.0
 11
1951.7522750876
 21
913.0151108027
 31
0.0
  0
LINE
  5
372
330
1F
100
AcDbEntity
  8
0
  6
CONTINUOUS
 62
     7
100
AcDbLine
 10
1951.7522750876
 20
541.3830563545
 30
0.0
 11
1777.530594588
 21
541.2232563019
 31
0.0
  0
LINE
  5
373
330
1F
100
AcDbEntity
  8
0
  6
CONTINUOUS
 62
     7
100
AcDbLine
 10
1953.7522791407
 20
541.3673356295
 30
0.0
 11
1951.7522750876
 21
541.3830563545
 31
0.0
  0
LINE
  5
374
330
1F
100
AcDbEntity
  8
0
  6
CONTINUOUS
 62
     7
100
AcDbLine
 10
1953.7522791407
 20
523.2701137781
 30
0.0
 11
1953.7522791407
 21
541.3673356295
 31
0.0
  0
LINE
  5
375
330
1F
100
AcDbEntity
  8
0
  6
CONTINUOUS
 62
     7
100
AcDbLine
 10
1777.530594588
 20
521.7322543383
 30
0.0
 11
1953.7522791407
 21
523.2701137781
 31
0.0
  0
LINE
  5
376
330
1F
100
AcDbEntity
  8
0
  6
CONTINUOUS
 62
     7
100
AcDbLine
 10
1951.7522750876
 20
543.5291066885
 30
0.0
 11
1951.7522750876
 21
541.3830563545
 31
0.0
  0
LINE
  5
377
330
1F
100
AcDbEntity
  8
0
  6
CONTINUOUS
 62
     7
100
AcDbLine
 10
1778.0842686526
 20
543.3698132753
 30
0.0
 11
1951.7522750876
 21
543.5291066885
 31
0.0
  0
LINE
  5
378
330
1F
100
AcDbEntity
  8
0
  6
CONTINUOUS
 62
     7
100
AcDbLine
 10
1778.2841826312
 20
938.1609693289
 30
0.0
 11
1953.7522791407
 21
936.6296813011
 31
0.0
  0
LINE
  5
379
330
1F
100
AcDbEntity
  8
0
  6
CONTINUOUS
 62
     7
100
AcDbLine
 10
1953.7522791407
 20
936.6296813011
 30
0.0
 11
1953.7522791407
 21
931.1298862219
 31
0.0
  0
LINE
  5
37A
330
1F
100
AcDbEntity
  8
0
  6
CONTINUOUS
 62
     7
100
AcDbLine
 10
1953.7522791407
 20
517.7703186989
 30
0.0
 11
1778.2841826312
 21
516.2390306711
 31
0.0
  0
LINE
  5
37B
330
1F
100
AcDbEntity
  8
0
  6
CONTINUOUS
 62
     7
100
AcDbLine
 10
1953.7522791407
 20
523.2701137781
 30
0.0
 11
1953.7522791407
 21
517.7703186989
 31
0.0
  0
LINE
  5
37C
330
1F
100
AcDbEntity
  8
0
  6
CONTINUOUS
 62
     7
100
AcDbLine
 10
1951.7522750876
 20
913.0151108027
 30
0.0
 11
1951.7522750876
 21
910.8480945349
 31
0.0
  0
LINE
  5
37D
330
1F
100
AcDbEntity
  8
0
  6
CONTINUOUS
 62
     7
100
AcDbLine
 10
1778.0842686526
 20
911.007387948
 30
0.0
 11
1951.7522750876
 21
910.8480945349
 31
0.0
  0
LINE
  5
37E
330
1F
100
AcDbEntity
  8
0
  6
CONTINUOUS
 62
     7
100
AcDbLine
 10
1953.7522791407
 20
912.6981482029
 30
0.0
 11
1953.7522791407
 21
913.0326643705
 31
0.0
  0
LINE
  5
37F
330
1F
100
AcDbEntity
  8
0
  6
CONTINUOUS
 62
     7
100
AcDbLine
 10
1951.7522750876
 20
912.6780316353
 30
0.0
 11
1953.7522791407
 21
912.6981482029
 31
0.0
  0
LINE
  5
380
330
1F
100
AcDbEntity
  8
0
  6
CONTINUOUS
 62
     7
100
AcDbLine
 10
1953.7522791407
 20
541.3673356295
 30
0.0
 11
1953.7522791407
 21
541.7018517971
 31
0.0
  0
LINE
  5
381
330
1F
100
AcDbEntity
  8
0
  6
CONTINUOUS
 62
     7
100
AcDbLine
 10
1951.7522750876
 20
541.7219683647
 30
0.0
 11
1953.7522791407
 21
541.7018517971
 31
0.0
  0
LINE
  5
382
330
1F
100
AcDbEntity
  8
0
  6
CONTINUOUS
 62
     7
100
AcDbLine
 10
1951.7522750876
 20
910.8480945349
 30
0.0
 11
1951.7522750876
 21
543.5291066885
 31
0.0
  0
LINE
  5
383
330
1F
100
AcDbEntity
  8
0
  6
CONTINUOUS
 62
     7
100
AcDbLine
 10
1210.5989219926
 20
1116.05
 30
0.0
 11
1205.1022710583
 21
1116.05
 31
0.0
  0
LINE
  5
384
330
1F
100
AcDbEntity
  8
0
  6
CONTINUOUS
 62
     7
100
AcDbLine
 10
1205.1022710583
 20
1116.05
 30
0.0
 11
1205.5214854262
 21
1128.0548169047
 31
0.0
  0
LWPOLYLINE
  5
385
330
1F
100
AcDbEntity
  8
0
  6
CONTINUOUS
 62
     7
100
AcDbPolyline
 90
        6
 70
   128
 43
0.0
 10
1211.0181363604
 20
1128.0548169047
 10
1209.2059167407
 20
1128.0502841577
 10
1207.5949224017
 20
1128.0531284168
 10
1206.3667984984
 20
1128.0523069903
 10
1205.6605132601
 20
1128.0501202449
 10
1205.5214854262
 20
1128.0548169047
  0
LINE
  5
386
330
1F
100
AcDbEntity
  8
0
  6
CONTINUOUS
 62
     7
100
AcDbLine
 10
1211.0181363604
 20
1128.0548169047
 30
0.0
 11
1210.5989219926
 21
1116.05
 31
0.0
  0
LINE
  5
387
330
1F
100
AcDbEntity
  8
0
  6
CONTINUOUS
 62
     7
100
AcDbLine
 10
1589.1022743962
 20
1116.05
 30
0.0
 11
1583.605623462
 21
1116.05
 31
0.0
  0
LINE
  5
388
330
1F
100
AcDbEntity
  8
0
  6
CONTINUOUS
 62
     7
100
AcDbLine
 10
1583.605623462
 20
1116.05
 30
0.0
 11
1583.1864090941
 21
1128.0548169047
 31
0.0
  0
LWPOLYLINE
  5
389
330
1F
100
AcDbEntity
  8
0
  6
CONTINUOUS
 62
     7
100
AcDbPolyline
 90
        6
 70
   128
 43
0.0
 10
1588.6830600283
 20
1128.0548169047
 10
1588.3762004159
 20
1128.0502841577
 10
1587.4877633832
 20
1128.0531284168
 10
1586.1163946173
 20
1128.0523069903
 10
1584.4162913344
 20
1128.0501202449
 10
1583.1864090941
 20
1128.0548169047
  0
LINE
  5
38A
330
1F
100
AcDbEntity
  8
0
  6
CONTINUOUS
 62
     7
100
AcDbLine
 10
1588.6830600283
 20
1128.0548169047
 30
0.0
 11
1589.1022743962
 21
1116.05
 31
0.0
  0
LINE
  5
38B
330
1F
100
AcDbEntity
  8
0
  6
CONTINUOUS
 62
     7
100
AcDbLine
 10
1210.5989219926
 20
1116.05
 30
0.0
 11
1583.605623462
 21
1116.05
 31
0.0
  0
ELLIPSE
  5
38C
330
1F
100
AcDbEntity
  8
0
  6
CONTINUOUS
 62
     7
100
AcDbEllipse
 10
1207.1582448528
 20
1103.378316402
 30
0.0
 11
33.59022879511349
 21
8.293327514268185
 31
0.0
210
0.0
220
0.0
230
1.0
 40
0.6932657487
 41
1.228665460009617
 42
1.287766247559869
  0
LINE
  5
38D
330
1F
100
AcDbEntity
  8
0
  6
CONTINUOUS
 62
     7
100
AcDbLine
 10
1581.1931850693
 20
1128.0979753241
 30
0.0
 11
1213.0113603852
 21
1128.0979753241
 31
0.0
  0
ELLIPSE
  5
38E
330
1F
100
AcDbEntity
  8
0
  6
CONTINUOUS
 62
     7
100
AcDbEllipse
 10
1587.0463006017
 20
1103.378316402
 30
0.0
 11
33.5902287951135
 21
-8.293327514268414
 31
0.0
210
0.0
220
0.0
230
0.9999999999999998
 40
0.6932657487
 41
1.853826406029923
 42
1.912927193580175
  0
LWPOLYLINE
  5
38F
330
1F
100
AcDbEntity
  8
0
  6
CONTINUOUS
 62
     7
100
AcDbPolyline
 90
        9
 70
   128
 43
0.0
 10
1583.1864090941
 20
1128.0548169047
 10
1583.2047375224
 20
1128.4783051118
 10
1583.22254441
 20
1128.8868949518
 10
1583.2392933152
 20
1129.2686692208
 10
1583.2545074008
 20
1129.6124911636
 10
1583.2677247308
 20
1129.90833323
 10
1583.2785727761
 20
1130.1475639224
 10
1583.2867386124
 20
1130.323205772
 10
1583.29196892
 20
1130.4301355734
  0
ARC
  5
390
330
1F
100
AcDbEntity
  8
0
  6
CONTINUOUS
 62
     7
100
AcDbCircle
 10
1584.9472122572
 20
1164.927411873
 30
0.0
 40
34.53696429327616
100
AcDbArc
 50
267.2529490168
 51
272.7470509832
  0
ARC
  5
391
330
1F
100
AcDbEntity
  8
0
  6
CONTINUOUS
 62
     7
100
AcDbCircle
 10
1586.1863452543
 20
1127.9667659675
 30
0.0
 40
2.498266925352851
100
AcDbArc
 50
2.0197970365
 51
80.4121531971
  0
ARC
  5
392
330
1F
100
AcDbEntity
  8
0
  6
CONTINUOUS
 62
     7
100
AcDbCircle
 10
1208.0182002002
 20
1127.9667659676
 30
0.0
 40
2.498266925352153
100
AcDbArc
 50
99.5878468029
 51
177.9802029635
  0
ARC
  5
393
330
1F
100
AcDbEntity
  8
0
  6
CONTINUOUS
 62
     7
100
AcDbCircle
 10
1209.2573331974
 20
1167.3909649331
 30
0.0
 40
36.99787476950158
100
AcDbArc
 50
267.4357953262
 51
272.5642046738
  0
LWPOLYLINE
  5
394
330
1F
100
AcDbEntity
  8
0
  6
CONTINUOUS
 62
     7
100
AcDbPolyline
 90
        9
 70
   128
 43
0.0
 10
1211.0181363604
 20
1128.0548169047
 10
1210.9998079322
 20
1128.4783051118
 10
1210.9820010445
 20
1128.8868949518
 10
1210.9652521394
 20
1129.2686692208
 10
1210.9500380538
 20
1129.6124911636
 10
1210.9368207238
 20
1129.90833323
 10
1210.9259726784
 20
1130.1475639224
 10
1210.9178068421
 20
1130.323205772
 10
1210.9125765345
 20
1130.4301355734
  0
LINE
  5
395
330
1F
100
AcDbEntity
  8
0
  6
CONTINUOUS
 62
     7
100
AcDbLine
 10
1581.1931850693
 20
1128.0979753241
 30
0.0
 11
1581.1931850693
 21
1130.4560961902
 31
0.0
  0
ELLIPSE
  5
396
330
1F
100
AcDbEntity
  8
0
  6
CONTINUOUS
 62
     7
100
AcDbEllipse
 10
1587.0463006017
 20
1103.2910676603
 30
0.0
 11
35.25755896152283
 21
-8.836761542010665
 31
0.0
210
0.0
220
0.0
230
1.0
 40
0.7286416184
 41
1.856371650921727
 42
1.915472438471981
  0
ELLIPSE
  5
397
330
1F
100
AcDbEntity
  8
0
  6
CONTINUOUS
 62
     7
100
AcDbEllipse
 10
1207.1582448528
 20
1103.2910676603
 30
0.0
 11
35.25755896152305
 21
8.83676154201089
 31
0.0
210
0.0
220
0.0
230
1.0
 40
0.7286416184
 41
1.226120215117804
 42
1.285221002668052
  0
LINE
  5
398
330
1F
100
AcDbEntity
  8
0
  6
CONTINUOUS
 62
     7
100
AcDbLine
 10
1213.0113603852
 20
1128.0979753241
 30
0.0
 11
1213.0113603852
 21
1130.4560961902
 31
0.0
  0
LINE
  5
399
330
1F
100
AcDbEntity
  8
0
  6
CONTINUOUS
 62
     7
100
AcDbLine
 10
1213.0113603852
 20
1130.4560961902
 30
0.0
 11
1581.1931850693
 21
1130.4560961902
 31
0.0
  0
LINE
  5
39A
330
1F
100
AcDbEntity
  8
0
  6
CONTINUOUS
 62
     7
100
AcDbLine
 10
1581.1931850693
 20
1130.4560961902
 30
0.0
 11
1573.1047602675
 21
1132.1753456026
 31
0.0
  0
ELLIPSE
  5
39B
330
1F
100
AcDbEntity
  8
0
  6
CONTINUOUS
 62
     7
100
AcDbEllipse
 10
1578.8512856348
 20
1105.0329718645
 30
0.0
 11
37.07285329614729
 21
-8.202390165005001
 31
0.0
210
0.0
220
0.0
230
0.9999999999999997
 40
0.6979050266
 41
1.758336206073687
 42
1.877794688492058
  0
ARC
  5
39C
330
1F
100
AcDbEntity
  8
0
  6
CONTINUOUS
 62
     7
100
AcDbCircle
 10
1575.3296348528
 20
1094.0617790395
 30
0.0
 40
37.9858686191422
100
AcDbArc
 50
79.9603256319
 51
86.6287055585
  0
LINE
  5
39D
330
1F
100
AcDbEntity
  8
0
  6
CONTINUOUS
 62
     7
100
AcDbLine
 10
1581.9517137788
 20
1131.4659804806
 30
0.0
 11
1586.7028447173
 21
1130.4560961902
 31
0.0
  0
ELLIPSE
  5
39E
330
1F
100
AcDbEntity
  8
0
  6
CONTINUOUS
 62
     7
100
AcDbEllipse
 10
1587.0463006017
 20
1103.2910676603
 30
0.0
 11
-0.3677440409956034
 21
27.16744992248937
 31
0.0
210
0.0
220
0.0
230
0.9999999999999999
 40
0.0627541953
 41
6.268957057669458
 42
6.32805784521935
  0
ELLIPSE
  5
39F
330
1F
100
AcDbEntity
  8
0
  6
CONTINUOUS
 62
     7
100
AcDbEllipse
 10
1207.1582448528
 20
1103.2910676603
 30
0.0
 11
0.3677440409960582
 21
27.16744992248937
 31
0.0
210
0.0
220
0.0
230
1.0
 40
0.0627541953
 41
6.238312769140309
 42
6.297413556690202
  0
LINE
  5
3A0
330
1F
100
AcDbEntity
  8
0
  6
CONTINUOUS
 62
     7
100
AcDbLine
 10
1207.5017007373
 20
1130.4560961902
 30
0.0
 11
1212.2528316758
 21
1131.4659804806
 31
0.0
  0
ARC
  5
3A1
330
1F
100
AcDbEntity
  8
0
  6
CONTINUOUS
 62
     7
100
AcDbCircle
 10
1219.3922489569
 20
1089.6615225117
 30
0.0
 40
42.40971569333708
100
AcDbArc
 50
93.7194244926
 51
99.691544317
  0
ELLIPSE
  5
3A2
330
1F
100
AcDbEntity
  8
0
  6
CONTINUOUS
 62
     7
100
AcDbEllipse
 10
1215.3532598197
 20
1105.0329718645
 30
0.0
 11
37.07285329614729
 21
8.202390165005001
 31
0.0
210
0.0
220
0.0
230
0.9999999999999997
 40
0.6979050266
 41
1.263797965097722
 42
1.383256447516099
  0
LINE
  5
3A3
330
1F
100
AcDbEntity
  8
0
  6
CONTINUOUS
 62
     7
100
AcDbLine
 10
1221.099785187
 20
1132.1753456026
 30
0.0
 11
1213.0113603852
 21
1130.4560961902
 31
0.0
  0
LINE
  5
3A4
330
1F
100
AcDbEntity
  8
0
  6
CONTINUOUS
 62
     7
100
AcDbLine
 10
1555.9087904475
 20
1132.7290187359
 30
0.0
 11
1558.0763133548
 21
1132.1790615797
 31
0.0
  0
LINE
  5
3A5
330
1F
100
AcDbEntity
  8
0
  6
CONTINUOUS
 62
     7
100
AcDbLine
 10
1558.0781461976
 20
1132.1753456026
 30
0.0
 11
1558.0763133548
 21
1132.1790615797
 31
0.0
  0
LINE
  5
3A6
330
1F
100
AcDbEntity
  8
0
  6
CONTINUOUS
 62
     7
100
AcDbLine
 10
1573.1047602675
 20
1132.1753456026
 30
0.0
 11
1558.0781461976
 21
1132.1753456026
 31
0.0
  0
LINE
  5
3A7
330
1F
100
AcDbEntity
  8
0
  6
CONTINUOUS
 62
     7
100
AcDbLine
 10
1236.126399257
 20
1132.1753456026
 30
0.0
 11
1221.099785187
 21
1132.1753456026
 31
0.0
  0
LINE
  5
3A8
330
1F
100
AcDbEntity
  8
0
  6
CONTINUOUS
 62
     7
100
AcDbLine
 10
1236.1282320998
 20
1132.1790615797
 30
0.0
 11
1236.126399257
 21
1132.1753456026
 31
0.0
  0
LINE
  5
3A9
330
1F
100
AcDbEntity
  8
0
  6
CONTINUOUS
 62
     7
100
AcDbLine
 10
1236.1282320998
 20
1132.1790615797
 30
0.0
 11
1238.295755007
 21
1132.7290187359
 31
0.0
  0
LINE
  5
3AA
330
1F
100
AcDbEntity
  8
0
  6
CONTINUOUS
 62
     7
100
AcDbLine
 10
1238.295755007
 20
1132.7290187359
 30
0.0
 11
1555.9087904475
 21
1132.7290187359
 31
0.0
  0
ARC
  5
3AB
330
1F
100
AcDbEntity
  8
0
  6
CONTINUOUS
 62
     7
100
AcDbCircle
 10
1208.0214743798
 20
1128.0107270372
 30
0.0
 40
2.500000000000068
100
AcDbArc
 50
102.0
 51
178.0
  0
LWPOLYLINE
  5
3AC
330
1F
100
AcDbEntity
  8
0
  6
CONTINUOUS
 62
     7
100
AcDbPolyline
 90
        4
 70
   128
 43
0.0
 10
1205.5214854262
 20
1128.0548169047
 10
1205.5223347924
 20
1128.0787910104
 10
1205.5228265307
 20
1128.0931790128
 10
1205.5229904435
 20
1128.0979753241
  0
ARC
  5
3AD
330
1F
100
AcDbEntity
  8
0
  6
CONTINUOUS
 62
     7
100
AcDbCircle
 10
1586.1830710747
 20
1128.0107270372
 30
0.0
 40
2.499999999999921
100
AcDbArc
 50
2.0
 51
78.0
  0
ARC
  5
3AE
330
1F
100
AcDbEntity
  8
0
  6
CONTINUOUS
 62
     7
100
AcDbCircle
 10
1611.0829766543
 20
1128.8575506282
 30
0.0
 40
22.41429557854793
100
AcDbArc
 50
181.9420103161
 51
182.052399631
  0
LINE
  5
3AF
330
1F
100
AcDbEntity
  8
0
  6
CONTINUOUS
 62
     7
100
AcDbLine
 10
1218.1723924659
 20
1307.4500064135
 30
0.0
 11
1216.6411044381
 21
1131.9819099039
 31
0.0
  0
LINE
  5
3B0
330
1F
100
AcDbEntity
  8
0
  6
CONTINUOUS
 62
     7
100
AcDbLine
 10
1211.1347379468
 20
1131.2283218607
 30
0.0
 11
1212.6725973866
 21
1307.4500064135
 31
0.0
  0
LINE
  5
3B1
330
1F
100
AcDbEntity
  8
0
  6
CONTINUOUS
 62
     7
100
AcDbLine
 10
1212.6725973866
 20
1307.4500064135
 30
0.0
 11
1218.1723924659
 21
1307.4500064135
 31
0.0
  0
LINE
  5
3B2
330
1F
100
AcDbEntity
  8
0
  6
CONTINUOUS
 62
     7
100
AcDbLine
 10
1581.5319480679
 20
1307.4500064135
 30
0.0
 11
1583.0698075078
 21
1131.2283218607
 31
0.0
  0
LINE
  5
3B3
330
1F
100
AcDbEntity
  8
0
  6
CONTINUOUS
 62
     7
100
AcDbLine
 10
1577.5634410165
 20
1131.9819099039
 30
0.0
 11
1576.0321529887
 21
1307.4500064135
 31
0.0
  0
LINE
  5
3B4
330
1F
100
AcDbEntity
  8
0
  6
CONTINUOUS
 62
     7
100
AcDbLine
 10
1576.0321529887
 20
1307.4500064135
 30
0.0
 11
1581.5319480679
 21
1307.4500064135
 31
0.0
  0
LINE
  5
3B5
330
1F
100
AcDbEntity
  8
0
  6
CONTINUOUS
 62
     7
100
AcDbLine
 10
1236.2696143172
 20
1307.4500064135
 30
0.0
 11
1236.2853350423
 21
1305.4500023603
 31
0.0
  0
LINE
  5
3B6
330
1F
100
AcDbEntity
  8
0
  6
CONTINUOUS
 62
     7
100
AcDbLine
 10
1236.2853350423
 20
1305.4500023603
 30
0.0
 11
1236.126399257
 21
1132.1753456026
 31
0.0
  0
LINE
  5
3B7
330
1F
100
AcDbEntity
  8
0
  6
CONTINUOUS
 62
     7
100
AcDbLine
 10
1236.2696143172
 20
1307.4500064135
 30
0.0
 11
1218.1723924659
 21
1307.4500064135
 31
0.0
  0
LINE
  5
3B8
330
1F
100
AcDbEntity
  8
0
  6
CONTINUOUS
 62
     7
100
AcDbLine
 10
1557.9192104123
 20
1305.4500023603
 30
0.0
 11
1558.0781461976
 21
1132.1753456026
 31
0.0
  0
LINE
  5
3B9
330
1F
100
AcDbEntity
  8
0
  6
CONTINUOUS
 62
     7
100
AcDbLine
 10
1557.9349311373
 20
1307.4500064135
 30
0.0
 11
1557.9192104123
 21
1305.4500023603
 31
0.0
  0
LINE
  5
3BA
330
1F
100
AcDbEntity
  8
0
  6
CONTINUOUS
 62
     7
100
AcDbLine
 10
1576.0321529887
 20
1307.4500064135
 30
0.0
 11
1557.9349311373
 21
1307.4500064135
 31
0.0
  0
LINE
  5
3BB
330
1F
100
AcDbEntity
  8
0
  6
CONTINUOUS
 62
     7
100
AcDbLine
 10
1558.0763133548
 20
1132.1790615797
 30
0.0
 11
1557.9173775695
 21
1305.4500023603
 31
0.0
  0
LINE
  5
3BC
330
1F
100
AcDbEntity
  8
0
  6
CONTINUOUS
 62
     7
100
AcDbLine
 10
1557.9192104123
 20
1305.4500023603
 30
0.0
 11
1557.9173775695
 21
1305.4500023603
 31
0.0
  0
LINE
  5
3BD
330
1F
100
AcDbEntity
  8
0
  6
CONTINUOUS
 62
     7
100
AcDbLine
 10
1236.2871678851
 20
1305.4500023603
 30
0.0
 11
1236.2853350423
 21
1305.4500023603
 31
0.0
  0
LINE
  5
3BE
330
1F
100
AcDbEntity
  8
0
  6
CONTINUOUS
 62
     7
100
AcDbLine
 10
1236.1282320998
 20
1132.1790615797
 30
0.0
 11
1236.2871678851
 21
1305.4500023603
 31
0.0
  0
LINE
  5
3BF
330
1F
100
AcDbEntity
  8
0
  6
CONTINUOUS
 62
     7
100
AcDbLine
 10
1236.2871678851
 20
1305.4500023603
 30
0.0
 11
1238.4541841529
 21
1305.4500023603
 31
0.0
  0
LINE
  5
3C0
330
1F
100
AcDbEntity
  8
0
  6
CONTINUOUS
 62
     7
100
AcDbLine
 10
1238.295755007
 20
1132.7290187359
 30
0.0
 11
1238.4541841529
 21
1305.4500023603
 31
0.0
  0
LINE
  5
3C1
330
1F
100
AcDbEntity
  8
0
  6
CONTINUOUS
 62
     7
100
AcDbLine
 10
1555.7503613017
 20
1305.4500023603
 30
0.0
 11
1557.9173775695
 21
1305.4500023603
 31
0.0
  0
LINE
  5
3C2
330
1F
100
AcDbEntity
  8
0
  6
CONTINUOUS
 62
     7
100
AcDbLine
 10
1555.9087904475
 20
1132.7290187359
 30
0.0
 11
1555.7503613017
 21
1305.4500023603
 31
0.0
  0
LINE
  5
3C3
330
1F
100
AcDbEntity
  8
0
  6
CONTINUOUS
 62
     7
100
AcDbLine
 10
1236.6041304848
 20
1307.4500064135
 30
0.0
 11
1236.2696143172
 21
1307.4500064135
 31
0.0
  0
LINE
  5
3C4
330
1F
100
AcDbEntity
  8
0
  6
CONTINUOUS
 62
     7
100
AcDbLine
 10
1236.6041304848
 20
1307.4500064135
 30
0.0
 11
1236.6242470525
 21
1305.4500023603
 31
0.0
  0
LINE
  5
3C5
330
1F
100
AcDbEntity
  8
0
  6
CONTINUOUS
 62
     7
100
AcDbLine
 10
1557.6004149697
 20
1307.4500064135
 30
0.0
 11
1557.5802984021
 21
1305.4500023603
 31
0.0
  0
LINE
  5
3C6
330
1F
100
AcDbEntity
  8
0
  6
CONTINUOUS
 62
     7
100
AcDbLine
 10
1557.9349311373
 20
1307.4500064135
 30
0.0
 11
1557.6004149697
 21
1307.4500064135
 31
0.0
  0
LINE
  5
3C7
330
1F
100
AcDbEntity
  8
0
  6
CONTINUOUS
 62
     7
100
AcDbLine
 10
1238.4541841529
 20
1305.4500023603
 30
0.0
 11
1555.7503613017
 21
1305.4500023603
 31
0.0
  0
LINE
  5
3C8
330
1F
100
AcDbEntity
  8
0
  6
CONTINUOUS
 62
     7
100
AcDbLine
 10
1205.1022710583
 20
1116.05
 30
0.0
 11
1197.0919879458
 21
1118.4573370732
 31
0.0
  0
ARC
  5
3C9
330
1F
100
AcDbEntity
  8
0
  6
CONTINUOUS
 62
     7
100
AcDbCircle
 10
1198.5022727273
 20
1123.15
 30
0.0
 40
4.900000000000198
100
AcDbArc
 50
102.0
 51
253.2728678538
  0
LINE
  5
3CA
330
1F
100
AcDbEntity
  8
0
  6
CONTINUOUS
 62
     7
100
AcDbLine
 10
1197.483501055
 20
1127.9429231539
 30
0.0
 11
1206.2909962914
 21
1129.8150137767
 31
0.0
  0
CIRCLE
  5
3CB
330
1F
100
AcDbEntity
  8
0
  6
CONTINUOUS
 62
     7
100
AcDbCircle
 10
1198.5022727273
 20
1123.15
 30
0.0
 40
1.900000000000091
  0
INSERT
  5
3EB
330
1F
100
AcDbEntity
  8
0
  6
CONTINUOUS
 62
     7
100
AcDbBlockReference
  2
SW_CENTERMARKSYMBOL_8
 10
1198.5022727273
 20
1123.15
 30
0.0
  0
LINE
  5
3EC
330
1F
100
AcDbEntity
  8
0
  6
CONTINUOUS
 62
     7
100
AcDbLine
 10
1583.605623462
 20
333.25
 30
0.0
 11
1589.1022743962
 21
333.25
 31
0.0
  0
LINE
  5
3ED
330
1F
100
AcDbEntity
  8
0
  6
CONTINUOUS
 62
     7
100
AcDbLine
 10
1589.1022743962
 20
333.25
 30
0.0
 11
1588.6830600283
 21
321.2451830953
 31
0.0
  0
LWPOLYLINE
  5
3EE
330
1F
100
AcDbEntity
  8
0
  6
CONTINUOUS
 62
     7
100
AcDbPolyline
 90
        6
 70
   128
 43
0.0
 10
1583.1864090941
 20
321.2451830953
 10
1584.9986287139
 20
321.2497158423
 10
1586.6096230529
 20
321.2468715832
 10
1587.8377469561
 20
321.2476930097
 10
1588.5440321944
 20
321.2498797551
 10
1588.6830600283
 20
321.2451830953
  0
LINE
  5
3EF
330
1F
100
AcDbEntity
  8
0
  6
CONTINUOUS
 62
     7
100
AcDbLine
 10
1583.1864090941
 20
321.2451830953
 30
0.0
 11
1583.605623462
 21
333.25
 31
0.0
  0
LINE
  5
3F0
330
1F
100
AcDbEntity
  8
0
  6
CONTINUOUS
 62
     7
100
AcDbLine
 10
1205.1022710583
 20
333.25
 30
0.0
 11
1210.5989219926
 21
333.25
 31
0.0
  0
LINE
  5
3F1
330
1F
100
AcDbEntity
  8
0
  6
CONTINUOUS
 62
     7
100
AcDbLine
 10
1210.5989219926
 20
333.25
 30
0.0
 11
1211.0181363604
 21
321.2451830953
 31
0.0
  0
LWPOLYLINE
  5
3F2
330
1F
100
AcDbEntity
  8
0
  6
CONTINUOUS
 62
     7
100
AcDbPolyline
 90
        6
 70
   128
 43
0.0
 10
1205.5214854262
 20
321.2451830953
 10
1205.8283450387
 20
321.2497158423
 10
1206.7167820714
 20
321.2468715832
 10
1208.0881508372
 20
321.2476930097
 10
1209.7882541201
 20
321.2498797551
 10
1211.0181363604
 20
321.2451830953
  0
LINE
  5
3F3
330
1F
100
AcDbEntity
  8
0
  6
CONTINUOUS
 62
     7
100
AcDbLine
 10
1205.5214854262
 20
321.2451830953
 30
0.0
 11
1205.1022710583
 21
333.25
 31
0.0
  0
ELLIPSE
  5
3F4
330
1F
100
AcDbEntity
  8
0
  6
CONTINUOUS
 62
     7
100
AcDbEllipse
 10
1587.0463006017
 20
345.921683598
 30
0.0
 11
33.59022879511349
 21
8.293327514268357
 31
0.0
210
0.0
220
0.0
230
0.9999999999999997
 40
0.6932657487
 41
4.370258113599426
 42
4.429358901149676
  0
LINE
  5
3F5
330
1F
100
AcDbEntity
  8
0
  6
CONTINUOUS
 62
     7
100
AcDbLine
 10
1213.0113603852
 20
321.2020246759
 30
0.0
 11
1581.1931850693
 21
321.2020246759
 31
0.0
  0
ELLIPSE
  5
3F6
330
1F
100
AcDbEntity
  8
0
  6
CONTINUOUS
 62
     7
100
AcDbEllipse
 10
1207.1582448528
 20
345.921683598
 30
0.0
 11
33.5902287951135
 21
-8.293327514268414
 31
0.0
210
0.0
220
0.0
230
0.9999999999999998
 40
0.6932657487
 41
4.995419059619732
 42
5.054519847169985
  0
LINE
  5
3F7
330
1F
100
AcDbEntity
  8
0
  6
CONTINUOUS
 62
     7
100
AcDbLine
 10
1583.605623462
 20
333.25
 30
0.0
 11
1210.5989219926
 21
333.25
 31
0.0
  0
ARC
  5
3F8
330
1F
100
AcDbEntity
  8
0
  6
CONTINUOUS
 62
     7
100
AcDbCircle
 10
1209.2573331974
 20
284.372588127
 30
0.0
 40
34.53696429328348
100
AcDbArc
 50
87.2529490168
 51
92.7470509832
  0
ARC
  5
3F9
330
1F
100
AcDbEntity
  8
0
  6
CONTINUOUS
 62
     7
100
AcDbCircle
 10
1208.0182002002
 20
321.3332340324
 30
0.0
 40
2.498266925351922
100
AcDbArc
 50
182.0197970365
 51
260.4121531971
  0
LWPOLYLINE
  5
3FA
330
1F
100
AcDbEntity
  8
0
  6
CONTINUOUS
 62
     7
100
AcDbPolyline
 90
        9
 70
   128
 43
0.0
 10
1210.9125765345
 20
318.8698644266
 10
1210.9178068421
 20
318.976794228
 10
1210.9259726784
 20
319.1524360776
 10
1210.9368207238
 20
319.39166677
 10
1210.9500380538
 20
319.6875088364
 10
1210.9652521394
 20
320.0313307792
 10
1210.9820010445
 20
320.4131050482
 10
1210.9998079322
 20
320.8216948882
 10
1211.0181363604
 20
321.2451830953
  0
ARC
  5
3FB
330
1F
100
AcDbEntity
  8
0
  6
CONTINUOUS
 62
     7
100
AcDbCircle
 10
1584.9472122572
 20
281.9090350669
 30
0.0
 40
36.9978747694984
100
AcDbArc
 50
87.4357953262
 51
92.5642046738
  0
LWPOLYLINE
  5
3FC
330
1F
100
AcDbEntity
  8
0
  6
CONTINUOUS
 62
     7
100
AcDbPolyline
 90
        9
 70
   128
 43
0.0
 10
1583.29196892
 20
318.8698644266
 10
1583.2867386124
 20
318.976794228
 10
1583.2785727761
 20
319.1524360776
 10
1583.2677247308
 20
319.39166677
 10
1583.2545074008
 20
319.6875088364
 10
1583.2392933152
 20
320.0313307792
 10
1583.22254441
 20
320.4131050482
 10
1583.2047375224
 20
320.8216948882
 10
1583.1864090941
 20
321.2451830953
  0
ARC
  5
3FD
330
1F
100
AcDbEntity
  8
0
  6
CONTINUOUS
 62
     7
100
AcDbCircle
 10
1586.1863452543
 20
321.3332340324
 30
0.0
 40
2.498266925352847
100
AcDbArc
 50
279.5878468029
 51
357.9802029635
  0
ELLIPSE
  5
3FE
330
1F
100
AcDbEntity
  8
0
  6
CONTINUOUS
 62
     7
100
AcDbEllipse
 10
1587.0463006017
 20
346.0089323397
 30
0.0
 11
35.25755896152282
 21
8.836761542010777
 31
0.0
210
0.0
220
0.0
230
0.9999999999999999
 40
0.7286416184
 41
4.367712868707611
 42
4.426813656257865
  0
LINE
  5
3FF
330
1F
100
AcDbEntity
  8
0
  6
CONTINUOUS
 62
     7
100
AcDbLine
 10
1581.1931850693
 20
318.8439038098
 30
0.0
 11
1581.1931850693
 21
321.2020246759
 31
0.0
  0
ELLIPSE
  5
400
330
1F
100
AcDbEntity
  8
0
  6
CONTINUOUS
 62
     7
100
AcDbEllipse
 10
1207.1582448528
 20
346.0089323397
 30
0.0
 11
35.25755896152305
 21
-8.83676154201072
 31
0.0
210
0.0
220
0.0
230
1.0
 40
0.7286416184
 41
4.997964304511544
 42
5.057065092061793
  0
LINE
  5
401
330
1F
100
AcDbEntity
  8
0
  6
CONTINUOUS
 62
     7
100
AcDbLine
 10
1213.0113603852
 20
318.8439038098
 30
0.0
 11
1213.0113603852
 21
321.2020246759
 31
0.0
  0
LINE
  5
402
330
1F
100
AcDbEntity
  8
0
  6
CONTINUOUS
 62
     7
100
AcDbLine
 10
1581.1931850693
 20
318.8439038098
 30
0.0
 11
1213.0113603852
 21
318.8439038098
 31
0.0
  0
ELLIPSE
  5
403
330
1F
100
AcDbEntity
  8
0
  6
CONTINUOUS
 62
     7
100
AcDbEllipse
 10
1587.0463006017
 20
346.0089323397
 30
0.0
 11
0.3677440409958308
 21
27.16744992248931
 31
0.0
210
0.0
220
0.0
230
1.0
 40
0.0627541953
 41
3.096720115550165
 42
3.155820903100503
  0
LINE
  5
404
330
1F
100
AcDbEntity
  8
0
  6
CONTINUOUS
 62
     7
100
AcDbLine
 10
1586.7028447173
 20
318.8439038098
 30
0.0
 11
1581.9517137788
 21
317.8340195194
 31
0.0
  0
ARC
  5
405
330
1F
100
AcDbEntity
  8
0
  6
CONTINUOUS
 62
     7
100
AcDbCircle
 10
1574.8122964977
 20
359.6384774883
 30
0.0
 40
42.40971569333674
100
AcDbArc
 50
273.7194244926
 51
279.691544317
  0
ELLIPSE
  5
406
330
1F
100
AcDbEntity
  8
0
  6
CONTINUOUS
 62
     7
100
AcDbEllipse
 10
1578.8512856348
 20
344.2670281355
 30
0.0
 11
37.07285329614729
 21
8.202390165005058
 31
0.0
210
0.0
220
0.0
230
0.9999999999999999
 40
0.6979050266
 41
4.405390618687537
 42
4.524849101105901
  0
LINE
  5
407
330
1F
100
AcDbEntity
  8
0
  6
CONTINUOUS
 62
     7
100
AcDbLine
 10
1573.1047602675
 20
317.1246543974
 30
0.0
 11
1581.1931850693
 21
318.8439038098
 31
0.0
  0
LINE
  5
408
330
1F
100
AcDbEntity
  8
0
  6
CONTINUOUS
 62
     7
100
AcDbLine
 10
1213.0113603852
 20
318.8439038098
 30
0.0
 11
1221.099785187
 21
317.1246543974
 31
0.0
  0
ELLIPSE
  5
409
330
1F
100
AcDbEntity
  8
0
  6
CONTINUOUS
 62
     7
100
AcDbEllipse
 10
1215.3532598197
 20
344.2670281355
 30
0.0
 11
37.07285329614729
 21
-8.202390165005001
 31
0.0
210
0.0
220
0.0
230
0.9999999999999997
 40
0.6979050266
 41
4.899928859663497
 42
5.019387342081874
  0
ARC
  5
40A
330
1F
100
AcDbEntity
  8
0
  6
CONTINUOUS
 62
     7
100
AcDbCircle
 10
1218.8749106017
 20
355.2382209605
 30
0.0
 40
37.98586861913589
100
AcDbArc
 50
259.9603256319
 51
266.6287055585
  0
LINE
  5
40B
330
1F
100
AcDbEntity
  8
0
  6
CONTINUOUS
 62
     7
100
AcDbLine
 10
1212.2528316758
 20
317.8340195194
 30
0.0
 11
1207.5017007373
 21
318.8439038098
 31
0.0
  0
ELLIPSE
  5
40C
330
1F
100
AcDbEntity
  8
0
  6
CONTINUOUS
 62
     7
100
AcDbEllipse
 10
1207.1582448528
 20
346.0089323397
 30
0.0
 11
-0.3677440409956034
 21
27.16744992248931
 31
0.0
210
0.0
220
0.0
230
0.9999999999999999
 40
0.0627541953
 41
3.127364404079441
 42
3.186465191629777
  0
LINE
  5
40D
330
1F
100
AcDbEntity
  8
0
  6
CONTINUOUS
 62
     7
100
AcDbLine
 10
1238.2729413293
 20
316.5709812641
 30
0.0
 11
1236.126399257
 21
317.1246543974
 31
0.0
  0
LINE
  5
40E
330
1F
100
AcDbEntity
  8
0
  6
CONTINUOUS
 62
     7
100
AcDbLine
 10
1221.099785187
 20
317.1246543974
 30
0.0
 11
1236.126399257
 21
317.1246543974
 31
0.0
  0
LINE
  5
40F
330
1F
100
AcDbEntity
  8
0
  6
CONTINUOUS
 62
     7
100
AcDbLine
 10
1558.0781461976
 20
317.1246543974
 30
0.0
 11
1573.1047602675
 21
317.1246543974
 31
0.0
  0
LINE
  5
410
330
1F
100
AcDbEntity
  8
0
  6
CONTINUOUS
 62
     7
100
AcDbLine
 10
1558.0781461976
 20
317.1246543974
 30
0.0
 11
1555.9316041253
 21
316.5709812641
 31
0.0
  0
LINE
  5
411
330
1F
100
AcDbEntity
  8
0
  6
CONTINUOUS
 62
     7
100
AcDbLine
 10
1555.9316041253
 20
316.5709812641
 30
0.0
 11
1238.2729413293
 21
316.5709812641
 31
0.0
  0
ARC
  5
412
330
1F
100
AcDbEntity
  8
0
  6
CONTINUOUS
 62
     7
100
AcDbCircle
 10
1586.1830710747
 20
321.2892729628
 30
0.0
 40
2.499999999999865
100
AcDbArc
 50
282.0
 51
358.0
  0
LWPOLYLINE
  5
413
330
1F
100
AcDbEntity
  8
0
  6
CONTINUOUS
 62
     7
100
AcDbPolyline
 90
        4
 70
   128
 43
0.0
 10
1588.6830600283
 20
321.2451830953
 10
1588.6822106621
 20
321.2212089896
 10
1588.6817189238
 20
321.2068209872
 10
1588.6815550111
 20
321.2020246759
  0
ARC
  5
414
330
1F
100
AcDbEntity
  8
0
  6
CONTINUOUS
 62
     7
100
AcDbCircle
 10
1208.0214743798
 20
321.2892729628
 30
0.0
 40
2.500000000000071
100
AcDbArc
 50
182.0
 51
258.0
  0
ARC
  5
415
330
1F
100
AcDbEntity
  8
0
  6
CONTINUOUS
 62
     7
100
AcDbCircle
 10
1183.1215695673
 20
320.4424493986
 30
0.0
 40
22.4142948109656
100
AcDbArc
 50
1.9420103139
 51
2.0523996326
  0
LINE
  5
416
330
1F
100
AcDbEntity
  8
0
  6
CONTINUOUS
 62
     7
100
AcDbLine
 10
1576.0321529887
 20
141.8499935865
 30
0.0
 11
1577.5634410165
 21
317.3180900961
 31
0.0
  0
LINE
  5
417
330
1F
100
AcDbEntity
  8
0
  6
CONTINUOUS
 62
     7
100
AcDbLine
 10
1583.0698075078
 20
318.0716781393
 30
0.0
 11
1581.5319480679
 21
141.8499935865
 31
0.0
  0
LINE
  5
418
330
1F
100
AcDbEntity
  8
0
  6
CONTINUOUS
 62
     7
100
AcDbLine
 10
1581.5319480679
 20
141.8499935865
 30
0.0
 11
1576.0321529887
 21
141.8499935865
 31
0.0
  0
LINE
  5
419
330
1F
100
AcDbEntity
  8
0
  6
CONTINUOUS
 62
     7
100
AcDbLine
 10
1212.6725973866
 20
141.8499935865
 30
0.0
 11
1211.1347379468
 21
318.0716781393
 31
0.0
  0
LINE
  5
41A
330
1F
100
AcDbEntity
  8
0
  6
CONTINUOUS
 62
     7
100
AcDbLine
 10
1216.6411044381
 20
317.3180900961
 30
0.0
 11
1218.1723924659
 21
141.8499935865
 31
0.0
  0
LINE
  5
41B
330
1F
100
AcDbEntity
  8
0
  6
CONTINUOUS
 62
     7
100
AcDbLine
 10
1218.1723924659
 20
141.8499935865
 30
0.0
 11
1212.6725973866
 21
141.8499935865
 31
0.0
  0
LINE
  5
41C
330
1F
100
AcDbEntity
  8
0
  6
CONTINUOUS
 62
     7
100
AcDbLine
 10
1236.2853350423
 20
143.8499976397
 30
0.0
 11
1236.126399257
 21
317.1246543974
 31
0.0
  0
LINE
  5
41D
330
1F
100
AcDbEntity
  8
0
  6
CONTINUOUS
 62
     7
100
AcDbLine
 10
1236.2696143172
 20
141.8499935865
 30
0.0
 11
1236.2853350423
 21
143.8499976397
 31
0.0
  0
LINE
  5
41E
330
1F
100
AcDbEntity
  8
0
  6
CONTINUOUS
 62
     7
100
AcDbLine
 10
1218.1723924659
 20
141.8499935865
 30
0.0
 11
1236.2696143172
 21
141.8499935865
 31
0.0
  0
LINE
  5
41F
330
1F
100
AcDbEntity
  8
0
  6
CONTINUOUS
 62
     7
100
AcDbLine
 10
1557.9349311373
 20
141.8499935865
 30
0.0
 11
1557.9192104123
 21
143.8499976397
 31
0.0
  0
LINE
  5
420
330
1F
100
AcDbEntity
  8
0
  6
CONTINUOUS
 62
     7
100
AcDbLine
 10
1557.9192104123
 20
143.8499976397
 30
0.0
 11
1558.0781461976
 21
317.1246543974
 31
0.0
  0
LINE
  5
421
330
1F
100
AcDbEntity
  8
0
  6
CONTINUOUS
 62
     7
100
AcDbLine
 10
1557.9349311373
 20
141.8499935865
 30
0.0
 11
1576.0321529887
 21
141.8499935865
 31
0.0
  0
LINE
  5
422
330
1F
100
AcDbEntity
  8
0
  6
CONTINUOUS
 62
     7
100
AcDbLine
 10
1238.4313704751
 20
143.8499976397
 30
0.0
 11
1236.2853350423
 21
143.8499976397
 31
0.0
  0
LINE
  5
423
330
1F
100
AcDbEntity
  8
0
  6
CONTINUOUS
 62
     7
100
AcDbLine
 10
1238.2729413293
 20
316.5709812641
 30
0.0
 11
1238.4313704751
 21
143.8499976397
 31
0.0
  0
LINE
  5
424
330
1F
100
AcDbEntity
  8
0
  6
CONTINUOUS
 62
     7
100
AcDbLine
 10
1557.9192104123
 20
143.8499976397
 30
0.0
 11
1555.7731749795
 21
143.8499976397
 31
0.0
  0
LINE
  5
425
330
1F
100
AcDbEntity
  8
0
  6
CONTINUOUS
 62
     7
100
AcDbLine
 10
1555.9316041253
 20
316.5709812641
 30
0.0
 11
1555.7731749795
 21
143.8499976397
 31
0.0
  0
LINE
  5
426
330
1F
100
AcDbEntity
  8
0
  6
CONTINUOUS
 62
     7
100
AcDbLine
 10
1236.6041304848
 20
141.8499935865
 30
0.0
 11
1236.6242470525
 21
143.8499976397
 31
0.0
  0
LINE
  5
427
330
1F
100
AcDbEntity
  8
0
  6
CONTINUOUS
 62
     7
100
AcDbLine
 10
1236.2696143172
 20
141.8499935865
 30
0.0
 11
1236.6041304848
 21
141.8499935865
 31
0.0
  0
LINE
  5
428
330
1F
100
AcDbEntity
  8
0
  6
CONTINUOUS
 62
     7
100
AcDbLine
 10
1557.6004149697
 20
141.8499935865
 30
0.0
 11
1557.9349311373
 21
141.8499935865
 31
0.0
  0
LINE
  5
429
330
1F
100
AcDbEntity
  8
0
  6
CONTINUOUS
 62
     7
100
AcDbLine
 10
1557.6004149697
 20
141.8499935865
 30
0.0
 11
1557.5802984021
 21
143.8499976397
 31
0.0
  0
LINE
  5
42A
330
1F
100
AcDbEntity
  8
0
  6
CONTINUOUS
 62
     7
100
AcDbLine
 10
1555.7731749795
 20
143.8499976397
 30
0.0
 11
1238.4313704751
 21
143.8499976397
 31
0.0
  0
LINE
  5
42B
330
1F
100
AcDbEntity
  8
0
  6
CONTINUOUS
 62
     7
100
AcDbLine
 10
1197.483501055
 20
321.3570768461
 30
0.0
 11
1206.2909962914
 21
319.4849862233
 31
0.0
  0
ARC
  5
42C
330
1F
100
AcDbEntity
  8
0
  6
CONTINUOUS
 62
     7
100
AcDbCircle
 10
1198.5022727273
 20
326.15
 30
0.0
 40
4.900000000000079
100
AcDbArc
 50
106.7271321462
 51
258.0
  0
LINE
  5
42D
330
1F
100
AcDbEntity
  8
0
  6
CONTINUOUS
 62
     7
100
AcDbLine
 10
1205.1022710583
 20
333.25
 30
0.0
 11
1197.0919879458
 21
330.8426629268
 31
0.0
  0
CIRCLE
  5
42E
330
1F
100
AcDbEntity
  8
0
  6
CONTINUOUS
 62
     7
100
AcDbCircle
 10
1198.5022727273
 20
326.15
 30
0.0
 40
1.900000000000091
  0
INSERT
  5
451
330
1F
100
AcDbEntity
  8
0
  6
CONTINUOUS
 62
     7
100
AcDbBlockReference
  2
SW_CENTERMARKSYMBOL_9
 10
1198.5022727273
 20
326.15
 30
0.0
  0
ARC
  5
452
330
1F
100
AcDbEntity
  8
0
  6
CONTINUOUS
 62
     7
100
AcDbCircle
 10
197.8552366828
 20
930.1470360445
 30
0.0
 40
1.242503507682613
100
AcDbArc
 50
90.0
 51
180.0
  0
ARC
  5
453
330
1F
100
AcDbEntity
  8
0
  6
CONTINUOUS
 62
     7
100
AcDbCircle
 10
196.8127331751
 20
928.9470360445
 30
0.0
 40
0.2000000000001101
100
AcDbArc
 50
180.0
 51
315.0
  0
ARC
  5
454
330
1F
100
AcDbEntity
  8
0
  6
CONTINUOUS
 62
     7
100
AcDbCircle
 10
199.0552366828
 20
931.1895395521
 30
0.0
 40
0.2000000000001592
100
AcDbArc
 50
315.0
 51
90.0
  0
LINE
  5
455
330
1F
100
AcDbEntity
  8
0
  6
CONTINUOUS
 62
     7
100
AcDbLine
 10
197.8552366828
 20
931.3895395521
 30
0.0
 11
199.0552366828
 21
931.3895395521
 31
0.0
  0
LINE
  5
456
330
1F
100
AcDbEntity
  8
0
  6
CONTINUOUS
 62
     7
100
AcDbLine
 10
199.196658039
 20
931.0481181959
 30
0.0
 11
196.9541545314
 21
928.8056146882
 31
0.0
  0
LINE
  5
457
330
1F
100
AcDbEntity
  8
0
  6
CONTINUOUS
 62
     7
100
AcDbLine
 10
196.6127331751
 20
928.9470360445
 30
0.0
 11
196.6127331751
 21
930.1470360445
 31
0.0
  0
LINE
  5
458
330
1F
100
AcDbEntity
  8
0
  6
CENTERX2
 62
     7
100
AcDbLine
 10
192.1559768118
 20
543.3698060814
 30
0.0
 11
192.439563776
 21
543.3698060814
 31
0.0
  0
LINE
  5
459
330
1F
100
AcDbEntity
  8
0
  6
CONTINUOUS
 62
     7
100
AcDbLine
 10
579.3022753499
 20
743.3000005901
 30
0.0
 11
579.3022753499
 21
773.5499985635
 31
0.0
  0
LINE
  5
45A
330
1F
100
AcDbEntity
  8
0
  6
CONTINUOUS
 62
     7
100
AcDbLine
 10
579.3022753499
 20
618.2999968648
 30
0.0
 11
579.3022753499
 21
648.5500022888
 31
0.0
  0
LINE
  5
45B
330
1F
100
AcDbEntity
  8
0
  6
CONTINUOUS
 62
     7
100
AcDbLine
 10
579.3022753499
 20
555.8000043154
 30
0.0
 11
579.3022753499
 21
586.0500022888
 31
0.0
  0
LINE
  5
45C
330
1F
100
AcDbEntity
  8
0
  6
CONTINUOUS
 62
     7
100
AcDbLine
 10
579.3022753499
 20
680.8000005901
 30
0.0
 11
579.3022753499
 21
711.0500004262
 31
0.0
  0
LINE
  5
45D
330
1F
100
AcDbEntity
  8
0
  6
CONTINUOUS
 62
     7
100
AcDbLine
 10
579.3022753499
 20
805.7999968648
 30
0.0
 11
579.3022753499
 21
836.0500022888
 31
0.0
  0
LINE
  5
45E
330
1F
100
AcDbEntity
  8
0
  6
CONTINUOUS
 62
     7
100
AcDbLine
 10
579.3022753499
 20
868.3000043154
 30
0.0
 11
579.3022753499
 21
898.5500022888
 31
0.0
  0
LINE
  5
45F
330
1F
100
AcDbEntity
  8
0
  6
CONTINUOUS
 62
     7
100
AcDbLine
 10
191.3725973866
 20
931.1298862219
 30
0.0
 11
189.8347379468
 21
932.6677456617
 31
0.0
  0
ELLIPSE
  5
460
330
1F
100
AcDbEntity
  8
0
  6
CONTINUOUS
 62
     7
100
AcDbEllipse
 10
195.345162957
 20
932.6571097702
 30
0.0
 11
5.070595942024084
 21
-2.163081009885332
 31
0.0
210
0.0
220
0.0
230
1.0
 40
0.9973235129
 41
2.895517698755004
 42
3.543845480084581
  0
ARC
  5
461
330
1F
100
AcDbEntity
  8
0
  6
CONTINUOUS
 62
     7
100
AcDbCircle
 10
195.3367762246
 20
932.6538634581
 30
0.0
 40
5.507107571654129
100
AcDbArc
 50
89.9549693941
 51
142.7547423978
  0
LINE
  5
462
330
1F
100
AcDbEntity
  8
0
  6
CONTINUOUS
 62
     7
100
AcDbLine
 10
195.3411044381
 20
938.1609693289
 30
0.0
 11
196.8723924659
 21
936.6296813011
 31
0.0
  0
ELLIPSE
  5
463
330
1F
100
AcDbEntity
  8
0
  6
CONTINUOUS
 62
     7
100
AcDbEllipse
 10
196.8728046535
 20
931.1294680737
 30
0.0
 11
-3.889383471219901
 21
3.889383471219958
 31
0.0
210
0.0
220
0.0
230
1.0
 40
0.9999238505
 41
5.497825219993093
 42
7.068545394366104
  0
LINE
  5
464
330
1F
100
AcDbEntity
  8
0
  6
CONTINUOUS
 62
     7
100
AcDbLine
 10
191.3725973866
 20
913.0326643705
 30
0.0
 11
191.3551481269
 21
913.0169436455
 31
0.0
  0
LINE
  5
465
330
1F
100
AcDbEntity
  8
0
  6
CONTINUOUS
 62
     7
100
AcDbLine
 10
191.3551481269
 20
913.0169436455
 30
0.0
 11
189.8347379468
 21
913.1767436981
 31
0.0
  0
LINE
  5
466
330
1F
100
AcDbEntity
  8
0
  6
CONTINUOUS
 62
     7
100
AcDbLine
 10
189.8347379468
 20
913.1767436981
 30
0.0
 11
189.8347379468
 21
932.6677456617
 31
0.0
  0
LINE
  5
467
330
1F
100
AcDbEntity
  8
0
  6
CONTINUOUS
 62
     7
100
AcDbLine
 10
191.3725973866
 20
913.0326643705
 30
0.0
 11
191.3725973866
 21
931.1298862219
 31
0.0
  0
LINE
  5
468
330
1F
100
AcDbEntity
  8
0
  6
CONTINUOUS
 62
     7
100
AcDbLine
 10
196.8723924659
 20
517.7703186989
 30
0.0
 11
195.3411044381
 21
516.2390306711
 31
0.0
  0
ARC
  5
469
330
1F
100
AcDbEntity
  8
0
  6
CONTINUOUS
 62
     7
100
AcDbCircle
 10
195.3368726335
 20
521.7463311412
 30
0.0
 40
5.507302095927434
100
AcDbArc
 50
217.2462621926
 51
270.0440260155
  0
ELLIPSE
  5
46A
330
1F
100
AcDbEntity
  8
0
  6
CONTINUOUS
 62
     7
100
AcDbEllipse
 10
195.345162957
 20
521.7428902298
 30
0.0
 11
5.070595942024056
 21
2.163081009885332
 31
0.0
210
0.0
220
0.0
230
0.9999999999999999
 40
0.9973235129
 41
2.739339827094976
 42
3.387667608424572
  0
LINE
  5
46B
330
1F
100
AcDbEntity
  8
0
  6
CONTINUOUS
 62
     7
100
AcDbLine
 10
189.8347379468
 20
521.7322543383
 30
0.0
 11
191.3725973866
 21
523.2701137781
 31
0.0
  0
ELLIPSE
  5
46C
330
1F
100
AcDbEntity
  8
0
  6
CONTINUOUS
 62
     7
100
AcDbEllipse
 10
196.8728046535
 20
523.2705319263
 30
0.0
 11
-3.88938347121993
 21
-3.889383471219958
 31
0.0
210
0.0
220
0.0
230
0.9999999999999998
 40
0.9999238505
 41
5.497825219993117
 42
7.068545394366094
  0
LINE
  5
46D
330
1F
100
AcDbEntity
  8
0
  6
CONTINUOUS
 62
     7
100
AcDbLine
 10
191.3551481269
 20
541.3830563545
 30
0.0
 11
189.8347379468
 21
541.2232563019
 31
0.0
  0
LINE
  5
46E
330
1F
100
AcDbEntity
  8
0
  6
CONTINUOUS
 62
     7
100
AcDbLine
 10
191.3725973866
 20
541.3673356295
 30
0.0
 11
191.3551481269
 21
541.3830563545
 31
0.0
  0
LINE
  5
46F
330
1F
100
AcDbEntity
  8
0
  6
CONTINUOUS
 62
     7
100
AcDbLine
 10
191.3725973866
 20
523.2701137781
 30
0.0
 11
191.3725973866
 21
541.3673356295
 31
0.0
  0
LINE
  5
470
330
1F
100
AcDbEntity
  8
0
  6
CONTINUOUS
 62
     7
100
AcDbLine
 10
189.8347379468
 20
521.7322543383
 30
0.0
 11
189.8347379468
 21
541.2232563019
 31
0.0
  0
LINE
  5
471
330
1F
100
AcDbEntity
  8
0
  6
CONTINUOUS
 62
     7
100
AcDbLine
 10
194.5552320979
 20
541.7018517971
 30
0.0
 11
194.5552320979
 21
524.2529645681
 31
0.0
  0
LINE
  5
472
330
1F
100
AcDbEntity
  8
0
  6
CONTINUOUS
 62
     7
100
AcDbLine
 10
194.5796700022
 20
541.7219683647
 30
0.0
 11
194.5552320979
 21
541.7018517971
 31
0.0
  0
LINE
  5
473
330
1F
100
AcDbEntity
  8
0
  6
CONTINUOUS
 62
     7
100
AcDbLine
 10
194.5796700022
 20
541.7219683647
 30
0.0
 11
194.5796700022
 21
524.2529645681
 31
0.0
  0
LINE
  5
474
330
1F
100
AcDbEntity
  8
0
  6
CONTINUOUS
 62
     7
100
AcDbLine
 10
194.5796700022
 20
524.2529645681
 30
0.0
 11
194.5552320979
 21
524.2529645681
 31
0.0
  0
LINE
  5
475
330
1F
100
AcDbEntity
  8
0
  6
CONTINUOUS
 62
     7
100
AcDbLine
 10
215.3041304848
 20
520.9529683113
 30
0.0
 11
214.9696143172
 21
517.7703186989
 31
0.0
  0
LINE
  5
476
330
1F
100
AcDbEntity
  8
0
  6
CONTINUOUS
 62
     7
100
AcDbLine
 10
214.9696143172
 20
517.7703186989
 30
0.0
 11
196.8723924659
 21
517.7703186989
 31
0.0
  0
LINE
  5
477
330
1F
100
AcDbEntity
  8
0
  6
CONTINUOUS
 62
     7
100
AcDbLine
 10
191.3725973866
 20
541.3673356295
 30
0.0
 11
194.5552320979
 21
541.7018517971
 31
0.0
  0
ARC
  5
478
330
1F
100
AcDbEntity
  8
0
  6
CONTINUOUS
 62
     7
100
AcDbCircle
 10
197.8552366828
 20
524.2529639555
 30
0.0
 40
3.299999999999983
100
AcDbArc
 50
180.0
 51
270.0
  0
LINE
  5
479
330
1F
100
AcDbEntity
  8
0
  6
CONTINUOUS
 62
     7
100
AcDbLine
 10
197.8552432559
 20
520.9529683113
 30
0.0
 11
215.3041304848
 21
520.9529683113
 31
0.0
  0
LINE
  5
47A
330
1F
100
AcDbEntity
  8
0
  6
CONTINUOUS
 62
     7
100
AcDbLine
 10
194.5796700022
 20
912.6780316353
 30
0.0
 11
194.5552320979
 21
912.6981482029
 31
0.0
  0
LINE
  5
47B
330
1F
100
AcDbEntity
  8
0
  6
CONTINUOUS
 62
     7
100
AcDbLine
 10
194.5552320979
 20
912.6981482029
 30
0.0
 11
194.5552320979
 21
930.1470354319
 31
0.0
  0
LINE
  5
47C
330
1F
100
AcDbEntity
  8
0
  6
CONTINUOUS
 62
     7
100
AcDbLine
 10
194.5796700022
 20
930.1470354319
 30
0.0
 11
194.5552320979
 21
930.1470354319
 31
0.0
  0
LINE
  5
47D
330
1F
100
AcDbEntity
  8
0
  6
CONTINUOUS
 62
     7
100
AcDbLine
 10
194.5796700022
 20
930.1470354319
 30
0.0
 11
194.5796700022
 21
912.6780316353
 31
0.0
  0
LINE
  5
47E
330
1F
100
AcDbEntity
  8
0
  6
CONTINUOUS
 62
     7
100
AcDbLine
 10
194.5552320979
 20
912.6981482029
 30
0.0
 11
191.3725973866
 21
913.0326643705
 31
0.0
  0
LINE
  5
47F
330
1F
100
AcDbEntity
  8
0
  6
CONTINUOUS
 62
     7
100
AcDbLine
 10
196.8723924659
 20
936.6296813011
 30
0.0
 11
214.9696143172
 21
936.6296813011
 31
0.0
  0
LINE
  5
480
330
1F
100
AcDbEntity
  8
0
  6
CONTINUOUS
 62
     7
100
AcDbLine
 10
214.9696143172
 20
936.6296813011
 30
0.0
 11
215.3041304848
 21
933.4470316887
 31
0.0
  0
LINE
  5
481
330
1F
100
AcDbEntity
  8
0
  6
CONTINUOUS
 62
     7
100
AcDbLine
 10
197.8552432559
 20
933.4470316887
 30
0.0
 11
215.3041304848
 21
933.4470316887
 31
0.0
  0
ARC
  5
482
330
1F
100
AcDbEntity
  8
0
  6
CONTINUOUS
 62
     7
100
AcDbCircle
 10
197.8552366828
 20
930.1470360445
 30
0.0
 40
3.299999999999983
100
AcDbArc
 50
90.0
 51
180.0
  0
LINE
  5
483
330
1F
100
AcDbEntity
  8
0
  6
CONTINUOUS
 62
     7
100
AcDbLine
 10
197.8552432559
 20
933.4225937843
 30
0.0
 11
197.8552432559
 21
933.4470316887
 31
0.0
  0
ARC
  5
484
330
1F
100
AcDbEntity
  8
0
  6
CONTINUOUS
 62
     7
100
AcDbCircle
 10
197.8552366828
 20
930.1470360445
 30
0.0
 40
3.275564174675679
100
AcDbArc
 50
90.0
 51
180.0
  0
LINE
  5
485
330
1F
100
AcDbEntity
  8
0
  6
CONTINUOUS
 62
     7
100
AcDbLine
 10
191.3551481269
 20
541.3830563545
 30
0.0
 11
194.5796700022
 21
541.7219683647
 31
0.0
  0
LINE
  5
486
330
1F
100
AcDbEntity
  8
0
  6
CONTINUOUS
 62
     7
100
AcDbLine
 10
191.3725973866
 20
913.0151108027
 30
0.0
 11
191.3551481269
 21
913.0169436455
 31
0.0
  0
LINE
  5
487
330
1F
100
AcDbEntity
  8
0
  6
CONTINUOUS
 62
     7
100
AcDbLine
 10
194.5796700022
 20
912.6780316353
 30
0.0
 11
191.3725973866
 21
913.0151108027
 31
0.0
  0
ARC
  5
488
330
1F
100
AcDbEntity
  8
0
  6
CONTINUOUS
 62
     7
100
AcDbCircle
 10
197.8552366828
 20
524.2529639555
 30
0.0
 40
3.275564174675679
100
AcDbArc
 50
180.0
 51
270.0
  0
LINE
  5
489
330
1F
100
AcDbEntity
  8
0
  6
CONTINUOUS
 62
     7
100
AcDbLine
 10
197.8552432559
 20
520.9774062157
 30
0.0
 11
197.8552432559
 21
520.9529683113
 31
0.0
  0
LINE
  5
48A
330
1F
100
AcDbEntity
  8
0
  6
CONTINUOUS
 62
     7
100
AcDbLine
 10
214.9853350423
 20
936.6471305609
 30
0.0
 11
214.826399257
 21
938.1592705965
 31
0.0
  0
LINE
  5
48B
330
1F
100
AcDbEntity
  8
0
  6
CONTINUOUS
 62
     7
100
AcDbLine
 10
214.9696143172
 20
936.6296813011
 30
0.0
 11
214.9853350423
 21
936.6471305609
 31
0.0
  0
ELLIPSE
  5
48C
330
1F
100
AcDbEntity
  8
0
  6
CONTINUOUS
 62
     7
100
AcDbEllipse
 10
194.0532598197
 20
938.396144148
 30
0.0
 11
37.51221440430277
 21
-0.0362874068500787
 31
0.0
210
0.0
220
0.0
230
1.0
 40
0.0062398834
 41
4.746732959400095
 42
4.866191441818476
  0
LINE
  5
48D
330
1F
100
AcDbEntity
  8
0
  6
CONTINUOUS
 62
     7
100
AcDbLine
 10
199.799785187
 20
938.1592705965
 30
0.0
 11
214.826399257
 21
938.1592705965
 31
0.0
  0
LINE
  5
48E
330
1F
100
AcDbEntity
  8
0
  6
CONTINUOUS
 62
     7
100
AcDbLine
 10
215.3041304848
 20
933.4470316887
 30
0.0
 11
215.3242470525
 21
933.4225937843
 31
0.0
  0
LINE
  5
48F
330
1F
100
AcDbEntity
  8
0
  6
CONTINUOUS
 62
     7
100
AcDbLine
 10
215.3242470525
 20
933.4225937843
 30
0.0
 11
197.8552432559
 21
933.4225937843
 31
0.0
  0
LINE
  5
490
330
1F
100
AcDbEntity
  8
0
  6
CONTINUOUS
 62
     7
100
AcDbLine
 10
197.8552432559
 20
520.9774062157
 30
0.0
 11
215.3242470525
 21
520.9774062157
 31
0.0
  0
LINE
  5
491
330
1F
100
AcDbEntity
  8
0
  6
CONTINUOUS
 62
     7
100
AcDbLine
 10
215.3041304848
 20
520.9529683113
 30
0.0
 11
215.3242470525
 21
520.9774062157
 31
0.0
  0
LINE
  5
492
330
1F
100
AcDbEntity
  8
0
  6
CONTINUOUS
 62
     7
100
AcDbLine
 10
214.9696143172
 20
517.7703186989
 30
0.0
 11
214.9853350423
 21
517.7528694391
 31
0.0
  0
LINE
  5
493
330
1F
100
AcDbEntity
  8
0
  6
CONTINUOUS
 62
     7
100
AcDbLine
 10
214.9853350423
 20
517.7528694391
 30
0.0
 11
214.826399257
 21
516.2407294035
 31
0.0
  0
LINE
  5
494
330
1F
100
AcDbEntity
  8
0
  6
CONTINUOUS
 62
     7
100
AcDbLine
 10
214.826399257
 20
516.2407294035
 30
0.0
 11
199.799785187
 21
516.2407294035
 31
0.0
  0
ELLIPSE
  5
495
330
1F
100
AcDbEntity
  8
0
  6
CONTINUOUS
 62
     7
100
AcDbEllipse
 10
194.0532598197
 20
516.003855852
 30
0.0
 11
37.51221440430277
 21
0.0362874068500787
 31
0.0
210
0.0
220
0.0
230
1.0
 40
0.0062398834
 41
1.416993865361166
 42
1.536452347779493
  0
LINE
  5
496
330
1F
100
AcDbEntity
  8
0
  6
CONTINUOUS
 62
     7
100
AcDbLine
 10
215.3242470525
 20
520.9774062157
 30
0.0
 11
214.9853350423
 21
517.7528694391
 31
0.0
  0
LINE
  5
497
330
1F
100
AcDbEntity
  8
0
  6
CONTINUOUS
 62
     7
100
AcDbLine
 10
214.9853350423
 20
936.6471305609
 30
0.0
 11
214.9871678851
 21
936.6296813011
 31
0.0
  0
LINE
  5
498
330
1F
100
AcDbEntity
  8
0
  6
CONTINUOUS
 62
     7
100
AcDbLine
 10
214.9871678851
 20
936.6296813011
 30
0.0
 11
215.3242470525
 21
933.4225937843
 31
0.0
  0
LINE
  5
499
330
1F
100
AcDbEntity
  8
0
  6
CONTINUOUS
 62
     7
100
AcDbLine
 10
536.6349311373
 20
936.6296813011
 30
0.0
 11
536.6192104123
 21
936.6471305609
 31
0.0
  0
LINE
  5
49A
330
1F
100
AcDbEntity
  8
0
  6
CONTINUOUS
 62
     7
100
AcDbLine
 10
536.6192104123
 20
936.6471305609
 30
0.0
 11
536.7781461976
 21
938.1592705965
 31
0.0
  0
LINE
  5
49B
330
1F
100
AcDbEntity
  8
0
  6
CONTINUOUS
 62
     7
100
AcDbLine
 10
536.7781461976
 20
938.1592705965
 30
0.0
 11
551.8047602675
 21
938.1592705965
 31
0.0
  0
ELLIPSE
  5
49C
330
1F
100
AcDbEntity
  8
0
  6
CONTINUOUS
 62
     7
100
AcDbEllipse
 10
557.5512856348
 20
938.396144148
 30
0.0
 11
37.51221440430265
 21
0.03628740684996501
 31
0.0
210
0.0
220
0.0
230
1.0
 40
0.0062398834
 41
4.558586518951018
 42
4.67804500136929
  0
LINE
  5
49D
330
1F
100
AcDbEntity
  8
0
  6
CONTINUOUS
 62
     7
100
AcDbLine
 10
554.7321529887
 20
936.6296813011
 30
0.0
 11
556.2634410165
 21
938.1609693289
 31
0.0
  0
LINE
  5
49E
330
1F
100
AcDbEntity
  8
0
  6
CONTINUOUS
 62
     7
100
AcDbLine
 10
536.6349311373
 20
936.6296813011
 30
0.0
 11
554.7321529887
 21
936.6296813011
 31
0.0
  0
LINE
  5
49F
330
1F
100
AcDbEntity
  8
0
  6
CONTINUOUS
 62
     7
100
AcDbLine
 10
536.2802984021
 20
933.4225937843
 30
0.0
 11
536.6173775695
 21
936.6296813011
 31
0.0
  0
LINE
  5
4A0
330
1F
100
AcDbEntity
  8
0
  6
CONTINUOUS
 62
     7
100
AcDbLine
 10
536.6173775695
 20
936.6296813011
 30
0.0
 11
536.6192104123
 21
936.6471305609
 31
0.0
  0
LINE
  5
4A1
330
1F
100
AcDbEntity
  8
0
  6
CONTINUOUS
 62
     7
100
AcDbLine
 10
536.3004149697
 20
933.4470316887
 30
0.0
 11
536.6349311373
 21
936.6296813011
 31
0.0
  0
LINE
  5
4A2
330
1F
100
AcDbEntity
  8
0
  6
CONTINUOUS
 62
     7
100
AcDbLine
 10
536.3004149697
 20
933.4470316887
 30
0.0
 11
536.2802984021
 21
933.4225937843
 31
0.0
  0
LINE
  5
4A3
330
1F
100
AcDbEntity
  8
0
  6
CONTINUOUS
 62
     7
100
AcDbLine
 10
553.7493021987
 20
933.4470316887
 30
0.0
 11
536.3004149697
 21
933.4470316887
 31
0.0
  0
LINE
  5
4A4
330
1F
100
AcDbEntity
  8
0
  6
CONTINUOUS
 62
     7
100
AcDbLine
 10
553.7493021987
 20
933.4225937843
 30
0.0
 11
553.7493021987
 21
933.4470316887
 31
0.0
  0
LINE
  5
4A5
330
1F
100
AcDbEntity
  8
0
  6
CONTINUOUS
 62
     7
100
AcDbLine
 10
553.7493021987
 20
933.4225937843
 30
0.0
 11
536.2802984021
 21
933.4225937843
 31
0.0
  0
ELLIPSE
  5
4A6
330
1F
100
AcDbEntity
  8
0
  6
CONTINUOUS
 62
     7
100
AcDbEllipse
 10
554.731740801
 20
931.1294680737
 30
0.0
 11
3.889383471219844
 21
3.889383471219958
 31
0.0
210
0.0
220
0.0
230
0.9999999999999998
 40
0.9999238505
 41
5.49782521999309
 42
7.068545394366087
  0
LINE
  5
4A7
330
1F
100
AcDbEntity
  8
0
  6
CONTINUOUS
 62
     7
100
AcDbLine
 10
560.2319480679
 20
931.1298862219
 30
0.0
 11
560.2319480679
 21
913.0326643705
 31
0.0
  0
LINE
  5
4A8
330
1F
100
AcDbEntity
  8
0
  6
CONTINUOUS
 62
     7
100
AcDbLine
 10
560.2319480679
 20
913.0326643705
 30
0.0
 11
557.0493133567
 21
912.6981482029
 31
0.0
  0
LINE
  5
4A9
330
1F
100
AcDbEntity
  8
0
  6
CONTINUOUS
 62
     7
100
AcDbLine
 10
557.0493133567
 20
912.6981482029
 30
0.0
 11
557.0493133567
 21
930.1470354319
 31
0.0
  0
ARC
  5
4AA
330
1F
100
AcDbEntity
  8
0
  6
CONTINUOUS
 62
     7
100
AcDbCircle
 10
553.7493087717
 20
930.1470360445
 30
0.0
 40
3.300000000000068
100
AcDbArc
 50
0.0
 51
90.0
  0
LINE
  5
4AB
330
1F
100
AcDbEntity
  8
0
  6
CONTINUOUS
 62
     7
100
AcDbLine
 10
553.7493021987
 20
520.9774062157
 30
0.0
 11
553.7493021987
 21
520.9529683113
 31
0.0
  0
LINE
  5
4AC
330
1F
100
AcDbEntity
  8
0
  6
CONTINUOUS
 62
     7
100
AcDbLine
 10
553.7493021987
 20
520.9529683113
 30
0.0
 11
536.3004149697
 21
520.9529683113
 31
0.0
  0
LINE
  5
4AD
330
1F
100
AcDbEntity
  8
0
  6
CONTINUOUS
 62
     7
100
AcDbLine
 10
536.3004149697
 20
520.9529683113
 30
0.0
 11
536.2802984021
 21
520.9774062157
 31
0.0
  0
LINE
  5
4AE
330
1F
100
AcDbEntity
  8
0
  6
CONTINUOUS
 62
     7
100
AcDbLine
 10
536.2802984021
 20
520.9774062157
 30
0.0
 11
553.7493021987
 21
520.9774062157
 31
0.0
  0
LINE
  5
4AF
330
1F
100
AcDbEntity
  8
0
  6
CONTINUOUS
 62
     7
100
AcDbLine
 10
560.2319480679
 20
541.3673356295
 30
0.0
 11
560.2319480679
 21
523.2701137781
 31
0.0
  0
ELLIPSE
  5
4B0
330
1F
100
AcDbEntity
  8
0
  6
CONTINUOUS
 62
     7
100
AcDbEllipse
 10
554.731740801
 20
523.2705319263
 30
0.0
 11
3.889383471219958
 21
-3.889383471219844
 31
0.0
210
0.0
220
0.0
230
0.9999999999999998
 40
0.9999238505
 41
5.497825219993083
 42
7.068545394366074
  0
LINE
  5
4B1
330
1F
100
AcDbEntity
  8
0
  6
CONTINUOUS
 62
     7
100
AcDbLine
 10
554.7321529887
 20
517.7703186989
 30
0.0
 11
536.6349311373
 21
517.7703186989
 31
0.0
  0
LINE
  5
4B2
330
1F
100
AcDbEntity
  8
0
  6
CONTINUOUS
 62
     7
100
AcDbLine
 10
536.6349311373
 20
517.7703186989
 30
0.0
 11
536.3004149697
 21
520.9529683113
 31
0.0
  0
ARC
  5
4B3
330
1F
100
AcDbEntity
  8
0
  6
CONTINUOUS
 62
     7
100
AcDbCircle
 10
553.7493087717
 20
524.2529639555
 30
0.0
 40
3.300000000000068
100
AcDbArc
 50
270.0
 51
0.0
  0
LINE
  5
4B4
330
1F
100
AcDbEntity
  8
0
  6
CONTINUOUS
 62
     7
100
AcDbLine
 10
557.0493133567
 20
541.7018517971
 30
0.0
 11
557.0493133567
 21
524.2529645681
 31
0.0
  0
LINE
  5
4B5
330
1F
100
AcDbEntity
  8
0
  6
CONTINUOUS
 62
     7
100
AcDbLine
 10
557.0493133567
 20
541.7018517971
 30
0.0
 11
560.2319480679
 21
541.3673356295
 31
0.0
  0
LINE
  5
4B6
330
1F
100
AcDbEntity
  8
0
  6
CONTINUOUS
 62
     7
100
AcDbLine
 10
536.6192104123
 20
517.7528694391
 30
0.0
 11
536.7781461976
 21
516.2407294035
 31
0.0
  0
LINE
  5
4B7
330
1F
100
AcDbEntity
  8
0
  6
CONTINUOUS
 62
     7
100
AcDbLine
 10
536.6349311373
 20
517.7703186989
 30
0.0
 11
536.6192104123
 21
517.7528694391
 31
0.0
  0
LINE
  5
4B8
330
1F
100
AcDbEntity
  8
0
  6
CONTINUOUS
 62
     7
100
AcDbLine
 10
556.2634410165
 20
516.2390306711
 30
0.0
 11
554.7321529887
 21
517.7703186989
 31
0.0
  0
ELLIPSE
  5
4B9
330
1F
100
AcDbEntity
  8
0
  6
CONTINUOUS
 62
     7
100
AcDbEllipse
 10
557.5512856348
 20
516.003855852
 30
0.0
 11
37.51221440430288
 21
-0.0362874068500787
 31
0.0
210
0.0
220
0.0
230
1.0
 40
0.0062398834
 41
1.6051403058103
 42
1.724598788228631
  0
LINE
  5
4BA
330
1F
100
AcDbEntity
  8
0
  6
CONTINUOUS
 62
     7
100
AcDbLine
 10
551.8047602675
 20
516.2407294035
 30
0.0
 11
536.7781461976
 21
516.2407294035
 31
0.0
  0
LINE
  5
4BB
330
1F
100
AcDbEntity
  8
0
  6
CONTINUOUS
 62
     7
100
AcDbLine
 10
536.6192104123
 20
517.7528694391
 30
0.0
 11
536.2802984021
 21
520.9774062157
 31
0.0
  0
LINE
  5
4BC
330
1F
100
AcDbEntity
  8
0
  6
CONTINUOUS
 62
     7
100
AcDbLine
 10
557.0248754523
 20
524.2529645681
 30
0.0
 11
557.0493133567
 21
524.2529645681
 31
0.0
  0
ARC
  5
4BD
330
1F
100
AcDbEntity
  8
0
  6
CONTINUOUS
 62
     7
100
AcDbCircle
 10
553.7493087717
 20
524.2529639555
 30
0.0
 40
3.275564174675765
100
AcDbArc
 50
270.0
 51
0.0
  0
LINE
  5
4BE
330
1F
100
AcDbEntity
  8
0
  6
CONTINUOUS
 62
     7
100
AcDbLine
 10
560.2319480679
 20
523.2701137781
 30
0.0
 11
561.7698075078
 21
521.7322543383
 31
0.0
  0
ELLIPSE
  5
4BF
330
1F
100
AcDbEntity
  8
0
  6
CONTINUOUS
 62
     7
100
AcDbEllipse
 10
556.2593824975
 20
521.7428902298
 30
0.0
 11
5.070595942024056
 21
-2.163081009885218
 31
0.0
210
0.0
220
0.0
230
0.9999999999999998
 40
0.9973235129
 41
6.037110352344807
 42
6.68543813367438
  0
ARC
  5
4C0
330
1F
100
AcDbEntity
  8
0
  6
CONTINUOUS
 62
     7
100
AcDbCircle
 10
556.2677692299
 20
521.7461365419
 30
0.0
 40
5.507107571654037
100
AcDbArc
 50
269.9549693941
 51
322.7547423978
  0
ARC
  5
4C1
330
1F
100
AcDbEntity
  8
0
  6
CONTINUOUS
 62
     7
100
AcDbCircle
 10
556.2676728211
 20
932.6536688588
 30
0.0
 40
5.507302095927645
100
AcDbArc
 50
37.2462621926
 51
90.0440260155
  0
ELLIPSE
  5
4C2
330
1F
100
AcDbEntity
  8
0
  6
CONTINUOUS
 62
     7
100
AcDbEllipse
 10
556.2593824975
 20
932.6571097702
 30
0.0
 11
5.070595942024056
 21
2.163081009885332
 31
0.0
210
0.0
220
0.0
230
0.9999999999999999
 40
0.9973235129
 41
5.880932480684825
 42
6.529260262014367
  0
LINE
  5
4C3
330
1F
100
AcDbEntity
  8
0
  6
CONTINUOUS
 62
     7
100
AcDbLine
 10
561.7698075078
 20
932.6677456617
 30
0.0
 11
560.2319480679
 21
931.1298862219
 31
0.0
  0
LINE
  5
4C4
330
1F
100
AcDbEntity
  8
0
  6
CONTINUOUS
 62
     7
100
AcDbLine
 10
557.0248754523
 20
930.1470354319
 30
0.0
 11
557.0493133567
 21
930.1470354319
 31
0.0
  0
ARC
  5
4C5
330
1F
100
AcDbEntity
  8
0
  6
CONTINUOUS
 62
     7
100
AcDbCircle
 10
553.7493087717
 20
930.1470360445
 30
0.0
 40
3.275564174675765
100
AcDbArc
 50
0.0
 51
90.0
  0
LINE
  5
4C6
330
1F
100
AcDbEntity
  8
0
  6
CONTINUOUS
 62
     7
100
AcDbLine
 10
560.2493973277
 20
913.0169436455
 30
0.0
 11
561.7698075078
 21
913.1767436981
 31
0.0
  0
LINE
  5
4C7
330
1F
100
AcDbEntity
  8
0
  6
CONTINUOUS
 62
     7
100
AcDbLine
 10
560.2319480679
 20
913.0326643705
 30
0.0
 11
560.2493973277
 21
913.0169436455
 31
0.0
  0
LINE
  5
4C8
330
1F
100
AcDbEntity
  8
0
  6
CONTINUOUS
 62
     7
100
AcDbLine
 10
561.7698075078
 20
932.6677456617
 30
0.0
 11
561.7698075078
 21
913.1767436981
 31
0.0
  0
LINE
  5
4C9
330
1F
100
AcDbEntity
  8
0
  6
CONTINUOUS
 62
     7
100
AcDbLine
 10
557.0248754523
 20
541.7219683647
 30
0.0
 11
557.0493133567
 21
541.7018517971
 31
0.0
  0
LINE
  5
4CA
330
1F
100
AcDbEntity
  8
0
  6
CONTINUOUS
 62
     7
100
AcDbLine
 10
557.0248754523
 20
524.2529645681
 30
0.0
 11
557.0248754523
 21
541.7219683647
 31
0.0
  0
LINE
  5
4CB
330
1F
100
AcDbEntity
  8
0
  6
CONTINUOUS
 62
     7
100
AcDbLine
 10
560.2319480679
 20
541.3673356295
 30
0.0
 11
560.2493973277
 21
541.3830563545
 31
0.0
  0
LINE
  5
4CC
330
1F
100
AcDbEntity
  8
0
  6
CONTINUOUS
 62
     7
100
AcDbLine
 10
560.2493973277
 20
541.3830563545
 30
0.0
 11
561.7698075078
 21
541.2232563019
 31
0.0
  0
LINE
  5
4CD
330
1F
100
AcDbEntity
  8
0
  6
CONTINUOUS
 62
     7
100
AcDbLine
 10
561.7698075078
 20
541.2232563019
 30
0.0
 11
561.7698075078
 21
521.7322543383
 31
0.0
  0
LINE
  5
4CE
330
1F
100
AcDbEntity
  8
0
  6
CONTINUOUS
 62
     7
100
AcDbLine
 10
560.2493973277
 20
913.0169436455
 30
0.0
 11
557.0248754523
 21
912.6780316353
 31
0.0
  0
LINE
  5
4CF
330
1F
100
AcDbEntity
  8
0
  6
CONTINUOUS
 62
     7
100
AcDbLine
 10
557.0248754523
 20
912.6780316353
 30
0.0
 11
557.0493133567
 21
912.6981482029
 31
0.0
  0
LINE
  5
4D0
330
1F
100
AcDbEntity
  8
0
  6
CONTINUOUS
 62
     7
100
AcDbLine
 10
557.0248754523
 20
541.7219683647
 30
0.0
 11
560.2493973277
 21
541.3830563545
 31
0.0
  0
LINE
  5
4D1
330
1F
100
AcDbEntity
  8
0
  6
CONTINUOUS
 62
     7
100
AcDbLine
 10
557.0248754523
 20
912.6780316353
 30
0.0
 11
557.0248754523
 21
930.1470354319
 31
0.0
  0
LINE
  5
4D2
330
1F
100
AcDbEntity
  8
0
  6
CONTINUOUS
 62
     7
100
AcDbLine
 10
193.9551474354
 20
543.5291066885
 30
0.0
 11
191.3551481269
 21
541.3830563545
 31
0.0
  0
LINE
  5
4D3
330
1F
100
AcDbEntity
  8
0
  6
CONTINUOUS
 62
     7
100
AcDbLine
 10
192.4395652316
 20
543.3698132753
 30
0.0
 11
189.8347379468
 21
541.2232563019
 31
0.0
  0
LINE
  5
4D4
330
1F
100
AcDbEntity
  8
0
  6
CONTINUOUS
 62
     7
100
AcDbLine
 10
192.4395652316
 20
543.3698132753
 30
0.0
 11
193.9551474354
 21
543.5291066885
 31
0.0
  0
LINE
  5
4D5
330
1F
100
AcDbEntity
  8
0
  6
CONTINUOUS
 62
     7
100
AcDbLine
 10
191.3725973866
 20
913.0151108027
 30
0.0
 11
193.9551474354
 21
910.8480945349
 31
0.0
  0
LINE
  5
4D6
330
1F
100
AcDbEntity
  8
0
  6
CONTINUOUS
 62
     7
100
AcDbLine
 10
192.4395652316
 20
911.007387948
 30
0.0
 11
193.9551474354
 21
910.8480945349
 31
0.0
  0
LINE
  5
4D7
330
1F
100
AcDbEntity
  8
0
  6
CONTINUOUS
 62
     7
100
AcDbLine
 10
189.8522170089
 20
913.1749108553
 30
0.0
 11
192.4395652316
 21
911.007387948
 31
0.0
  0
LINE
  5
4D8
330
1F
100
AcDbEntity
  8
0
  6
CONTINUOUS
 62
     7
100
AcDbLine
 10
192.4395652316
 20
911.007387948
 30
0.0
 11
192.4395652316
 21
543.3698132753
 31
0.0
  0
LINE
  5
4D9
330
1F
100
AcDbEntity
  8
0
  6
CONTINUOUS
 62
     7
100
AcDbLine
 10
193.9551474354
 20
910.8480945349
 30
0.0
 11
193.9551474354
 21
543.5291066885
 31
0.0
  0
LINE
  5
4DA
330
1F
100
AcDbEntity
  8
0
  6
CONTINUOUS
 62
     7
100
AcDbLine
 10
534.4731749795
 20
520.3528687477
 30
0.0
 11
536.6192104123
 21
517.7528694391
 31
0.0
  0
LINE
  5
4DB
330
1F
100
AcDbEntity
  8
0
  6
CONTINUOUS
 62
     7
100
AcDbLine
 10
217.1313704751
 20
520.3528687477
 30
0.0
 11
534.4731749795
 21
520.3528687477
 31
0.0
  0
LINE
  5
4DC
330
1F
100
AcDbEntity
  8
0
  6
CONTINUOUS
 62
     7
100
AcDbLine
 10
214.9853350423
 20
517.7528694391
 30
0.0
 11
217.1313704751
 21
520.3528687477
 31
0.0
  0
LINE
  5
4DD
330
1F
100
AcDbEntity
  8
0
  6
CONTINUOUS
 62
     7
100
AcDbLine
 10
217.1541841529
 20
934.0471312523
 30
0.0
 11
214.9871678851
 21
936.6296813011
 31
0.0
  0
LINE
  5
4DE
330
1F
100
AcDbEntity
  8
0
  6
CONTINUOUS
 62
     7
100
AcDbLine
 10
534.4503613017
 20
934.0471312523
 30
0.0
 11
217.1541841529
 21
934.0471312523
 31
0.0
  0
LINE
  5
4DF
330
1F
100
AcDbEntity
  8
0
  6
CONTINUOUS
 62
     7
100
AcDbLine
 10
536.6173775695
 20
936.6296813011
 30
0.0
 11
534.4503613017
 21
934.0471312523
 31
0.0
  0
LINE
  5
4E0
330
1F
100
AcDbEntity
  8
0
  6
CONTINUOUS
 62
     7
100
AcDbLine
 10
557.6493980191
 20
910.8708933115
 30
0.0
 11
560.2493973277
 21
913.0169436455
 31
0.0
  0
LINE
  5
4E1
330
1F
100
AcDbEntity
  8
0
  6
CONTINUOUS
 62
     7
100
AcDbLine
 10
557.6493980191
 20
543.5291066885
 30
0.0
 11
557.6493980191
 21
910.8708933115
 31
0.0
  0
LINE
  5
4E2
330
1F
100
AcDbEntity
  8
0
  6
CONTINUOUS
 62
     7
100
AcDbLine
 10
560.2493973277
 20
541.3830563545
 30
0.0
 11
557.6493980191
 21
543.5291066885
 31
0.0
  0
LINE
  5
4E3
330
1F
100
AcDbEntity
  8
0
  6
CONTINUOUS
 62
     7
100
AcDbLine
 10
216.995755007
 20
935.5544433117
 30
0.0
 11
214.8282320998
 21
938.1417915344
 31
0.0
  0
LINE
  5
4E4
330
1F
100
AcDbEntity
  8
0
  6
CONTINUOUS
 62
     7
100
AcDbLine
 10
216.995755007
 20
935.5544433117
 30
0.0
 11
217.1541841529
 21
934.0471312523
 31
0.0
  0
LINE
  5
4E5
330
1F
100
AcDbEntity
  8
0
  6
CONTINUOUS
 62
     7
100
AcDbLine
 10
216.9729413293
 20
518.8455566883
 30
0.0
 11
217.1313704751
 21
520.3528687477
 31
0.0
  0
LINE
  5
4E6
330
1F
100
AcDbEntity
  8
0
  6
CONTINUOUS
 62
     7
100
AcDbLine
 10
214.826399257
 20
516.2407294035
 30
0.0
 11
216.9729413293
 21
518.8455566883
 31
0.0
  0
LINE
  5
4E7
330
1F
100
AcDbEntity
  8
0
  6
CONTINUOUS
 62
     7
100
AcDbLine
 10
534.6316041253
 20
518.8455566883
 30
0.0
 11
534.4731749795
 21
520.3528687477
 31
0.0
  0
LINE
  5
4E8
330
1F
100
AcDbEntity
  8
0
  6
CONTINUOUS
 62
     7
100
AcDbLine
 10
216.9729413293
 20
518.8455566883
 30
0.0
 11
534.6316041253
 21
518.8455566883
 31
0.0
  0
LINE
  5
4E9
330
1F
100
AcDbEntity
  8
0
  6
CONTINUOUS
 62
     7
100
AcDbLine
 10
534.6087904475
 20
935.5544433117
 30
0.0
 11
216.995755007
 21
935.5544433117
 31
0.0
  0
LINE
  5
4EA
330
1F
100
AcDbEntity
  8
0
  6
CONTINUOUS
 62
     7
100
AcDbLine
 10
534.6087904475
 20
935.5544433117
 30
0.0
 11
534.4503613017
 21
934.0471312523
 31
0.0
  0
LINE
  5
4EB
330
1F
100
AcDbEntity
  8
0
  6
CONTINUOUS
 62
     7
100
AcDbLine
 10
534.6316041253
 20
518.8455566883
 30
0.0
 11
536.7781461976
 21
516.2407294035
 31
0.0
  0
LINE
  5
4EC
330
1F
100
AcDbEntity
  8
0
  6
CONTINUOUS
 62
     7
100
AcDbLine
 10
536.7763133548
 20
938.1417915344
 30
0.0
 11
534.6087904475
 21
935.5544433117
 31
0.0
  0
LINE
  5
4ED
330
1F
100
AcDbEntity
  8
0
  6
CONTINUOUS
 62
     7
100
AcDbLine
 10
559.164980223
 20
543.3698132753
 30
0.0
 11
557.6493980191
 21
543.5291066885
 31
0.0
  0
LINE
  5
4EE
330
1F
100
AcDbEntity
  8
0
  6
CONTINUOUS
 62
     7
100
AcDbLine
 10
561.7698075078
 20
541.2232563019
 30
0.0
 11
559.164980223
 21
543.3698132753
 31
0.0
  0
LINE
  5
4EF
330
1F
100
AcDbEntity
  8
0
  6
CONTINUOUS
 62
     7
100
AcDbLine
 10
559.164980223
 20
911.0301867247
 30
0.0
 11
561.7698075078
 21
913.1767436981
 31
0.0
  0
LINE
  5
4F0
330
1F
100
AcDbEntity
  8
0
  6
CONTINUOUS
 62
     7
100
AcDbLine
 10
559.164980223
 20
911.0301867247
 30
0.0
 11
557.6493980191
 21
910.8708933115
 31
0.0
  0
LINE
  5
4F1
330
1F
100
AcDbEntity
  8
0
  6
CONTINUOUS
 62
     7
100
AcDbLine
 10
559.164980223
 20
543.3698132753
 30
0.0
 11
559.164980223
 21
911.0301867247
 31
0.0
  0
LINE
  5
4F2
330
1F
100
AcDbEntity
  8
0
  6
CONTINUOUS
 62
     7
100
AcDbLine
 10
559.8931850693
 20
508.1522897005
 30
0.0
 11
551.8047602675
 21
516.2407294035
 31
0.0
  0
LINE
  5
4F3
330
1F
100
AcDbEntity
  8
0
  6
CONTINUOUS
 62
     7
100
AcDbLine
 10
191.7113603852
 20
508.1522897005
 30
0.0
 11
559.8931850693
 21
508.1522897005
 31
0.0
  0
LINE
  5
4F4
330
1F
100
AcDbEntity
  8
0
  6
CONTINUOUS
 62
     7
100
AcDbLine
 10
199.799785187
 20
516.2407294035
 30
0.0
 11
191.7113603852
 21
508.1522897005
 31
0.0
  0
LINE
  5
4F5
330
1F
100
AcDbEntity
  8
0
  6
CONTINUOUS
 62
     7
100
AcDbLine
 10
191.7113603852
 20
946.2477102995
 30
0.0
 11
199.799785187
 21
938.1592705965
 31
0.0
  0
LINE
  5
4F6
330
1F
100
AcDbEntity
  8
0
  6
CONTINUOUS
 62
     7
100
AcDbLine
 10
559.8931850693
 20
946.2477102995
 30
0.0
 11
191.7113603852
 21
946.2477102995
 31
0.0
  0
LINE
  5
4F7
330
1F
100
AcDbEntity
  8
0
  6
CONTINUOUS
 62
     7
100
AcDbLine
 10
551.8047602675
 20
938.1592705965
 30
0.0
 11
559.8931850693
 21
946.2477102995
 31
0.0
  0
ELLIPSE
  5
4F8
330
1F
100
AcDbEntity
  8
0
  6
CONTINUOUS
 62
     7
100
AcDbEllipse
 10
185.8582448528
 20
507.8088408851
 30
0.0
 11
-1.631370247620481
 21
35.84066456123298
 31
0.0
210
0.0
220
0.0
230
1.0
 40
0.0172097566
 41
4.816548755645542
 42
4.875649543195804
  0
LINE
  5
4F9
330
1F
100
AcDbEntity
  8
0
  6
CONTINUOUS
 62
     7
100
AcDbLine
 10
186.2017007373
 20
513.6619493484
 30
0.0
 11
190.9528316758
 21
518.413080287
 31
0.0
  0
ELLIPSE
  5
4FA
330
1F
100
AcDbEntity
  8
0
  6
CONTINUOUS
 62
     7
100
AcDbEllipse
 10
185.8582448528
 20
507.8088408851
 30
0.0
 11
35.84066456123298
 21
-1.631370247620509
 31
0.0
210
0.0
220
0.0
230
1.0
 40
0.0172097566
 41
1.407535763983805
 42
1.466636551534047
  0
ARC
  5
4FB
330
1F
100
AcDbEntity
  8
0
  6
CONTINUOUS
 62
     7
100
AcDbCircle
 10
189.8233462625
 20
511.7739501269
 30
0.0
 40
3.527558720840533
100
AcDbArc
 50
183.4254320711
 51
266.5745679289
  0
ELLIPSE
  5
4FC
330
1F
100
AcDbEntity
  8
0
  6
CONTINUOUS
 62
     7
100
AcDbEllipse
 10
565.7463006017
 20
946.5911591149
 30
0.0
 11
-1.631370247620453
 21
35.8406645612331
 31
0.0
210
0.0
220
0.0
230
1.0
 40
0.0172097566
 41
1.674956102055768
 42
1.734056889606004
  0
LINE
  5
4FD
330
1F
100
AcDbEntity
  8
0
  6
CONTINUOUS
 62
     7
100
AcDbLine
 10
565.4028447173
 20
940.7380506515
 30
0.0
 11
560.6517137788
 21
935.986919713
 31
0.0
  0
ELLIPSE
  5
4FE
330
1F
100
AcDbEntity
  8
0
  6
CONTINUOUS
 62
     7
100
AcDbEllipse
 10
565.7463006017
 20
946.5911591149
 30
0.0
 11
35.8406645612331
 21
-1.631370247620453
 31
0.0
210
0.0
220
0.0
230
1.0
 40
0.0172097566
 41
4.549128417573605
 42
4.608229205123847
  0
ARC
  5
4FF
330
1F
100
AcDbEntity
  8
0
  6
CONTINUOUS
 62
     7
100
AcDbCircle
 10
561.781199192
 20
942.6260498731
 30
0.0
 40
3.527558720840597
100
AcDbArc
 50
3.4254320711
 51
86.5745679289
  0
ELLIPSE
  5
500
330
1F
100
AcDbEntity
  8
0
  6
CONTINUOUS
 62
     7
100
AcDbEllipse
 10
185.8582448528
 20
946.5911591149
 30
0.0
 11
35.84066456123298
 21
1.631370247620453
 31
0.0
210
0.0
220
0.0
230
1.0
 40
0.0172097566
 41
4.816548755645551
 42
4.87564954319582
  0
LINE
  5
501
330
1F
100
AcDbEntity
  8
0
  6
CONTINUOUS
 62
     7
100
AcDbLine
 10
190.9528316758
 20
935.986919713
 30
0.0
 11
186.2017007373
 21
940.7380506515
 31
0.0
  0
ELLIPSE
  5
502
330
1F
100
AcDbEntity
  8
0
  6
CONTINUOUS
 62
     7
100
AcDbEllipse
 10
185.8582448528
 20
946.5911591149
 30
0.0
 11
1.631370247620481
 21
35.8406645612331
 31
0.0
210
0.0
220
0.0
230
1.0
 40
0.0172097566
 41
4.549128417573621
 42
4.608229205123857
  0
ARC
  5
503
330
1F
100
AcDbEntity
  8
0
  6
CONTINUOUS
 62
     7
100
AcDbCircle
 10
189.8233212284
 20
942.6260749072
 30
0.0
 40
3.52753223575711
100
AcDbArc
 50
93.4250504772
 51
176.5749495228
  0
ELLIPSE
  5
504
330
1F
100
AcDbEntity
  8
0
  6
CONTINUOUS
 62
     7
100
AcDbEllipse
 10
565.7463006017
 20
507.8088408851
 30
0.0
 11
35.8406645612331
 21
1.631370247620453
 31
0.0
210
0.0
220
0.0
230
0.9999999999999999
 40
0.0172097566
 41
1.674956102055749
 42
1.73405688960599
  0
LINE
  5
505
330
1F
100
AcDbEntity
  8
0
  6
CONTINUOUS
 62
     7
100
AcDbLine
 10
560.6517137788
 20
518.413080287
 30
0.0
 11
565.4028447173
 21
513.6619493484
 31
0.0
  0
ELLIPSE
  5
506
330
1F
100
AcDbEntity
  8
0
  6
CONTINUOUS
 62
     7
100
AcDbEllipse
 10
565.7463006017
 20
507.8088408851
 30
0.0
 11
1.631370247620453
 21
35.84066456123298
 31
0.0
210
0.0
220
0.0
230
1.0
 40
0.0172097566
 41
1.407535763983787
 42
1.466636551534024
  0
ARC
  5
507
330
1F
100
AcDbEntity
  8
0
  6
CONTINUOUS
 62
     7
100
AcDbCircle
 10
561.7812242261
 20
511.7739250928
 30
0.0
 40
3.527532235756993
100
AcDbArc
 50
273.4250504772
 51
356.5749495228
  0
LINE
  5
508
330
1F
100
AcDbEntity
  8
0
  6
CONTINUOUS
 62
     7
100
AcDbLine
 10
186.2017007373
 20
940.7380506515
 30
0.0
 11
186.2017007373
 21
513.6619493484
 31
0.0
  0
LINE
  5
509
330
1F
100
AcDbEntity
  8
0
  6
CONTINUOUS
 62
     7
100
AcDbLine
 10
565.4028447173
 20
513.6619493484
 30
0.0
 11
565.4028447173
 21
940.7380506515
 31
0.0
  0
ARC
  5
50A
330
1F
100
AcDbEntity
  8
0
  6
CONTINUOUS
 62
     7
100
AcDbCircle
 10
189.716497986
 20
942.7328981496
 30
0.0
 40
5.495012804029373
100
AcDbArc
 50
89.9829168839
 51
180.0170831161
  0
ARC
  5
50B
330
1F
100
AcDbEntity
  8
0
  6
CONTINUOUS
 62
     7
100
AcDbCircle
 10
202.0729992102
 20
946.5581045903
 30
0.0
 40
12.46719248714017
100
AcDbArc
 50
172.3029005171
 51
181.8882575934
  0
ARC
  5
50C
330
1F
100
AcDbEntity
  8
0
  6
CONTINUOUS
 62
     7
100
AcDbCircle
 10
185.8910681964
 20
930.3807991748
 30
0.0
 40
12.46279999308233
100
AcDbArc
 50
88.1100492818
 51
97.6987926077
  0
ARC
  5
50D
330
1F
100
AcDbEntity
  8
0
  6
CONTINUOUS
 62
     7
100
AcDbCircle
 10
202.0729992102
 20
507.8418954097
 30
0.0
 40
12.46719248714797
100
AcDbArc
 50
178.1117424066
 51
187.6970994829
  0
ARC
  5
50E
330
1F
100
AcDbEntity
  8
0
  6
CONTINUOUS
 62
     7
100
AcDbCircle
 10
189.7165052548
 20
511.6671091192
 30
0.0
 40
5.495020070712739
100
AcDbArc
 50
179.9829926977
 51
270.0170073023
  0
ARC
  5
50F
330
1F
100
AcDbEntity
  8
0
  6
CONTINUOUS
 62
     7
100
AcDbCircle
 10
185.8910681964
 20
524.0192008252
 30
0.0
 40
12.46279999307305
100
AcDbArc
 50
262.3012073923
 51
271.8899507182
  0
ARC
  5
510
330
1F
100
AcDbEntity
  8
0
  6
CONTINUOUS
 62
     7
100
AcDbCircle
 10
561.8880401997
 20
942.7328908808
 30
0.0
 40
5.495020070712995
100
AcDbArc
 50
359.9829926977
 51
90.0170073023
  0
ARC
  5
511
330
1F
100
AcDbEntity
  8
0
  6
CONTINUOUS
 62
     7
100
AcDbCircle
 10
565.7134772582
 20
930.3807991748
 30
0.0
 40
12.46279999308199
100
AcDbArc
 50
82.3012073923
 51
91.8899507182
  0
ARC
  5
512
330
1F
100
AcDbEntity
  8
0
  6
CONTINUOUS
 62
     7
100
AcDbCircle
 10
549.5315462444
 20
946.5581045903
 30
0.0
 40
12.46719248714016
100
AcDbArc
 50
358.1117424066
 51
7.6970994829
  0
ARC
  5
513
330
1F
100
AcDbEntity
  8
0
  6
CONTINUOUS
 62
     7
100
AcDbCircle
 10
565.7134772582
 20
524.0192008252
 30
0.0
 40
12.46279999306476
100
AcDbArc
 50
268.1100492818
 51
277.6987926077
  0
ARC
  5
514
330
1F
100
AcDbEntity
  8
0
  6
CONTINUOUS
 62
     7
100
AcDbCircle
 10
561.8880474686
 20
511.6671018504
 30
0.0
 40
5.495012804029145
100
AcDbArc
 50
269.9829168839
 51
0.0170831161
  0
ARC
  5
515
330
1F
100
AcDbEntity
  8
0
  6
CONTINUOUS
 62
     7
100
AcDbCircle
 10
549.5315462444
 20
507.8418954097
 30
0.0
 40
12.4671924871389
100
AcDbArc
 50
352.3029005171
 51
1.8882575934
  0
LINE
  5
516
330
1F
100
AcDbEntity
  8
0
  6
CONTINUOUS
 62
     7
100
AcDbLine
 10
186.2017007373
 20
940.7380506515
 30
0.0
 11
184.2229904435
 21
940.7380506515
 31
0.0
  0
ELLIPSE
  5
517
330
1F
100
AcDbEntity
  8
0
  6
CONTINUOUS
 62
     7
100
AcDbEllipse
 10
183.3597677853
 20
946.5911591149
 30
0.0
 11
-0.1483542746814521
 21
34.07873201891459
 31
0.0
210
0.0
220
0.0
230
1.0
 40
0.0249535671
 41
4.539671942522332
 42
4.598772730072577
  0
ELLIPSE
  5
518
330
1F
100
AcDbEntity
  8
0
  6
CONTINUOUS
 62
     7
100
AcDbEllipse
 10
183.3597677853
 20
507.8088408851
 30
0.0
 11
0.1483542746814237
 21
34.07873201891448
 31
0.0
210
0.0
220
0.0
230
1.0
 40
0.0249535671
 41
4.826005230696818
 42
4.885106018247083
  0
LINE
  5
519
330
1F
100
AcDbEntity
  8
0
  6
CONTINUOUS
 62
     7
100
AcDbLine
 10
186.2017007373
 20
513.6619493484
 30
0.0
 11
184.2229904435
 21
513.6619493484
 31
0.0
  0
LINE
  5
51A
330
1F
100
AcDbEntity
  8
0
  6
CONTINUOUS
 62
     7
100
AcDbLine
 10
191.7113603852
 20
508.1522897005
 30
0.0
 11
191.7113603852
 21
506.1735943079
 31
0.0
  0
ELLIPSE
  5
51B
330
1F
100
AcDbEntity
  8
0
  6
CONTINUOUS
 62
     7
100
AcDbEllipse
 10
185.8582448528
 20
505.3103638176
 30
0.0
 11
34.07873201891454
 21
0.1483542746815374
 31
0.0
210
0.0
220
0.0
230
1.0
 40
0.0249535671
 41
1.398079288932528
 42
1.457180076482773
  0
ELLIPSE
  5
51C
330
1F
100
AcDbEntity
  8
0
  6
CONTINUOUS
 62
     7
100
AcDbEllipse
 10
185.8582448528
 20
949.0896361824
 30
0.0
 11
34.07873201891454
 21
-0.1483542746815374
 31
0.0
210
0.0
220
0.0
230
1.0
 40
0.0249535671
 41
4.826005230696822
 42
4.885106018247087
  0
LINE
  5
51D
330
1F
100
AcDbEntity
  8
0
  6
CONTINUOUS
 62
     7
100
AcDbLine
 10
191.7113603852
 20
948.2264056921
 30
0.0
 11
191.7113603852
 21
946.2477102995
 31
0.0
  0
ELLIPSE
  5
51E
330
1F
100
AcDbEntity
  8
0
  6
CONTINUOUS
 62
     7
100
AcDbEllipse
 10
565.7463006017
 20
505.3103638176
 30
0.0
 11
34.07873201891459
 21
-0.1483542746814237
 31
0.0
210
0.0
220
0.0
230
1.0
 40
0.0249535671
 41
1.684412577107017
 42
1.743513364657259
  0
LINE
  5
51F
330
1F
100
AcDbEntity
  8
0
  6
CONTINUOUS
 62
     7
100
AcDbLine
 10
559.8931850693
 20
508.1522897005
 30
0.0
 11
559.8931850693
 21
506.1735943079
 31
0.0
  0
ELLIPSE
  5
520
330
1F
100
AcDbEntity
  8
0
  6
CONTINUOUS
 62
     7
100
AcDbEllipse
 10
565.7463006017
 20
949.0896361824
 30
0.0
 11
34.07873201891459
 21
0.1483542746814237
 31
0.0
210
0.0
220
0.0
230
1.0
 40
0.0249535671
 41
4.539671942522333
 42
4.598772730072577
  0
LINE
  5
521
330
1F
100
AcDbEntity
  8
0
  6
CONTINUOUS
 62
     7
100
AcDbLine
 10
559.8931850693
 20
948.2264056921
 30
0.0
 11
559.8931850693
 21
946.2477102995
 31
0.0
  0
ELLIPSE
  5
522
330
1F
100
AcDbEntity
  8
0
  6
CONTINUOUS
 62
     7
100
AcDbEllipse
 10
568.2447776693
 20
946.5911591149
 30
0.0
 11
0.1483542746814237
 21
34.07873201891459
 31
0.0
210
0.0
220
0.0
230
1.0
 40
0.0249535671
 41
1.684412577107017
 42
1.74351336465727
  0
LINE
  5
523
330
1F
100
AcDbEntity
  8
0
  6
CONTINUOUS
 62
     7
100
AcDbLine
 10
567.3815550111
 20
940.7380506515
 30
0.0
 11
565.4028447173
 21
940.7380506515
 31
0.0
  0
LINE
  5
524
330
1F
100
AcDbEntity
  8
0
  6
CONTINUOUS
 62
     7
100
AcDbLine
 10
567.3815550111
 20
513.6619493484
 30
0.0
 11
565.4028447173
 21
513.6619493484
 31
0.0
  0
ELLIPSE
  5
525
330
1F
100
AcDbEntity
  8
0
  6
CONTINUOUS
 62
     7
100
AcDbEllipse
 10
568.2447776693
 20
507.8088408851
 30
0.0
 11
-0.1483542746815374
 21
34.07873201891448
 31
0.0
210
0.0
220
0.0
230
1.0
 40
0.0249535671
 41
1.398079288932515
 42
1.457180076482774
  0
LINE
  5
526
330
1F
100
AcDbEntity
  8
0
  6
CONTINUOUS
 62
     7
100
AcDbLine
 10
184.2229904435
 20
513.6619493484
 30
0.0
 11
184.2229904435
 21
940.7380506515
 31
0.0
  0
LINE
  5
527
330
1F
100
AcDbEntity
  8
0
  6
CONTINUOUS
 62
     7
100
AcDbLine
 10
191.7113603852
 20
948.2264056921
 30
0.0
 11
559.8931850693
 21
948.2264056921
 31
0.0
  0
LINE
  5
528
330
1F
100
AcDbEntity
  8
0
  6
CONTINUOUS
 62
     7
100
AcDbLine
 10
559.8931850693
 20
506.1735943079
 30
0.0
 11
191.7113603852
 21
506.1735943079
 31
0.0
  0
LINE
  5
529
330
1F
100
AcDbEntity
  8
0
  6
CONTINUOUS
 62
     7
100
AcDbLine
 10
566.6135491631
 20
805.7999968648
 30
0.0
 11
566.6135491631
 21
836.0500022888
 31
0.0
  0
LINE
  5
52A
330
1F
100
AcDbEntity
  8
0
  6
CONTINUOUS
 62
     7
100
AcDbLine
 10
567.3815550111
 20
805.7999968648
 30
0.0
 11
567.3815550111
 21
773.5499985635
 31
0.0
  0
LINE
  5
52B
330
1F
100
AcDbEntity
  8
0
  6
CONTINUOUS
 62
     7
100
AcDbLine
 10
566.6135491631
 20
743.3000005901
 30
0.0
 11
566.6135491631
 21
773.5499985635
 31
0.0
  0
LINE
  5
52C
330
1F
100
AcDbEntity
  8
0
  6
CONTINUOUS
 62
     7
100
AcDbLine
 10
567.3815550111
 20
743.3000005901
 30
0.0
 11
567.3815550111
 21
711.0500004262
 31
0.0
  0
LINE
  5
52D
330
1F
100
AcDbEntity
  8
0
  6
CONTINUOUS
 62
     7
100
AcDbLine
 10
566.6135491631
 20
680.8000005901
 30
0.0
 11
566.6135491631
 21
711.0500004262
 31
0.0
  0
LINE
  5
52E
330
1F
100
AcDbEntity
  8
0
  6
CONTINUOUS
 62
     7
100
AcDbLine
 10
567.3815550111
 20
680.8000005901
 30
0.0
 11
567.3815550111
 21
648.5500022888
 31
0.0
  0
LINE
  5
52F
330
1F
100
AcDbEntity
  8
0
  6
CONTINUOUS
 62
     7
100
AcDbLine
 10
566.6135491631
 20
618.2999968648
 30
0.0
 11
566.6135491631
 21
648.5500022888
 31
0.0
  0
LINE
  5
530
330
1F
100
AcDbEntity
  8
0
  6
CONTINUOUS
 62
     7
100
AcDbLine
 10
567.3815550111
 20
618.2999968648
 30
0.0
 11
567.3815550111
 21
586.0500022888
 31
0.0
  0
LINE
  5
531
330
1F
100
AcDbEntity
  8
0
  6
CONTINUOUS
 62
     7
100
AcDbLine
 10
566.6135491631
 20
555.8000043154
 30
0.0
 11
566.6135491631
 21
586.0500022888
 31
0.0
  0
LINE
  5
532
330
1F
100
AcDbEntity
  8
0
  6
CONTINUOUS
 62
     7
100
AcDbLine
 10
567.3815550111
 20
555.8000043154
 30
0.0
 11
567.3815550111
 21
513.6619493484
 31
0.0
  0
LINE
  5
533
330
1F
100
AcDbEntity
  8
0
  6
CONTINUOUS
 62
     7
100
AcDbLine
 10
567.3815550111
 20
940.7380506515
 30
0.0
 11
567.3815550111
 21
898.5500022888
 31
0.0
  0
LINE
  5
534
330
1F
100
AcDbEntity
  8
0
  6
CONTINUOUS
 62
     7
100
AcDbLine
 10
566.6135491631
 20
868.3000043154
 30
0.0
 11
566.6135491631
 21
898.5500022888
 31
0.0
  0
LINE
  5
535
330
1F
100
AcDbEntity
  8
0
  6
CONTINUOUS
 62
     7
100
AcDbLine
 10
567.3815550111
 20
868.3000043154
 30
0.0
 11
567.3815550111
 21
836.0500022888
 31
0.0
  0
LINE
  5
536
330
1F
100
AcDbEntity
  8
0
  6
CONTINUOUS
 62
     7
100
AcDbLine
 10
575.4210443995
 20
743.3000005901
 30
0.0
 11
575.4210443995
 21
773.5499985635
 31
0.0
  0
LINE
  5
537
330
1F
100
AcDbEntity
  8
0
  6
CONTINUOUS
 62
     7
100
AcDbLine
 10
575.4210443995
 20
743.3000005901
 30
0.0
 11
566.6135491631
 21
743.3000005901
 31
0.0
  0
LINE
  5
538
330
1F
100
AcDbEntity
  8
0
  6
CONTINUOUS
 62
     7
100
AcDbLine
 10
575.4210443995
 20
773.5499985635
 30
0.0
 11
566.6135491631
 21
773.5499985635
 31
0.0
  0
LINE
  5
539
330
1F
100
AcDbEntity
  8
0
  6
CONTINUOUS
 62
     7
100
AcDbLine
 10
575.4210443995
 20
898.5500022888
 30
0.0
 11
566.6135491631
 21
898.5500022888
 31
0.0
  0
LINE
  5
53A
330
1F
100
AcDbEntity
  8
0
  6
CONTINUOUS
 62
     7
100
AcDbLine
 10
575.4210443995
 20
868.3000043154
 30
0.0
 11
575.4210443995
 21
898.5500022888
 31
0.0
  0
LINE
  5
53B
330
1F
100
AcDbEntity
  8
0
  6
CONTINUOUS
 62
     7
100
AcDbLine
 10
575.4210443995
 20
868.3000043154
 30
0.0
 11
566.6135491631
 21
868.3000043154
 31
0.0
  0
LINE
  5
53C
330
1F
100
AcDbEntity
  8
0
  6
CONTINUOUS
 62
     7
100
AcDbLine
 10
575.4210443995
 20
711.0500004262
 30
0.0
 11
566.6135491631
 21
711.0500004262
 31
0.0
  0
LINE
  5
53D
330
1F
100
AcDbEntity
  8
0
  6
CONTINUOUS
 62
     7
100
AcDbLine
 10
575.4210443995
 20
680.8000005901
 30
0.0
 11
575.4210443995
 21
711.0500004262
 31
0.0
  0
LINE
  5
53E
330
1F
100
AcDbEntity
  8
0
  6
CONTINUOUS
 62
     7
100
AcDbLine
 10
575.4210443995
 20
680.8000005901
 30
0.0
 11
566.6135491631
 21
680.8000005901
 31
0.0
  0
LINE
  5
53F
330
1F
100
AcDbEntity
  8
0
  6
CONTINUOUS
 62
     7
100
AcDbLine
 10
575.4210443995
 20
555.8000043154
 30
0.0
 11
575.4210443995
 21
586.0500022888
 31
0.0
  0
LINE
  5
540
330
1F
100
AcDbEntity
  8
0
  6
CONTINUOUS
 62
     7
100
AcDbLine
 10
575.4210443995
 20
555.8000043154
 30
0.0
 11
566.6135491631
 21
555.8000043154
 31
0.0
  0
LINE
  5
541
330
1F
100
AcDbEntity
  8
0
  6
CONTINUOUS
 62
     7
100
AcDbLine
 10
575.4210443995
 20
586.0500022888
 30
0.0
 11
566.6135491631
 21
586.0500022888
 31
0.0
  0
LINE
  5
542
330
1F
100
AcDbEntity
  8
0
  6
CONTINUOUS
 62
     7
100
AcDbLine
 10
575.4210443995
 20
618.2999968648
 30
0.0
 11
575.4210443995
 21
648.5500022888
 31
0.0
  0
LINE
  5
543
330
1F
100
AcDbEntity
  8
0
  6
CONTINUOUS
 62
     7
100
AcDbLine
 10
575.4210443995
 20
618.2999968648
 30
0.0
 11
566.6135491631
 21
618.2999968648
 31
0.0
  0
LINE
  5
544
330
1F
100
AcDbEntity
  8
0
  6
CONTINUOUS
 62
     7
100
AcDbLine
 10
575.4210443995
 20
648.5500022888
 30
0.0
 11
566.6135491631
 21
648.5500022888
 31
0.0
  0
LINE
  5
545
330
1F
100
AcDbEntity
  8
0
  6
CONTINUOUS
 62
     7
100
AcDbLine
 10
575.4210443995
 20
805.7999968648
 30
0.0
 11
575.4210443995
 21
836.0500022888
 31
0.0
  0
LINE
  5
546
330
1F
100
AcDbEntity
  8
0
  6
CONTINUOUS
 62
     7
100
AcDbLine
 10
575.4210443995
 20
805.7999968648
 30
0.0
 11
566.6135491631
 21
805.7999968648
 31
0.0
  0
LINE
  5
547
330
1F
100
AcDbEntity
  8
0
  6
CONTINUOUS
 62
     7
100
AcDbLine
 10
575.4210443995
 20
836.0500022888
 30
0.0
 11
566.6135491631
 21
836.0500022888
 31
0.0
  0
ELLIPSE
  5
548
330
1F
100
AcDbEntity
  8
0
  6
CONTINUOUS
 62
     7
100
AcDbEllipse
 10
189.3056252209
 20
943.1437787468
 30
0.0
 11
-3.89382699529554
 21
3.893826995295512
 31
0.0
210
0.0
220
0.0
230
0.9999999999999998
 40
0.998782766
 41
5.49839613136777
 42
7.067974482991414
  0
LINE
  5
549
330
1F
100
AcDbEntity
  8
0
  6
CONTINUOUS
 62
     7
100
AcDbLine
 10
189.2989219926
 20
948.6471250772
 30
0.0
 11
189.7181363604
 21
948.2279107094
 31
0.0
  0
LINE
  5
54A
330
1F
100
AcDbEntity
  8
0
  6
CONTINUOUS
 62
     7
100
AcDbLine
 10
184.2214854262
 20
942.7312597752
 30
0.0
 11
183.8022710583
 21
943.1504890442
 31
0.0
  0
ELLIPSE
  5
54B
330
1F
100
AcDbEntity
  8
0
  6
CONTINUOUS
 62
     7
100
AcDbEllipse
 10
189.3056252209
 20
511.2562212532
 30
0.0
 11
-3.89382699529554
 21
-3.893826995295512
 31
0.0
210
0.0
220
0.0
230
0.9999999999999998
 40
0.998782766
 41
5.498396131367769
 42
7.067974482991425
  0
LINE
  5
54C
330
1F
100
AcDbEntity
  8
0
  6
CONTINUOUS
 62
     7
100
AcDbLine
 10
183.8022710583
 20
511.2495109558
 30
0.0
 11
184.2214854262
 21
511.6687402248
 31
0.0
  0
LINE
  5
54D
330
1F
100
AcDbEntity
  8
0
  6
CONTINUOUS
 62
     7
100
AcDbLine
 10
189.7181363604
 20
506.1720892906
 30
0.0
 11
189.2989219926
 21
505.7528749228
 31
0.0
  0
ELLIPSE
  5
54E
330
1F
100
AcDbEntity
  8
0
  6
CONTINUOUS
 62
     7
100
AcDbEllipse
 10
562.2989202336
 20
943.1437787468
 30
0.0
 11
3.893826995295512
 21
3.893826995295512
 31
0.0
210
0.0
220
0.0
230
0.9999999999999998
 40
0.998782766
 41
5.498396131367759
 42
7.067974482991428
  0
LINE
  5
54F
330
1F
100
AcDbEntity
  8
0
  6
CONTINUOUS
 62
     7
100
AcDbLine
 10
567.8022743962
 20
943.1504890442
 30
0.0
 11
567.3830600283
 21
942.7312597752
 31
0.0
  0
LINE
  5
550
330
1F
100
AcDbEntity
  8
0
  6
CONTINUOUS
 62
     7
100
AcDbLine
 10
561.8864090941
 20
948.2279107094
 30
0.0
 11
562.305623462
 21
948.6471250772
 31
0.0
  0
ELLIPSE
  5
551
330
1F
100
AcDbEntity
  8
0
  6
CONTINUOUS
 62
     7
100
AcDbEllipse
 10
562.2989202336
 20
511.2562212532
 30
0.0
 11
3.893826995295512
 21
-3.893826995295512
 31
0.0
210
0.0
220
0.0
230
0.9999999999999998
 40
0.998782766
 41
5.498396131367763
 42
7.067974482991424
  0
LINE
  5
552
330
1F
100
AcDbEntity
  8
0
  6
CONTINUOUS
 62
     7
100
AcDbLine
 10
562.305623462
 20
505.7528749228
 30
0.0
 11
561.8864090941
 21
506.1720892906
 31
0.0
  0
LINE
  5
553
330
1F
100
AcDbEntity
  8
0
  6
CONTINUOUS
 62
     7
100
AcDbLine
 10
567.3830600283
 20
511.6687402248
 30
0.0
 11
567.8022743962
 21
511.2495109558
 31
0.0
  0
LINE
  5
554
330
1F
100
AcDbEntity
  8
0
  6
CONTINUOUS
 62
     7
100
AcDbLine
 10
183.8022710583
 20
943.1504890442
 30
0.0
 11
183.8022710583
 21
511.2495109558
 31
0.0
  0
LINE
  5
555
330
1F
100
AcDbEntity
  8
0
  6
CONTINUOUS
 62
     7
100
AcDbLine
 10
189.2989219926
 20
505.7528749228
 30
0.0
 11
562.305623462
 21
505.7528749228
 31
0.0
  0
LINE
  5
556
330
1F
100
AcDbEntity
  8
0
  6
CONTINUOUS
 62
     7
100
AcDbLine
 10
562.305623462
 20
948.6471250772
 30
0.0
 11
189.2989219926
 21
948.6471250772
 31
0.0
  0
LINE
  5
557
330
1F
100
AcDbEntity
  8
0
  6
CONTINUOUS
 62
     7
100
AcDbLine
 10
567.8022743962
 20
511.2495109558
 30
0.0
 11
567.8022743962
 21
555.8000043154
 31
0.0
  0
LINE
  5
558
330
1F
100
AcDbEntity
  8
0
  6
CONTINUOUS
 62
     7
100
AcDbLine
 10
567.8022743962
 20
648.5500022888
 30
0.0
 11
567.8022743962
 21
680.8000005901
 31
0.0
  0
LINE
  5
559
330
1F
100
AcDbEntity
  8
0
  6
CONTINUOUS
 62
     7
100
AcDbLine
 10
567.8022743962
 20
898.5500022888
 30
0.0
 11
567.8022743962
 21
943.1504890442
 31
0.0
  0
LINE
  5
55A
330
1F
100
AcDbEntity
  8
0
  6
CONTINUOUS
 62
     7
100
AcDbLine
 10
567.8022743962
 20
711.0500004262
 30
0.0
 11
567.8022743962
 21
743.3000005901
 31
0.0
  0
LINE
  5
55B
330
1F
100
AcDbEntity
  8
0
  6
CONTINUOUS
 62
     7
100
AcDbLine
 10
567.8022743962
 20
773.5499985635
 30
0.0
 11
567.8022743962
 21
805.7999968648
 31
0.0
  0
LINE
  5
55C
330
1F
100
AcDbEntity
  8
0
  6
CONTINUOUS
 62
     7
100
AcDbLine
 10
567.8022743962
 20
836.0500022888
 30
0.0
 11
567.8022743962
 21
868.3000043154
 31
0.0
  0
LINE
  5
55D
330
1F
100
AcDbEntity
  8
0
  6
CONTINUOUS
 62
     7
100
AcDbLine
 10
567.8022743962
 20
586.0500022888
 30
0.0
 11
567.8022743962
 21
618.2999968648
 31
0.0
  0
LINE
  5
55E
330
1F
100
AcDbEntity
  8
0
  6
CONTINUOUS
 62
     7
100
AcDbLine
 10
579.3022753499
 20
743.3000005901
 30
0.0
 11
575.4210443995
 21
743.3000005901
 31
0.0
  0
LINE
  5
55F
330
1F
100
AcDbEntity
  8
0
  6
CONTINUOUS
 62
     7
100
AcDbLine
 10
579.3022753499
 20
773.5499985635
 30
0.0
 11
575.4210443995
 21
773.5499985635
 31
0.0
  0
LINE
  5
560
330
1F
100
AcDbEntity
  8
0
  6
CONTINUOUS
 62
     7
100
AcDbLine
 10
579.3022753499
 20
618.2999968648
 30
0.0
 11
575.4210443995
 21
618.2999968648
 31
0.0
  0
LINE
  5
561
330
1F
100
AcDbEntity
  8
0
  6
CONTINUOUS
 62
     7
100
AcDbLine
 10
579.3022753499
 20
648.5500022888
 30
0.0
 11
575.4210443995
 21
648.5500022888
 31
0.0
  0
LINE
  5
562
330
1F
100
AcDbEntity
  8
0
  6
CONTINUOUS
 62
     7
100
AcDbLine
 10
579.3022753499
 20
555.8000043154
 30
0.0
 11
575.4210443995
 21
555.8000043154
 31
0.0
  0
LINE
  5
563
330
1F
100
AcDbEntity
  8
0
  6
CONTINUOUS
 62
     7
100
AcDbLine
 10
579.3022753499
 20
586.0500022888
 30
0.0
 11
575.4210443995
 21
586.0500022888
 31
0.0
  0
LINE
  5
564
330
1F
100
AcDbEntity
  8
0
  6
CONTINUOUS
 62
     7
100
AcDbLine
 10
579.3022753499
 20
680.8000005901
 30
0.0
 11
575.4210443995
 21
680.8000005901
 31
0.0
  0
LINE
  5
565
330
1F
100
AcDbEntity
  8
0
  6
CONTINUOUS
 62
     7
100
AcDbLine
 10
579.3022753499
 20
711.0500004262
 30
0.0
 11
575.4210443995
 21
711.0500004262
 31
0.0
  0
LINE
  5
566
330
1F
100
AcDbEntity
  8
0
  6
CONTINUOUS
 62
     7
100
AcDbLine
 10
579.3022753499
 20
805.7999968648
 30
0.0
 11
575.4210443995
 21
805.7999968648
 31
0.0
  0
LINE
  5
567
330
1F
100
AcDbEntity
  8
0
  6
CONTINUOUS
 62
     7
100
AcDbLine
 10
579.3022753499
 20
836.0500022888
 30
0.0
 11
575.4210443995
 21
836.0500022888
 31
0.0
  0
LINE
  5
568
330
1F
100
AcDbEntity
  8
0
  6
CONTINUOUS
 62
     7
100
AcDbLine
 10
579.3022753499
 20
898.5500022888
 30
0.0
 11
575.4210443995
 21
898.5500022888
 31
0.0
  0
LINE
  5
569
330
1F
100
AcDbEntity
  8
0
  6
CONTINUOUS
 62
     7
100
AcDbLine
 10
579.3022753499
 20
868.3000043154
 30
0.0
 11
575.4210443995
 21
868.3000043154
 31
0.0
  0
INSERT
  5
575
330
1F
100
AcDbEntity
  8
0
  6
CONTINUOUS
 62
     7
100
AcDbBlockReference
  2
SW_CENTERMARKSYMBOL_10
 10
201.3022727273
 20
527.0528687596
 30
0.0
  0
INSERT
  5
581
330
1F
100
AcDbEntity
  8
0
  6
CONTINUOUS
 62
     7
100
AcDbBlockReference
  2
SW_CENTERMARKSYMBOL_11
 10
550.3022727273
 20
927.3471312404
 30
0.0
  0
INSERT
  5
58D
330
1F
100
AcDbEntity
  8
0
  6
CONTINUOUS
 62
     7
100
AcDbBlockReference
  2
SW_CENTERMARKSYMBOL_12
 10
201.3022727273
 20
927.3471312404
 30
0.0
  0
INSERT
  5
599
330
1F
100
AcDbEntity
  8
0
  6
CONTINUOUS
 62
     7
100
AcDbBlockReference
  2
SW_CENTERMARKSYMBOL_13
 10
550.3022727273
 20
527.0528687596
 30
0.0
  0
INSERT
  5
5A5
330
1F
100
AcDbEntity
  8
0
  6
CONTINUOUS
 62
     7
100
AcDbBlockReference
  2
SW_CENTERMARKSYMBOL_14
 10
190.8022727273
 20
941.65
 30
0.0
  0
INSERT
  5
5B1
330
1F
100
AcDbEntity
  8
0
  6
CONTINUOUS
 62
     7
100
AcDbBlockReference
  2
SW_CENTERMARKSYMBOL_15
 10
560.8022727273
 20
941.65
 30
0.0
  0
INSERT
  5
5BD
330
1F
100
AcDbEntity
  8
0
  6
CONTINUOUS
 62
     7
100
AcDbBlockReference
  2
SW_CENTERMARKSYMBOL_16
 10
190.8022727273
 20
512.75
 30
0.0
  0
INSERT
  5
5C9
330
1F
100
AcDbEntity
  8
0
  6
CONTINUOUS
 62
     7
100
AcDbBlockReference
  2
SW_CENTERMARKSYMBOL_17
 10
560.8022727273
 20
512.75
 30
0.0
  0
ENDSEC
  0
SECTION
  2
OBJECTS
  0
DICTIONARY
  5
C
330
0
100
AcDbDictionary
  3
ACAD_GROUP
350
D
  3
ACAD_MLINESTYLE
350
17
  0
DICTIONARY
  5
D
102
{ACAD_REACTORS
330
C
102
}
330
C
100
AcDbDictionary
  0
DICTIONARY
  5
17
102
{ACAD_REACTORS
330
C
102
}
330
C
100
AcDbDictionary
  3
STANDARD
350
18
  0
MLINESTYLE
  5
18
102
{ACAD_REACTORS
330
17
102
}
330
17
100
AcDbMlineStyle
  2
Standard
 70
     0
  3

 62
   256
 51
90.0
 52
90.0
 71
     2
 49
0.5
 62
   256
  6
BYLAYER
 49
-0.5
 62
   256
  6
BYLAYER
  0
ENDSEC
  0
EOF
