  0
SECTION
  2
HEADER
  9
$ACADVER
  1
AC1009
  9
$INSBASE
 10
0.0
 20
0.0
 30
0.0
  9
$EXTMIN
 10
-408.6767173536943
 20
89.265537471187585
 30
0.0
  9
$EXTMAX
 10
643.8241083695807
 20
390.91115099764511
 30
0.0
  9
$LIMMIN
 10
0.0
 20
0.0
  9
$LIMMAX
 10
0.0
 20
0.0
  9
$ORTHOMODE
 70
     0
  9
$REGENMODE
 70
     1
  9
$FILLMODE
 70
     1
  9
$QTEXTMODE
 70
     0
  9
$MIRRTEXT
 70
     1
  9
$DRAGMODE
 70
     2
  9
$LTSCALE
 40
5.0
  9
$OSMODE
 70
    37
  9
$ATTMODE
 70
     1
  9
$TEXTSIZE
 40
0.0
  9
$TRACEWID
 40
0.05
  9
$TEXTSTYLE
  7
STANDARD
  9
$CLAYER
  8
0
  9
$CELTYPE
  6
CONTINUOUS
  9
$CECOLOR
 62
   256
  9
$DIMSCALE
 40
1.0
  9
$DIMASZ
 40
0.0
  9
$DIMEXO
 40
0.0
  9
$DIMDLI
 40
0.38
  9
$DIMRND
 40
0.0
  9
$DIMDLE
 40
0.0
  9
$DIMEXE
 40
0.18
  9
$DIMTP
 40
0.0
  9
$DIMTM
 40
0.0
  9
$DIMTXT
 40
3.5
  9
$DIMCEN
 40
0.09
  9
$DIMTSZ
 40
0.0
  9
$DIMTOL
 70
     0
  9
$DIMLIM
 70
     0
  9
$DIMTIH
 70
     1
  9
$DIMTOH
 70
     1
  9
$DIMSE1
 70
     0
  9
$DIMSE2
 70
     0
  9
$DIMTAD
 70
     1
  9
$DIMZIN
 70
     0
  9
$DIMBLK
  1

  9
$DIMASO
 70
     1
  9
$DIMSHO
 70
     1
  9
$DIMPOST
  1

  9
$DIMAPOST
  1

  9
$DIMALT
 70
     0
  9
$DIMALTD
 70
     2
  9
$DIMALTF
 40
0.0394
  9
$DIMLFAC
 40
1.0
  9
$DIMTOFL
 70
     0
  9
$DIMTVP
 40
0.0
  9
$DIMTIX
 70
     0
  9
$DIMSOXD
 70
     0
  9
$DIMSAH
 70
     0
  9
$DIMBLK1
  1

  9
$DIMBLK2
  1

  9
$DIMSTYLE
  2
STANDARD
  9
$DIMCLRD
 70
     0
  9
$DIMCLRE
 70
     0
  9
$DIMCLRT
 70
     0
  9
$DIMTFAC
 40
1.0
  9
$DIMGAP
 40
0.0
  9
$LUNITS
 70
     2
  9
$LUPREC
 70
     2
  9
$SKETCHINC
 40
0.1
  9
$FILLETRAD
 40
0.0
  9
$AUNITS
 70
     0
  9
$AUPREC
 70
     2
  9
$MENU
  1
acad
  9
$ELEVATION
 40
0.0
  9
$PELEVATION
 40
0.0
  9
$THICKNESS
 40
0.0
  9
$LIMCHECK
 70
     0
  9
$BLIPMODE
 70
     0
  9
$CHAMFERA
 40
0.0
  9
$CHAMFERB
 40
0.0
  9
$SKPOLY
 70
     0
  9
$TDCREATE
 40
2444972.125
  9
$TDUPDATE
 40
2453620.4575157412
  9
$TDINDWG
 40
0.0311796991
  9
$TDUSRTIMER
 40
0.0311796991
  9
$USRTIMER
 70
     1
  9
$ANGBASE
 50
0.0
  9
$ANGDIR
 70
     0
  9
$PDMODE
 70
     0
  9
$PDSIZE
 40
-1.0
  9
$PLINEWID
 40
0.0
  9
$COORDS
 70
     2
  9
$SPLFRAME
 70
     0
  9
$SPLINETYPE
 70
     6
  9
$SPLINESEGS
 70
     8
  9
$ATTDIA
 70
     0
  9
$ATTREQ
 70
     1
  9
$HANDLING
 70
-16383
  9
$HANDSEED
  5
16F6
  9
$SURFTAB1
 70
     6
  9
$SURFTAB2
 70
     6
  9
$SURFTYPE
 70
     6
  9
$SURFU
 70
     6
  9
$SURFV
 70
     6
  9
$UCSNAME
  2

  9
$UCSORG
 10
0.0
 20
0.0
 30
0.0
  9
$UCSXDIR
 10
1.0
 20
0.0
 30
0.0
  9
$UCSYDIR
 10
0.0
 20
1.0
 30
0.0
  9
$PUCSNAME
  2

  9
$PUCSORG
 10
0.0
 20
0.0
 30
0.0
  9
$PUCSXDIR
 10
1.0
 20
0.0
 30
0.0
  9
$PUCSYDIR
 10
0.0
 20
1.0
 30
0.0
  9
$USERI1
 70
     0
  9
$USERI2
 70
     0
  9
$USERI3
 70
     0
  9
$USERI4
 70
     0
  9
$USERI5
 70
     0
  9
$USERR1
 40
0.0
  9
$USERR2
 40
0.0
  9
$USERR3
 40
0.0
  9
$USERR4
 40
0.0
  9
$USERR5
 40
0.0
  9
$WORLDVIEW
 70
     1
  9
$SHADEDGE
 70
     3
  9
$SHADEDIF
 70
    70
  9
$TILEMODE
 70
     1
  9
$MAXACTVP
 70
    16
  9
$PLIMCHECK
 70
     0
  9
$PEXTMIN
 10
1.0000000000000000E+020
 20
1.0000000000000000E+020
 30
1.0000000000000000E+020
  9
$PEXTMAX
 10
-1.0000000000000000E+020
 20
-1.0000000000000000E+020
 30
-1.0000000000000000E+020
  9
$PLIMMIN
 10
0.0
 20
0.0
  9
$PLIMMAX
 10
12.0
 20
9.0
  9
$UNITMODE
 70
     0
  9
$VISRETAIN
 70
     0
  9
$PLINEGEN
 70
     1
  9
$PSLTSCALE
 70
     1
  0
ENDSEC
  0
SECTION
  2
TABLES
  0
TABLE
  2
VPORT
 70
     3
  0
VPORT
  2
*ACTIVE
 70
     0
 10
0.0
 20
0.0
 11
1.0
 21
1.0
 12
117.5568730163176
 22
240.08488285059349
 13
0.0
 23
0.0
 14
1.0
 24
1.0
 15
0.0
 25
0.0
 16
0.0
 26
0.0
 36
1.0
 17
0.0
 27
0.0
 37
0.0
 40
679.54921312896624
 41
1.5552208835341359
 42
50.0
 43
0.0
 44
0.0
 50
0.0
 51
0.0
 71
     0
 72
  2000
 73
     1
 74
     1
 75
     0
 76
     0
 77
     0
 78
     0
  0
ENDTAB
  0
TABLE
  2
LTYPE
 70
     3
  0
LTYPE
  2
CONTINUOUS
 70
     0
  3
Solid line
 72
    65
 73
     0
 40
0.0
  0
LTYPE
  2
HIDDEN
 70
     0
  3
Hidden __ __ __ __ __ __ __ __ __ __ __ __ __ __
 72
    65
 73
     2
 40
1.905
 49
1.27
 49
-0.635
  0
LTYPE
  2
CENTER
 70
     0
  3
Center ____ _ ____ _ ____ _ ____ _ ____ _ ____
 72
    65
 73
     4
 40
10.16
 49
6.3499999999999988
 49
-1.27
 49
1.27
 49
-1.27
  0
ENDTAB
  0
TABLE
  2
LAYER
 70
     4
  0
LAYER
  2
0
 70
     0
 62
     7
  6
CONTINUOUS
  0
LAYER
  2
DEFPOINTS
 70
     0
 62
     7
  6
CONTINUOUS
  0
LAYER
  2
L1
 70
     0
 62
     7
  6
CONTINUOUS
  0
LAYER
  2
L6
 70
     0
 62
     1
  6
CENTER
  0
ENDTAB
  0
TABLE
  2
STYLE
 70
     2
  0
STYLE
  2
STANDARD
 70
     0
 40
0.0
 41
1.0
 50
0.0
 71
     0
 42
0.0
  3
txt
  4

  0
STYLE
  2
TKKISO
 70
     0
 40
0.0
 41
1.0
 50
0.0
 71
     0
 42
3.5
  3
caeiso
  4

  0
ENDTAB
  0
TABLE
  2
VIEW
 70
     0
  0
ENDTAB
  0
TABLE
  2
UCS
 70
     0
  0
ENDTAB
  0
TABLE
  2
APPID
 70
     2
  0
APPID
  2
ACAD
 70
     0
  0
APPID
  2
DCO15
 70
     0
  0
ENDTAB
  0
TABLE
  2
DIMSTYLE
 70
     1
  0
DIMSTYLE
  2
STANDARD
 70
     0
  3

  4

  5

  6

  7

 40
1.0
 41
0.18
 42
0.0625
 43
0.38
 44
0.18
 45
0.0
 46
0.0
 47
0.0
 48
0.0
140
0.18
141
0.09
142
0.0
143
25.399999999999999
144
1.0
145
0.0
146
1.0
147
0.09
 71
     0
 72
     0
 73
     1
 74
     1
 75
     0
 76
     0
 77
     0
 78
     0
170
     0
171
     2
172
     0
173
     0
174
     0
175
     0
176
     0
177
     0
178
     0
  0
ENDTAB
  0
ENDSEC
  0
SECTION
  2
BLOCKS
  0
BLOCK
  8
0
  2
$MODEL_SPACE
 70
     0
 10
0.0
 20
0.0
 30
0.0
  3
$MODEL_SPACE
  1

  0
ENDBLK
  5
E
  8
0
  0
BLOCK
 67
     1
  8
0
  2
$PAPER_SPACE
 70
     0
 10
0.0
 20
0.0
 30
0.0
  3
$PAPER_SPACE
  1

  0
ENDBLK
  5
10
 67
     1
  8
0
  0
ENDSEC
  0
SECTION
  2
ENTITIES
  0
ARC
  5
26
  8
0
  6
CONTINUOUS
 62
     7
 10
332.78289576415511
 20
274.2134518316949
 30
0.0
 40
4.3973933631785176
 50
197.83628259617839
 51
342.16371740382232
  0
ARC
  5
57
  8
0
  6
CONTINUOUS
 62
     7
 10
332.78289576415511
 20
274.2134518316949
 30
0.0
 40
4.3973933631785087
 50
17.83628259617727
 51
162.1637174038238
  0
ARC
  5
74
  8
0
  6
CONTINUOUS
 62
     7
 10
506.88289576415502
 20
277.36345183169482
 30
0.0
 40
5.591547227094253
 50
0.0
 51
90.000000000000398
  0
ARC
  5
76
  8
0
  6
CONTINUOUS
 62
     7
 10
506.88289576415502
 20
277.36345183169482
 30
0.0
 40
3.934951071081314
 50
0.0
 51
90.000000000000398
  0
LINE
  5
78
  8
0
  6
CONTINUOUS
 62
     7
 10
510.81784683523642
 20
129.16345183169491
 30
0.0
 11
510.81784683523642
 21
277.36345183169482
 31
0.0
  0
LINE
  5
79
  8
0
  6
CONTINUOUS
 62
     7
 10
512.47444299124925
 20
277.36345183169482
 30
0.0
 11
512.47444299124925
 21
129.16345183169491
 31
0.0
  0
LINE
  5
84
  8
0
  6
CONTINUOUS
 62
     7
 10
158.68289576415501
 20
282.95499905878899
 30
0.0
 11
506.88289576415508
 21
282.95499905878899
 31
0.0
  0
LINE
  5
85
  8
0
  6
CONTINUOUS
 62
     7
 10
506.88289576415508
 20
281.2984029027761
 30
0.0
 11
158.68289576415509
 21
281.2984029027761
 31
0.0
  0
ARC
  5
8A
  8
0
  6
CONTINUOUS
 62
     7
 10
332.782895764155
 20
274.2134518316949
 30
0.0
 40
4.2000000000000348
 50
346.22585300197289
 51
13.7741469980266
  0
ARC
  5
8D
  8
0
  6
CONTINUOUS
 62
     7
 10
332.782895764155
 20
274.2134518316949
 30
0.0
 40
4.4155536344317934
 50
343.54817849969561
 51
16.451821500303989
  0
CIRCLE
  5
92
  8
0
  6
CONTINUOUS
 62
     7
 10
503.7328957641551
 20
274.21345183169478
 30
0.0
 40
4.5956556052974511
  0
ARC
  5
95
  8
0
  6
CONTINUOUS
 62
     7
 10
332.782895764155
 20
274.2134518316949
 30
0.0
 40
4.4155536344317383
 50
163.5481784996966
 51
196.4518215003053
  0
ARC
  5
D8
  8
0
  6
CONTINUOUS
 62
     7
 10
332.782895764155
 20
274.2134518316949
 30
0.0
 40
4.1999999999999789
 50
166.225853001974
 51
193.77414699802799
  0
LINE
  5
119
  8
0
  6
CONTINUOUS
 62
     7
 10
506.61365495721247
 20
271.20163543179092
 30
0.0
 11
506.62179737594539
 21
271.2097274620063
 31
0.0
  0
LINE
  5
143
  8
0
  6
CONTINUOUS
 62
     7
 10
504.88974656837649
 20
270.20972746200619
 30
0.0
 11
504.90082568147778
 21
270.21273298836962
 31
0.0
  0
ARC
  5
176
  8
0
  6
CONTINUOUS
 62
     7
 10
503.7328957641551
 20
274.21345183169478
 30
0.0
 40
4.1677105891742023
 50
286.27410958493942
 51
313.72589041506131
  0
ARC
  5
17B
  8
0
  6
CONTINUOUS
 62
     7
 10
503.7328957641551
 20
274.21345183169478
 30
0.0
 40
4.1677105891742077
 50
106.2741095849391
 51
133.7258904150616
  0
ARC
  5
293
  8
0
  6
CONTINUOUS
 62
     7
 10
506.88289576415502
 20
277.36345183169482
 30
0.0
 40
6.000000000000056
 50
0.0
 51
90.000000000000398
  0
LINE
  5
296
  8
0
  6
CONTINUOUS
 62
     7
 10
512.88289576415514
 20
129.16345183169491
 30
0.0
 11
512.88289576415514
 21
277.36345183169482
 31
0.0
  0
LINE
  5
297
  8
0
  6
CONTINUOUS
 62
     7
 10
506.88289576415508
 20
283.36345183169482
 30
0.0
 11
158.68289576415501
 21
283.36345183169482
 31
0.0
  0
ARC
  5
2C8
  8
0
  6
CONTINUOUS
 62
     7
 10
503.7328957641551
 20
274.21345183169478
 30
0.0
 40
1.7177105891742519
 50
155.60333155206871
 51
178.69984646237839
  0
LINE
  5
2CF
  8
0
  6
CONTINUOUS
 62
     7
 10
502.90801481494458
 20
272.7067663675748
 30
0.0
 11
502.01562740210909
 21
274.25242670664079
 31
0.0
  0
ARC
  5
2D1
  8
0
  6
CONTINUOUS
 62
     7
 10
503.7328957641551
 20
274.21345183169478
 30
0.0
 40
1.7177105891742179
 50
335.60333155206422
 51
358.6998464623785
  0
ARC
  5
2D8
  8
0
  6
CONTINUOUS
 62
     7
 10
503.7328957641551
 20
274.21345183169478
 30
0.0
 40
1.7177105891742039
 50
241.3001535376217
 51
264.39666844793402
  0
LINE
  5
2D9
  8
0
  6
CONTINUOUS
 62
     7
 10
503.56315680572129
 20
272.50081583245469
 30
0.0
 11
503.56517718193282
 21
272.50394893747722
 31
0.0
  0
LINE
  5
2DA
  8
0
  6
CONTINUOUS
 62
     7
 10
504.55777671336568
 20
275.72013729581488
 30
0.0
 11
505.45016412620112
 21
274.174476956749
 31
0.0
  0
ARC
  5
2DC
  8
0
  6
CONTINUOUS
 62
     7
 10
503.7328957641551
 20
274.21345183169478
 30
0.0
 40
1.7177105891741971
 50
61.300153537621398
 51
84.396668447925876
  0
ARC
  5
2EF
  8
0
  6
CONTINUOUS
 62
     7
 10
332.782895764155
 20
274.2134518316949
 30
0.0
 40
1.7500000000000191
 50
301.00271913387309
 51
325.15009542095282
  0
LINE
  5
2F0
  8
0
  6
CONTINUOUS
 62
     7
 10
334.2207672377067
 20
273.21013558205931
 30
0.0
 11
334.21903642578951
 21
273.2134518316949
 31
0.0
  0
ARC
  5
2F6
  8
0
  6
CONTINUOUS
 62
     7
 10
332.782895764155
 20
274.2134518316949
 30
0.0
 40
1.7499999999999709
 50
121.0027191338731
 51
145.15009542095359
  0
LINE
  5
2F7
  8
0
  6
CONTINUOUS
 62
     7
 10
331.34502429060348
 20
275.21676808133049
 30
0.0
 11
331.3467551025206
 21
275.2134518316949
 31
0.0
  0
ARC
  5
2F9
  8
0
  6
CONTINUOUS
 62
     7
 10
332.782895764155
 20
274.2134518316949
 30
0.0
 40
1.750000000000002
 50
34.849904579046402
 51
58.997280866125841
  0
ARC
  5
2FD
  8
0
  6
CONTINUOUS
 62
     7
 10
332.782895764155
 20
274.2134518316949
 30
0.0
 40
1.7499999999999949
 50
214.84990457904851
 51
238.99728086612879
  0
LINE
  5
305
  8
0
  6
CONTINUOUS
 62
     7
 10
333.684283583021
 20
275.7134518316949
 30
0.0
 11
331.88150794528912
 21
275.7134518316949
 31
0.0
  0
LINE
  5
306
  8
0
  6
CONTINUOUS
 62
     7
 10
331.88150794528912
 20
272.71345183169478
 30
0.0
 11
333.684283583021
 21
272.71345183169478
 31
0.0
  0
LINE
  5
356
  8
0
  6
CONTINUOUS
 62
     7
 10
505.29722798950161
 20
273.50394893747722
 30
0.0
 11
506.62179737594539
 21
271.2097274620063
 31
0.0
  0
LINE
  5
35E
  8
0
  6
CONTINUOUS
 62
     7
 10
504.88974656837649
 20
270.20972746200619
 30
0.0
 11
503.56517718193282
 21
272.50394893747722
 31
0.0
  0
LINE
  5
35F
  8
0
  6
CONTINUOUS
 62
     7
 10
502.5760449599336
 20
278.21717620138338
 30
0.0
 11
503.90061434637721
 21
275.92295472591252
 31
0.0
  0
LINE
  5
360
  8
0
  6
CONTINUOUS
 62
     7
 10
328.7036801532808
 20
275.2134518316949
 30
0.0
 11
331.3467551025206
 21
275.2134518316949
 31
0.0
  0
LINE
  5
361
  8
0
  6
CONTINUOUS
 62
     7
 10
336.86211137502931
 20
273.2134518316949
 30
0.0
 11
334.21903642578951
 21
273.2134518316949
 31
0.0
  0
LINE
  5
366
  8
0
  6
CONTINUOUS
 62
     7
 10
331.3467551025206
 20
273.2134518316949
 30
0.0
 11
328.7036801532808
 21
273.2134518316949
 31
0.0
  0
LINE
  5
367
  8
0
  6
CONTINUOUS
 62
     7
 10
334.21903642578951
 20
275.2134518316949
 30
0.0
 11
336.86211137502931
 21
275.2134518316949
 31
0.0
  0
LINE
  5
36A
  8
0
  6
CONTINUOUS
 62
     7
 10
502.16856353880843
 20
274.9229547259124
 30
0.0
 11
500.84399415236459
 21
277.21717620138332
 31
0.0
  0
LINE
  5
36C
  8
0
  6
CONTINUOUS
 62
     7
 10
506.88289576415508
 20
347.84009204961069
 30
0.0
 11
512.88289576415514
 21
347.84009204961069
 31
0.0
  0
LINE
  5
36D
  8
0
  6
CONTINUOUS
 62
     7
 10
512.47444299124925
 20
371.2403357373604
 30
0.0
 11
506.88289576415508
 21
371.2403357373604
 31
0.0
  0
LINE
  5
36E
  8
0
  6
CONTINUOUS
 62
     7
 10
512.47444299124925
 20
371.2403357373604
 30
0.0
 11
512.88289576415514
 21
347.84009204961069
 31
0.0
  0
LINE
  5
36F
  8
0
  6
CONTINUOUS
 62
     7
 10
158.68289576415509
 20
347.84009204961069
 30
0.0
 11
506.88289576415508
 21
347.84009204961069
 31
0.0
  0
LINE
  5
370
  8
0
  6
CONTINUOUS
 62
     7
 10
506.88289576415508
 20
371.2403357373604
 30
0.0
 11
158.68289576415509
 21
371.24033573736051
 31
0.0
  0
LINE
  5
371
  8
0
  6
CONTINUOUS
 62
     7
 10
153.09134853706101
 20
371.24033573736051
 30
0.0
 11
152.68289576415521
 21
347.84009204961069
 31
0.0
  0
LINE
  5
372
  8
0
  6
CONTINUOUS
 62
     7
 10
158.68289576415509
 20
371.24033573736051
 30
0.0
 11
153.09134853706101
 21
371.24033573736051
 31
0.0
  0
LINE
  5
373
  8
0
  6
CONTINUOUS
 62
     7
 10
152.68289576415521
 20
347.84009204961069
 30
0.0
 11
158.68289576415509
 21
347.84009204961069
 31
0.0
  0
LINE
  5
374
  8
0
  6
CONTINUOUS
 62
     7
 10
154.74794469307389
 20
372.84009204961069
 30
0.0
 11
158.68289576415509
 21
372.84009204961069
 31
0.0
  0
LINE
  5
375
  8
0
  6
CONTINUOUS
 62
     7
 10
154.74794469307389
 20
372.84009204961069
 30
0.0
 11
153.09134853706101
 21
371.24033573736051
 31
0.0
  0
LINE
  5
376
  8
0
  6
CONTINUOUS
 62
     7
 10
158.68289576415509
 20
372.84009204961069
 30
0.0
 11
506.88289576415508
 21
372.84009204961069
 31
0.0
  0
LINE
  5
377
  8
0
  6
CONTINUOUS
 62
     7
 10
506.88289576415508
 20
372.84009204961069
 30
0.0
 11
510.81784683523642
 21
372.84009204961069
 31
0.0
  0
LINE
  5
378
  8
0
  6
CONTINUOUS
 62
     7
 10
510.81784683523642
 20
372.84009204961069
 30
0.0
 11
512.47444299124925
 21
371.2403357373604
 31
0.0
  0
LINE
  5
37A
  8
0
  6
CONTINUOUS
 62
     7
 10
494.14798563429861
 20
345.84009204961058
 30
0.0
 11
492.68297191657558
 21
345.84009204961069
 31
0.0
  0
LINE
  5
37B
  8
0
  6
CONTINUOUS
 62
     7
 10
343.98283330491029
 20
345.84009204961069
 30
0.0
 11
342.51780589401181
 21
345.84009204961069
 31
0.0
  0
LINE
  5
37D
  8
0
  6
CONTINUOUS
 62
     7
 10
172.88283330490859
 20
345.84009204961069
 30
0.0
 11
171.41780589401191
 21
345.84009204961069
 31
0.0
  0
LINE
  5
37E
  8
0
  6
CONTINUOUS
 62
     7
 10
171.41780589401191
 20
345.84009204961069
 30
0.0
 11
171.38289576415519
 21
347.84009204961069
 31
0.0
  0
LINE
  5
380
  8
0
  6
CONTINUOUS
 62
     7
 10
323.0479856342983
 20
345.84009204961069
 30
0.0
 11
321.58297191657562
 21
345.84009204961069
 31
0.0
  0
LINE
  5
381
  8
0
  6
CONTINUOUS
 62
     7
 10
492.68297191657678
 20
345.84009204961069
 30
0.0
 11
343.98283330491068
 21
345.84009204961069
 31
0.0
  0
LINE
  5
382
  8
0
  6
CONTINUOUS
 62
     7
 10
321.5829719165767
 20
345.84009204961069
 30
0.0
 11
172.8828333049093
 21
345.84009204961069
 31
0.0
  0
LINE
  5
383
  8
0
  6
CONTINUOUS
 62
     7
 10
342.51780589401181
 20
345.84009204961069
 30
0.0
 11
323.0479856342983
 21
345.84009204961069
 31
0.0
  0
LINE
  5
384
  8
0
  6
CONTINUOUS
 62
     7
 10
171.41780589401191
 20
345.84009204961069
 30
0.0
 11
163.9828957641553
 21
345.84009204961069
 31
0.0
  0
LINE
  5
385
  8
0
  6
CONTINUOUS
 62
     7
 10
501.58289576415518
 20
345.84009204961058
 30
0.0
 11
494.14798563429861
 21
345.84009204961058
 31
0.0
  0
LINE
  5
386
  8
0
  6
CONTINUOUS
 62
     7
 10
508.84798563698411
 20
345.84009204961058
 30
0.0
 11
508.88289576415491
 21
347.84009204961058
 31
0.0
  0
LINE
  5
387
  8
0
  6
CONTINUOUS
 62
     7
 10
508.84798563698411
 20
345.84009204961058
 30
0.0
 11
507.38297191657563
 21
345.84009204961058
 31
0.0
  0
LINE
  5
388
  8
0
  6
CONTINUOUS
 62
     7
 10
507.38297191657688
 20
345.84009204961058
 30
0.0
 11
501.58289576415518
 21
345.84009204961058
 31
0.0
  0
LINE
  5
389
  8
0
  6
CONTINUOUS
 62
     7
 10
156.7178058940118
 20
345.84009204961069
 30
0.0
 11
156.68289576415529
 21
347.84009204961069
 31
0.0
  0
LINE
  5
38A
  8
0
  6
CONTINUOUS
 62
     7
 10
158.18283330490939
 20
345.84009204961069
 30
0.0
 11
156.71780589689499
 21
345.84009204961069
 31
0.0
  0
LINE
  5
38B
  8
0
  6
CONTINUOUS
 62
     7
 10
163.9828957641553
 20
345.84009204961069
 30
0.0
 11
158.18283330490999
 21
345.84009204961069
 31
0.0
  0
LINE
  5
432
  8
L1
  6
HIDDEN
 62
     1
 10
343.84259195483139
 20
368.44707301218563
 30
0.0
 11
343.4828957641551
 21
347.84009204961069
 31
0.0
  0
LINE
  5
433
  8
L1
  6
HIDDEN
 62
     1
 10
172.74259195483131
 20
368.44707301218563
 30
0.0
 11
172.38289576415511
 21
347.84009204961069
 31
0.0
  0
LINE
  5
434
  8
L1
  6
HIDDEN
 62
     1
 10
322.08289576415513
 20
347.84009204961069
 30
0.0
 11
321.72319957347878
 21
368.44707301218563
 31
0.0
  0
LINE
  5
435
  8
L1
  6
HIDDEN
 62
     1
 10
493.18289576415509
 20
347.84009204961069
 30
0.0
 11
492.82319957347892
 21
368.44707301218563
 31
0.0
  0
LINE
  5
479
  8
L1
  6
HIDDEN
 62
     1
 10
344.34251580240948
 20
368.84009204961069
 30
0.0
 11
344.24253103289391
 21
368.84009204961069
 31
0.0
  0
ARC
  5
47A
  8
L1
  6
HIDDEN
 62
     1
 10
344.24253103289391
 20
368.44009204961071
 30
0.0
 40
0.4000000000000057
 50
90.000000000000398
 51
179.0000000000006
  0
LINE
  5
47B
  8
L1
  6
HIDDEN
 62
     1
 10
173.24251580240951
 20
368.84009204961069
 30
0.0
 11
173.14253103289391
 21
368.84009204961069
 31
0.0
  0
ARC
  5
47C
  8
L1
  6
HIDDEN
 62
     1
 10
173.14253103289391
 20
368.44009204961071
 30
0.0
 40
0.4000000000000131
 50
90.000000000000398
 51
179.0000000000006
  0
LINE
  5
47D
  8
L1
  6
HIDDEN
 62
     1
 10
492.32327572590071
 20
368.84009204961069
 30
0.0
 11
344.34251580240948
 21
368.84009204961069
 31
0.0
  0
ARC
  5
47E
  8
L1
  6
HIDDEN
 62
     1
 10
321.32326049541621
 20
368.44009204961071
 30
0.0
 40
0.4000000000000057
 50
1.0000000000001279
 51
90.000000000000398
  0
LINE
  5
47F
  8
L1
  6
HIDDEN
 62
     1
 10
321.32326049541621
 20
368.84009204961069
 30
0.0
 11
321.22327572590058
 21
368.84009204961069
 31
0.0
  0
LINE
  5
480
  8
L1
  6
HIDDEN
 62
     1
 10
321.22327572590058
 20
368.84009204961069
 30
0.0
 11
173.24251580240951
 21
368.84009204961069
 31
0.0
  0
ARC
  5
481
  8
L1
  6
HIDDEN
 62
     1
 10
492.42326049541629
 20
368.44009204961071
 30
0.0
 40
0.4000000000000166
 50
1.0000000000000899
 51
90.000000000000398
  0
LINE
  5
482
  8
L1
  6
HIDDEN
 62
     1
 10
492.42326049541629
 20
368.84009204961069
 30
0.0
 11
492.32327572590071
 21
368.84009204961069
 31
0.0
  0
LINE
  5
483
  8
0
  6
HIDDEN
 62
     7
 10
172.3479856342986
 20
345.84009204961069
 30
0.0
 11
172.38289576415499
 21
347.84009204961069
 31
0.0
  0
LINE
  5
484
  8
0
  6
HIDDEN
 62
     7
 10
322.1178058940115
 20
345.84009204961069
 30
0.0
 11
322.08289576415513
 21
347.84009204961069
 31
0.0
  0
LINE
  5
485
  8
0
  6
HIDDEN
 62
     7
 10
343.44798563429862
 20
345.84009204961069
 30
0.0
 11
343.4828957641551
 21
347.84009204961069
 31
0.0
  0
LINE
  5
486
  8
0
  6
HIDDEN
 62
     7
 10
493.21780589401158
 20
345.84009204961069
 30
0.0
 11
493.18289576415509
 21
347.84009204961069
 31
0.0
  0
LINE
  5
560
  8
L1
  6
HIDDEN
 62
     1
 10
344.24253103289402
 20
368.84009204961069
 30
0.0
 11
321.32326049541621
 21
368.84009204961069
 31
0.0
  0
LINE
  5
5A7
  8
L1
  6
HIDDEN
 62
     1
 10
173.14253103289391
 20
368.84009204961069
 30
0.0
 11
163.9828957641551
 21
368.84009204961069
 31
0.0
  0
LINE
  5
5A8
  8
L1
  6
HIDDEN
 62
     1
 10
501.58289576415513
 20
368.84009204961058
 30
0.0
 11
492.42326049541629
 21
368.84009204961058
 31
0.0
  0
LINE
  5
5C4
  8
L1
  6
HIDDEN
 62
     1
 10
158.04259195483141
 20
368.44707301218551
 30
0.0
 11
157.68289576415509
 21
347.84009204961069
 31
0.0
  0
LINE
  5
5C5
  8
L1
  6
HIDDEN
 62
     1
 10
507.88289576415502
 20
347.84009204961058
 30
0.0
 11
507.52319957347879
 21
368.44707301218551
 31
0.0
  0
LINE
  5
5C6
  8
L1
  6
HIDDEN
 62
     1
 10
163.9828957641551
 20
368.84009204961069
 30
0.0
 11
158.5425158024095
 21
368.84009204961069
 31
0.0
  0
ARC
  5
5C7
  8
L1
  6
HIDDEN
 62
     1
 10
158.4425310328939
 20
368.4400920496106
 30
0.0
 40
0.4000000000000166
 50
90.000000000000398
 51
179.00000000000171
  0
LINE
  5
5C8
  8
L1
  6
HIDDEN
 62
     1
 10
158.5425158024095
 20
368.84009204961069
 30
0.0
 11
158.4425310328939
 21
368.84009204961069
 31
0.0
  0
LINE
  5
5C9
  8
L1
  6
HIDDEN
 62
     1
 10
507.02327572590048
 20
368.84009204961058
 30
0.0
 11
501.58289576415513
 21
368.84009204961058
 31
0.0
  0
ARC
  5
5CA
  8
L1
  6
HIDDEN
 62
     1
 10
507.12326049541622
 20
368.4400920496106
 30
0.0
 40
0.4000000000000166
 50
0.9999999999990727
 51
90.000000000000398
  0
LINE
  5
5CB
  8
L1
  6
HIDDEN
 62
     1
 10
507.12326049541622
 20
368.84009204961058
 30
0.0
 11
507.02327572590048
 21
368.84009204961058
 31
0.0
  0
LINE
  5
5CC
  8
0
  6
HIDDEN
 62
     7
 10
157.64798563429861
 20
345.84009204961069
 30
0.0
 11
157.68289576415509
 21
347.84009204961069
 31
0.0
  0
LINE
  5
5CD
  8
0
  6
HIDDEN
 62
     7
 10
507.91780589401139
 20
345.84009204961058
 30
0.0
 11
507.88289576415502
 21
347.84009204961058
 31
0.0
  0
LINE
  5
62F
  8
L6
  6
CONTINUOUS
 10
4.2819288524410686
 20
153.3633756792731
 30
0.0
 11
4.2819288551268073
 21
253.16351429094311
 31
0.0
  0
LINE
  5
632
  8
0
  6
CONTINUOUS
 62
     7
 10
3.3517491121542662
 20
153.3633756792035
 30
0.0
 11
3.3517491121542089
 21
253.16352798411671
 31
0.0
  0
ARC
  5
635
  8
L6
  6
CONTINUOUS
 10
2.8177479339805691
 20
253.16436076996499
 30
0.0
 40
1.4641811658314501
 50
359.9668759035481
 51
90.032588837793554
  0
ARC
  5
637
  8
0
  6
CONTINUOUS
 62
     7
 10
2.816077201923064
 20
253.162690051319
 30
0.0
 40
0.5356725656065573
 50
0.0896257069827021
 51
89.910374285684341
  0
LINE
  5
63B
  8
0
  6
CONTINUOUS
 62
     7
 10
2.816915134789383
 20
253.6983619615514
 30
0.0
 11
-2.9831610177020589
 21
253.6983619615514
 31
0.0
  0
LINE
  5
63F
  8
L6
  6
CONTINUOUS
 10
2.816915134719693
 20
254.6285417018384
 30
0.0
 11
-2.9831610177019452
 21
254.6285417018384
 31
0.0
  0
LINE
  5
641
  8
L6
  6
CONTINUOUS
 10
-10.41807114755869
 20
262.06345183169469
 30
0.0
 11
-10.418071144873061
 21
277.8635142909431
 31
0.0
  0
LINE
  5
643
  8
0
  6
CONTINUOUS
 62
     7
 10
-11.34825088784566
 20
262.06345183169498
 30
0.0
 11
-11.34825088784566
 21
277.86352798411667
 31
0.0
  0
LINE
  5
647
  8
L6
  6
CONTINUOUS
 10
-181.5180711475588
 20
274.21345183169478
 30
0.0
 11
-181.5180711448732
 21
277.8635142909406
 31
0.0
  0
LINE
  5
649
  8
L6
  6
CONTINUOUS
 10
-162.04825088784551
 20
277.86352798411679
 30
0.0
 11
-162.04825088784531
 21
274.21345183169529
 31
0.0
  0
LINE
  5
64B
  8
0
  6
CONTINUOUS
 62
     7
 10
-161.11807114755851
 20
277.86352798418659
 30
0.0
 11
-161.11807114755851
 21
274.21345183169501
 31
0.0
  0
LINE
  5
64C
  8
0
  6
CONTINUOUS
 62
     7
 10
-182.4482508878456
 20
274.21345183169501
 30
0.0
 11
-182.4482508878456
 21
277.86352798411667
 31
0.0
  0
ARC
  5
64D
  8
L6
  6
CONTINUOUS
 10
-11.88225206602095
 20
277.86436076996341
 30
0.0
 40
1.4641811658329851
 50
359.96687590354588
 51
90.032588839728334
  0
ARC
  5
64F
  8
L6
  6
CONTINUOUS
 10
-160.5840699559736
 20
277.8643607833805
 30
0.0
 40
1.4641811658291239
 50
89.966875860936995
 51
180.0325887852874
  0
ARC
  5
651
  8
L6
  6
CONTINUOUS
 10
-182.98225206600441
 20
277.8643607699795
 30
0.0
 40
1.464181165816439
 50
359.96687590291941
 51
90.032588813972225
  0
ARC
  5
657
  8
0
  6
CONTINUOUS
 62
     7
 10
-11.88392279805128
 20
277.86269005133869
 30
0.0
 40
0.5356725655867363
 50
0.0896257048762462
 51
89.910374288384531
  0
ARC
  5
659
  8
0
  6
CONTINUOUS
 62
     7
 10
-182.98392279806711
 20
277.86269005132692
 30
0.0
 40
0.5356725655986409
 50
0.0896257061419288
 51
89.910374286733514
  0
ARC
  5
65B
  8
0
  6
CONTINUOUS
 62
     7
 10
-160.58239923734681
 20
277.86269005133698
 30
0.0
 40
0.5356725655884553
 50
90.089625704784495
 51
179.91037428746401
  0
LINE
  5
65D
  8
0
  6
CONTINUOUS
 62
     7
 10
-182.9830848652106
 20
278.39836196155142
 30
0.0
 11
-331.6832371701239
 21
278.39836196155142
 31
0.0
  0
LINE
  5
65E
  8
0
  6
CONTINUOUS
 62
     7
 10
-11.88308486521032
 20
278.3983619615513
 30
0.0
 11
-160.58323717012391
 21
278.39836196155142
 31
0.0
  0
LINE
  5
65F
  8
L6
  6
CONTINUOUS
 10
-11.8830848652804
 20
279.3285417018385
 30
0.0
 11
-160.5832234769465
 21
279.32854170452401
 31
0.0
  0
LINE
  5
661
  8
L6
  6
CONTINUOUS
 10
-182.98308486528049
 20
279.32854170183828
 30
0.0
 11
-331.68322347694789
 21
279.3285417045239
 31
0.0
  0
ARC
  5
664
  8
0
  6
CONTINUOUS
 62
     7
 10
-2.9831610177021162
 20
262.06345183169498
 30
0.0
 40
8.3650898701436063
 50
180.00000000000071
 51
270.0
  0
ARC
  5
665
  8
0
  6
CONTINUOUS
 62
     7
 10
-171.7831610177021
 20
274.21345183169501
 30
0.0
 40
10.665089870143561
 50
180.00000000000071
 51
0.0
  0
ARC
  5
66B
  8
L6
  6
CONTINUOUS
 10
-171.7831610177021
 20
274.21345183169501
 30
0.0
 40
9.7349101298567575
 50
180.00000000000179
 51
0.000000000001832
  0
ARC
  5
66C
  8
L6
  6
CONTINUOUS
 10
-2.9831610177021162
 20
262.06345183169498
 30
0.0
 40
7.4349101298566316
 50
180.0000000000021
 51
270.0
  0
ARC
  5
675
  8
L6
  6
CONTINUOUS
 10
-182.9842325211776
 20
277.86303495205271
 30
0.0
 40
5.0010715277780919
 50
0.0056485207749064
 51
55.075551749508762
  0
LINE
  5
676
  8
L6
  6
CONTINUOUS
 10
-177.98316101770271
 20
274.21345183169439
 30
0.0
 11
-177.98316101770271
 21
277.86352798411571
 31
0.0
  0
ARC
  5
677
  8
L6
  6
CONTINUOUS
 10
-171.7831610177021
 20
274.21345183169501
 30
0.0
 40
6.200000000000613
 50
180.000000000006
 51
0.0000000000057632
  0
LINE
  5
678
  8
L6
  6
CONTINUOUS
 10
-165.58316101770151
 20
277.8635279841173
 30
0.0
 11
-165.58316101770151
 21
274.21345183169558
 31
0.0
  0
ARC
  5
679
  8
L6
  6
CONTINUOUS
 10
-160.5844576646779
 20
277.86401139470013
 30
0.0
 40
4.9987033763985389
 50
124.9051185335267
 51
180.00554091413409
  0
LINE
  5
67A
  8
L6
  6
CONTINUOUS
 10
-180.1211401651579
 20
281.9634518316949
 30
0.0
 11
-163.444811410065
 21
281.9634518316949
 31
0.0
  0
LINE
  5
69D
  8
L6
  6
CONTINUOUS
 10
7.0168389822977701
 20
253.16352798411671
 30
0.0
 11
7.0168389822973154
 21
153.36337567927481
 31
0.0
  0
ARC
  5
69E
  8
L6
  6
CONTINUOUS
 10
2.8167020251880208
 20
253.1633148745849
 30
0.0
 40
4.2001369625164546
 50
0.0029071139484029
 51
90.000000000000398
  0
LINE
  5
69F
  8
L6
  6
CONTINUOUS
 10
2.816915134717874
 20
257.36345183169482
 30
0.0
 11
-2.983161017703821
 21
257.36345183169482
 31
0.0
  0
ARC
  5
6A0
  8
L6
  6
CONTINUOUS
 10
-2.9831610177021162
 20
262.06345183169498
 30
0.0
 40
4.7000000000001592
 50
179.99999999997999
 51
270.0000000000008
  0
LINE
  5
6A1
  8
L6
  6
CONTINUOUS
 10
-7.6831610177022176
 20
262.06345183169668
 30
0.0
 11
-7.6831610177022176
 21
277.86352798411838
 31
0.0
  0
ARC
  5
6A2
  8
L6
  6
CONTINUOUS
 10
-11.883297974809521
 20
277.86331487458767
 30
0.0
 40
4.2001369625138691
 50
0.002907113935986
 51
90.000000000000398
  0
LINE
  5
6A3
  8
L6
  6
CONTINUOUS
 10
-11.88308486528239
 20
282.06345183169458
 30
0.0
 11
-160.5832371701259
 21
282.06345183169481
 31
0.0
  0
ARC
  5
6A4
  8
L6
  6
CONTINUOUS
 10
-160.58302406059781
 20
277.8633148745904
 30
0.0
 40
4.2001369625109701
 50
90.000000000000398
 51
179.99709288615441
  0
LINE
  5
6A5
  8
L6
  6
CONTINUOUS
 10
-164.78316101770179
 20
277.86352798411491
 30
0.0
 11
-164.78316101770179
 21
274.21345183169319
 31
0.0
  0
ARC
  5
6A6
  8
L6
  6
CONTINUOUS
 10
-171.7831610177021
 20
274.21345183169501
 30
0.0
 40
7.0000000000002842
 50
179.99999999998491
 51
359.9999999999846
  0
LINE
  5
6A7
  8
L6
  6
CONTINUOUS
 10
-178.78316101770241
 20
274.21345183169689
 30
0.0
 11
-178.78316101770241
 21
277.86352798411872
 31
0.0
  0
ARC
  5
6A8
  8
L6
  6
CONTINUOUS
 10
-182.9832979748079
 20
277.86331487458858
 30
0.0
 40
4.2001369625125902
 50
0.0029071139278565
 51
90.000000000000398
  0
LINE
  5
6A9
  8
L6
  6
CONTINUOUS
 10
-182.98308486528279
 20
282.06345183169458
 30
0.0
 11
-331.68323717012618
 21
282.06345183169458
 31
0.0
  0
LINE
  5
6B9
  8
0
  6
CONTINUOUS
 62
     7
 10
-345.88316101770198
 20
283.3634518316951
 30
0.0
 11
2.3168389822978952
 21
283.36345183169487
 31
0.0
  0
ARC
  5
6BA
  8
0
  6
CONTINUOUS
 62
     7
 10
2.3168389822978379
 20
277.36345183169487
 30
0.0
 40
6.000000000000056
 50
0.0
 51
90.000000000000398
  0
LINE
  5
6BB
  8
0
  6
CONTINUOUS
 62
     7
 10
8.3168389822978384
 20
277.36345183169482
 30
0.0
 11
8.3168389822978384
 21
129.163451831695
 31
0.0
  0
ARC
  5
6BD
  8
L6
  6
CONTINUOUS
 10
2.3168389822978379
 20
277.36345183169487
 30
0.0
 40
4.6000000000000512
 50
0.0
 51
90.000000000000398
  0
LINE
  5
6BE
  8
L6
  6
CONTINUOUS
 10
-9.0211401651577034
 20
281.9634518316949
 30
0.0
 11
2.3168389822978952
 21
281.96345183169501
 31
0.0
  0
ARC
  5
6BF
  8
L6
  6
CONTINUOUS
 10
-11.884232521165639
 20
277.86303495205863
 30
0.0
 40
5.0010715277665287
 50
0.0056485207003161
 51
55.075551749582452
  0
LINE
  5
6C0
  8
L6
  6
CONTINUOUS
 10
-6.883161017702661
 20
262.0634518316939
 30
0.0
 11
-6.883161017702661
 21
277.86352798411502
 31
0.0
  0
ARC
  5
6C1
  8
L6
  6
CONTINUOUS
 10
-2.9831610177021162
 20
262.06345183169498
 30
0.0
 40
3.9000000000005741
 50
180.0000000000162
 51
270.0
  0
LINE
  5
6C2
  8
L6
  6
CONTINUOUS
 10
2.8169151347214552
 20
258.1634518316946
 30
0.0
 11
-2.9831610177008652
 21
258.16345183169432
 31
0.0
  0
ARC
  5
6C3
  8
L6
  6
CONTINUOUS
 10
2.8173985452992261
 20
253.1647484786634
 30
0.0
 40
4.9987033764058904
 50
34.905118533506602
 51
90.000000000000398
  0
LINE
  5
6C4
  8
L6
  6
CONTINUOUS
 10
6.916838982297917
 20
277.36345183169482
 30
0.0
 11
6.9168389823009298
 21
256.02510222405351
 31
0.0
  0
LINE
  5
71E
  8
L6
  6
CONTINUOUS
 10
6.9116024628195873
 20
276.163451831695
 30
0.0
 11
6.9116024628194728
 21
273.35935192461392
 31
0.0
  0
LINE
  5
729
  8
L6
  6
CONTINUOUS
 10
-6.8779244982242744
 20
272.83474429760889
 30
0.0
 11
-6.8779244982239334
 21
277.86352798411502
 31
0.0
  0
LINE
  5
732
  8
L6
  6
CONTINUOUS
 10
-165.5883975371801
 20
276.66352798411612
 30
0.0
 11
-165.58839753717999
 21
274.21345183169558
 31
0.0
  0
ARC
  5
7A1
  8
L6
  6
CONTINUOUS
 10
-0.8331610177021389
 20
274.21345183169501
 30
0.0
 40
6.2000000000000277
 50
192.8484010227215
 51
352.99016237549722
  0
LINE
  5
7A3
  8
L6
  6
CONTINUOUS
 10
-3.7220626294924841
 20
277.21717620138361
 30
0.0
 11
-2.3974932430487002
 21
274.92295472591252
 31
0.0
  0
ARC
  5
7A4
  8
L6
  6
CONTINUOUS
 10
-0.8331610177021389
 20
274.21345183169501
 30
0.0
 40
1.7177105891742179
 50
155.60333155206919
 51
178.69984646237941
  0
LINE
  5
7A5
  8
L6
  6
CONTINUOUS
 10
-1.658041966912662
 20
272.70676636757491
 30
0.0
 11
-2.550429379748095
 21
274.25242670664079
 31
0.0
  0
ARC
  5
7A6
  8
L6
  6
CONTINUOUS
 10
-0.8331610177021389
 20
274.21345183169501
 30
0.0
 40
1.7177105891742459
 50
241.30015353762309
 51
264.39666844792907
  0
LINE
  5
7A7
  8
L6
  6
CONTINUOUS
 10
-1.00087959992436
 20
272.50394893747728
 30
0.0
 11
0.3236897865194237
 21
270.20972746200641
 31
0.0
  0
LINE
  5
7A8
  8
L6
  6
CONTINUOUS
 10
0.3347688996205989
 20
270.21273298836979
 30
0.0
 11
0.3236897865194237
 21
270.20972746200641
 31
0.0
  0
ARC
  5
7A9
  8
L6
  6
CONTINUOUS
 10
-0.8331610177021389
 20
274.21345183169501
 30
0.0
 40
4.1677105891742219
 50
286.27410958493903
 51
313.72589041506097
  0
LINE
  5
7AA
  8
L6
  6
CONTINUOUS
 10
2.0557405940882632
 20
271.20972746200641
 30
0.0
 11
2.0475981753552901
 21
271.20163543179098
 31
0.0
  0
LINE
  5
7AB
  8
L6
  6
CONTINUOUS
 10
2.0557405940882632
 20
271.20972746200641
 30
0.0
 11
0.7311712076445361
 21
273.50394893747739
 31
0.0
  0
ARC
  5
7AC
  8
L6
  6
CONTINUOUS
 10
-0.8331610177021389
 20
274.21345183169501
 30
0.0
 40
1.7177105891742179
 50
335.60333155206308
 51
358.6998464623785
  0
LINE
  5
7AD
  8
L6
  6
CONTINUOUS
 10
-0.0082800684915014
 20
275.72013729581488
 30
0.0
 11
0.8841073443439314
 21
274.17447695674917
 31
0.0
  0
ARC
  5
7AE
  8
L6
  6
CONTINUOUS
 10
-0.8331610177021389
 20
274.21345183169501
 30
0.0
 40
1.7177105891741711
 50
61.30015353762095
 51
84.396668447924696
  0
LINE
  5
7AF
  8
L6
  6
CONTINUOUS
 10
-0.6654424354798039
 20
275.92295472591258
 30
0.0
 11
-1.9900118219235869
 21
278.2171762013835
 31
0.0
  0
LINE
  5
7B0
  8
L6
  6
CONTINUOUS
 10
-2.0010909350247621
 20
278.21417067502023
 30
0.0
 11
-1.9900118219235869
 21
278.2171762013835
 31
0.0
  0
ARC
  5
7B1
  8
L6
  6
CONTINUOUS
 10
-0.8331610177021389
 20
274.21345183169501
 30
0.0
 40
4.1677105891741801
 50
106.2741095849391
 51
133.7258904150618
  0
LINE
  5
7B2
  8
L6
  6
CONTINUOUS
 10
-3.7220626294924841
 20
277.21717620138361
 30
0.0
 11
-3.7139202107593969
 21
277.22526823159882
 31
0.0
  0
ARC
  5
7B3
  8
L6
  6
CONTINUOUS
 10
6.113064429112284
 20
273.35935192461409
 30
0.0
 40
0.7985380337072666
 50
0.0
 51
172.9901623755004
  0
ARC
  5
7B4
  8
L6
  6
CONTINUOUS
 10
-6.4115119993114709
 20
277.86352798591872
 30
0.0
 40
0.4664124989124617
 50
180.0000002215701
 51
326.8021175436802
  0
ARC
  5
7B5
  8
L6
  6
CONTINUOUS
 10
-0.8331610177021389
 20
274.21345183169501
 30
0.0
 40
6.1999999999999984
 50
15.920950253694251
 51
146.80211754367559
  0
ARC
  5
7B6
  8
L6
  6
CONTINUOUS
 10
6.0028792204130346
 20
276.16345183169489
 30
0.0
 40
0.9087232424065518
 50
195.92095025369321
 51
0.0000000000071626
  0
LINE
  5
7CB
  8
L6
  6
CONTINUOUS
 10
-170.8817731988361
 20
275.71345183169501
 30
0.0
 11
-172.6845488365681
 21
275.71345183169501
 31
0.0
  0
ARC
  5
7CC
  8
L6
  6
CONTINUOUS
 10
-171.7831610177021
 20
274.21345183169501
 30
0.0
 40
1.7499999999999709
 50
121.0027191338731
 51
145.15009542095359
  0
LINE
  5
7CD
  8
L6
  6
CONTINUOUS
 10
-173.21930167933661
 20
275.21345183169501
 30
0.0
 11
-175.8623766285763
 21
275.21345183169501
 31
0.0
  0
ARC
  5
7CE
  8
L6
  6
CONTINUOUS
 10
-171.7831610177021
 20
274.21345183169501
 30
0.0
 40
4.1999999999999726
 50
166.22585300197389
 51
193.77414699802759
  0
LINE
  5
7CF
  8
L6
  6
CONTINUOUS
 10
-175.8623766285763
 20
273.21345183169501
 30
0.0
 11
-173.21930167933661
 21
273.21345183169501
 31
0.0
  0
ARC
  5
7D0
  8
L6
  6
CONTINUOUS
 10
-171.7831610177021
 20
274.21345183169501
 30
0.0
 40
1.7499999999999949
 50
214.84990457904729
 51
238.99728086612879
  0
LINE
  5
7D1
  8
L6
  6
CONTINUOUS
 10
-172.6845488365681
 20
272.71345183169501
 30
0.0
 11
-170.8817731988361
 21
272.71345183169501
 31
0.0
  0
ARC
  5
7D2
  8
L6
  6
CONTINUOUS
 10
-171.7831610177021
 20
274.21345183169501
 30
0.0
 40
1.75000000000001
 50
301.00271913387269
 51
325.15009542095379
  0
LINE
  5
7D3
  8
L6
  6
CONTINUOUS
 10
-170.34702035606759
 20
273.21345183169501
 30
0.0
 11
-167.7039454068279
 21
273.21345183169501
 31
0.0
  0
ARC
  5
7D4
  8
L6
  6
CONTINUOUS
 10
-171.7831610177021
 20
274.21345183169501
 30
0.0
 40
4.2000000000000277
 50
346.22585300197329
 51
13.77414699802662
  0
LINE
  5
7D5
  8
L6
  6
CONTINUOUS
 10
-167.7039454068279
 20
275.21345183169501
 30
0.0
 11
-170.34702035606759
 21
275.21345183169501
 31
0.0
  0
ARC
  5
7D6
  8
L6
  6
CONTINUOUS
 10
-171.7831610177021
 20
274.21345183169501
 30
0.0
 40
1.750000000000002
 50
34.849904579046402
 51
58.997280866124029
  0
ARC
  5
7D7
  8
L6
  6
CONTINUOUS
 10
-171.7831610177021
 20
274.21345183169501
 30
0.0
 40
6.6616790475278806
 50
21.579174533861881
 51
158.42082546614179
  0
LINE
  5
813
  8
L6
  6
CONTINUOUS
 10
0.3236897865194237
 20
270.20972746200641
 30
0.0
 11
0.3221192475979251
 21
270.20581521594261
 31
0.0
  0
LINE
  5
836
  8
L6
  6
CONTINUOUS
 10
-1.9900118219235869
 20
278.2171762013835
 30
0.0
 11
-1.988441283002089
 21
278.22108844744719
 31
0.0
  0
LINE
  5
AB9
  8
0
  6
CONTINUOUS
 62
     7
 10
599.16152512436588
 20
129.1634518316948
 30
0.0
 11
599.16152512436588
 21
277.36345183169482
 31
0.0
  0
LINE
  5
ABA
  8
0
  6
CONTINUOUS
 62
     7
 10
575.76128143661617
 20
277.36345183169482
 30
0.0
 11
575.76128143661617
 21
129.1634518316948
 31
0.0
  0
LINE
  5
ABB
  8
0
  6
CONTINUOUS
 62
     7
 10
599.16152512436588
 20
282.95499905878899
 30
0.0
 11
575.76128143661617
 21
283.36345183169482
 31
0.0
  0
LINE
  5
ABC
  8
0
  6
CONTINUOUS
 62
     7
 10
599.16152512436588
 20
277.36345183169482
 30
0.0
 11
599.16152512436588
 21
282.95499905878899
 31
0.0
  0
LINE
  5
ABD
  8
0
  6
CONTINUOUS
 62
     7
 10
575.76128143661617
 20
283.36345183169482
 30
0.0
 11
575.76128143661617
 21
277.36345183169482
 31
0.0
  0
LINE
  5
AC1
  8
0
  6
CONTINUOUS
 62
     7
 10
600.76128143661617
 20
277.36345183169482
 30
0.0
 11
600.76128143661617
 21
129.1634518316948
 31
0.0
  0
LINE
  5
AC2
  8
0
  6
CONTINUOUS
 62
     7
 10
599.16152512436588
 20
282.95499905878899
 30
0.0
 11
600.76128143661617
 21
281.29840290277599
 31
0.0
  0
LINE
  5
AC3
  8
0
  6
CONTINUOUS
 62
     7
 10
600.76128143661617
 20
281.29840290277599
 30
0.0
 11
600.76128143661617
 21
277.36345183169482
 31
0.0
  0
LINE
  5
ACA
  8
0
  6
CONTINUOUS
 62
     7
 10
573.76128143661606
 20
153.3633756792731
 30
0.0
 11
573.76128143661606
 21
253.1635142909391
 31
0.0
  0
LINE
  5
ACD
  8
0
  6
CONTINUOUS
 62
     7
 10
573.76128143661606
 20
279.32854170183811
 30
0.0
 11
575.76128143661617
 21
279.36345183169448
 31
0.0
  0
LINE
  5
ACE
  8
0
  6
CONTINUOUS
 62
     7
 10
573.76128143661606
 20
277.86351429093952
 30
0.0
 11
573.76128143661606
 21
279.32854169895489
 31
0.0
  0
LINE
  5
AD1
  8
0
  6
CONTINUOUS
 62
     7
 10
573.76128143661606
 20
253.6983619615512
 30
0.0
 11
573.76128143661606
 21
277.86351429093997
 31
0.0
  0
LINE
  5
B6A
  8
L1
  6
HIDDEN
 62
     1
 10
596.36826239919105
 20
253.3037556410184
 30
0.0
 11
573.76128143661606
 21
253.6983619615512
 31
0.0
  0
LINE
  5
B86
  8
L1
  6
HIDDEN
 62
     1
 10
596.76128143661606
 20
153.72307186994931
 30
0.0
 11
596.76128143661606
 21
252.80383179344031
 31
0.0
  0
LINE
  5
B89
  8
L1
  6
HIDDEN
 62
     1
 10
596.76128143661606
 20
252.80383179344031
 30
0.0
 11
596.76128143661606
 21
252.90381656295591
 31
0.0
  0
ARC
  5
B8A
  8
L1
  6
HIDDEN
 62
     1
 10
596.3612814366162
 20
252.90381656295591
 30
0.0
 40
0.3999999999999872
 50
0.0
 51
89.000000000007759
  0
LINE
  5
C22
  8
L1
  6
HIDDEN
 62
     1
 10
596.76128143661606
 20
252.90381656295591
 30
0.0
 11
596.76128143661606
 21
262.06345183169469
 31
0.0
  0
LINE
  5
C35
  8
L1
  6
HIDDEN
 62
     1
 10
596.36826239919105
 20
278.00375564101842
 30
0.0
 11
575.76128143661617
 21
278.36345183169482
 31
0.0
  0
LINE
  5
C39
  8
L1
  6
HIDDEN
 62
     1
 10
596.76128143661606
 20
262.06345183169469
 30
0.0
 11
596.76128143661606
 21
277.50383179344033
 31
0.0
  0
ARC
  5
C3B
  8
L1
  6
HIDDEN
 62
     1
 10
596.3612814366162
 20
277.6038165629559
 30
0.0
 40
0.3999999999999872
 50
0.0
 51
89.000000000007759
  0
LINE
  5
C3C
  8
L1
  6
HIDDEN
 62
     1
 10
596.76128143661606
 20
277.50383179344033
 30
0.0
 11
596.76128143661606
 21
277.6038165629559
 31
0.0
  0
LINE
  5
C3D
  8
0
  6
HIDDEN
 62
     7
 10
573.76128143661606
 20
278.39836196155119
 30
0.0
 11
575.76128143661617
 21
278.3634518316947
 31
0.0
  0
ARC
  5
CB1
  8
L1
  6
HIDDEN
 62
     1
 10
596.3612814366162
 20
262.75381656295588
 30
0.0
 40
0.4000000000000157
 50
0.0
 51
89.000000000007759
  0
LINE
  5
CB3
  8
L1
  6
HIDDEN
 62
     1
 10
573.76128143661606
 20
263.54836196155128
 30
0.0
 11
596.36826239919105
 21
263.15375564101851
 31
0.0
  0
ARC
  5
FD8
  8
0
  6
CONTINUOUS
 62
     7
 10
-2.983161017702173
 20
144.4634518316949
 30
0.0
 40
8.3650898701436063
 50
89.999999999999986
 51
179.99999999999909
  0
LINE
  5
FD9
  8
L6
  6
CONTINUOUS
 10
2.0557405940882059
 20
135.31717620138349
 30
0.0
 11
0.7311712076444792
 21
133.0229547259126
 31
0.0
  0
LINE
  5
FDA
  8
L6
  6
CONTINUOUS
 10
-1.0008795999244171
 20
134.0229547259126
 30
0.0
 11
0.3236897865193669
 21
136.31717620138349
 31
0.0
  0
ARC
  5
FDB
  8
L6
  6
CONTINUOUS
 10
-0.8331610177021958
 20
132.31345183169489
 30
0.0
 40
6.2000000000000277
 50
7.0098376245027376
 51
167.1515989772783
  0
LINE
  5
FDC
  8
L6
  6
CONTINUOUS
 10
6.9168389822978611
 20
129.163451831695
 30
0.0
 11
6.9168389823008729
 21
150.50180143933639
 31
0.0
  0
LINE
  5
FDD
  8
L6
  6
CONTINUOUS
 10
-6.8831610177027178
 20
144.46345183169601
 30
0.0
 11
-6.8831610177027178
 21
128.66337567927491
 31
0.0
  0
LINE
  5
FDE
  8
L6
  6
CONTINUOUS
 10
-7.6831610177022753
 20
144.46345183169319
 30
0.0
 11
-7.6831610177022753
 21
128.6633756792715
 31
0.0
  0
LINE
  5
FDF
  8
0
  6
CONTINUOUS
 62
     7
 10
-11.348250887845721
 20
144.4634518316949
 30
0.0
 11
-11.348250887845721
 21
128.66337567927309
 31
0.0
  0
LINE
  5
FE0
  8
L6
  6
CONTINUOUS
 10
-10.41807114755874
 20
144.4634518316951
 30
0.0
 11
-10.418071144873119
 21
128.6633893724468
 31
0.0
  0
ARC
  5
FE1
  8
L6
  6
CONTINUOUS
 10
-0.8331610177021958
 20
132.31345183169489
 30
0.0
 40
6.1999999999999984
 50
213.19788245632429
 51
344.07904974630571
  0
ARC
  5
FE2
  8
L6
  6
CONTINUOUS
 10
-0.8331610177021958
 20
132.31345183169489
 30
0.0
 40
1.7177105891741711
 50
275.6033315520753
 51
298.69984646237901
  0
LINE
  5
FE3
  8
L6
  6
CONTINUOUS
 10
-9.0211401651577603
 20
124.56345183169501
 30
0.0
 11
2.3168389822978379
 21
124.56345183169491
 31
0.0
  0
ARC
  5
FE4
  8
L6
  6
CONTINUOUS
 10
-11.8842325211657
 20
128.6638687113313
 30
0.0
 40
5.0010715277665287
 50
304.92444825041753
 51
359.99435147929961
  0
ARC
  5
FE5
  8
L6
  6
CONTINUOUS
 10
-11.883297974809571
 20
128.66358878880209
 30
0.0
 40
4.2001369625138691
 50
269.9999999999996
 51
359.99709288606402
  0
ARC
  5
FE6
  8
L6
  6
CONTINUOUS
 10
-6.4115119993115277
 20
128.66337567747121
 30
0.0
 40
0.4664124989124617
 50
33.197882456319732
 51
179.9999997784299
  0
LINE
  5
FE7
  8
L6
  6
CONTINUOUS
 10
-6.8779244982243313
 20
133.6921593657809
 30
0.0
 11
-6.8779244982239902
 21
128.66337567927491
 31
0.0
  0
ARC
  5
FE8
  8
0
  6
CONTINUOUS
 62
     7
 10
-11.883922798051341
 20
128.6642136120511
 30
0.0
 40
0.5356725655867363
 50
270.08962571161538
 51
359.91037429512369
  0
ARC
  5
FE9
  8
L6
  6
CONTINUOUS
 10
-11.88225206602101
 20
128.66254289342641
 30
0.0
 40
1.4641811658329851
 50
269.96741116027169
 51
0.0331240964540328
  0
LINE
  5
FEA
  8
L6
  6
CONTINUOUS
 10
-3.7220626294925401
 20
129.30972746200641
 30
0.0
 11
-2.3974932430487561
 21
131.60394893747741
 31
0.0
  0
LINE
  5
FEB
  8
L6
  6
CONTINUOUS
 10
-1.990011821923644
 20
128.30972746200641
 30
0.0
 11
-1.9884412830021461
 21
128.3058152159426
 31
0.0
  0
LINE
  5
FEC
  8
L6
  6
CONTINUOUS
 10
-3.7220626294925401
 20
129.30972746200641
 30
0.0
 11
-3.7139202107594542
 21
129.301635431791
 31
0.0
  0
ARC
  5
FED
  8
L6
  6
CONTINUOUS
 10
-0.8331610177021958
 20
132.31345183169489
 30
0.0
 40
4.1677105891741801
 50
226.27410958493809
 51
253.7258904150608
  0
LINE
  5
FEE
  8
L6
  6
CONTINUOUS
 10
-2.0010909350248189
 20
128.3127329883697
 30
0.0
 11
-1.990011821923644
 21
128.30972746200641
 31
0.0
  0
LINE
  5
FEF
  8
L6
  6
CONTINUOUS
 10
-0.6654424354798607
 20
130.6039489374773
 30
0.0
 11
-1.990011821923644
 21
128.30972746200641
 31
0.0
  0
ARC
  5
FF0
  8
L6
  6
CONTINUOUS
 10
-0.8331610177021958
 20
132.31345183169489
 30
0.0
 40
1.7177105891742459
 50
95.603331552070856
 51
118.6998464623768
  0
LINE
  5
FF1
  8
L6
  6
CONTINUOUS
 10
-1.6580419669127191
 20
133.82013729581499
 30
0.0
 11
-2.5504293797481519
 21
132.27447695674911
 31
0.0
  0
ARC
  5
FF2
  8
L6
  6
CONTINUOUS
 10
-0.8331610177021958
 20
132.31345183169489
 30
0.0
 40
1.7177105891742179
 50
181.3001535376205
 51
204.39666844793069
  0
ARC
  5
FF3
  8
L6
  6
CONTINUOUS
 10
2.3168389822977811
 20
129.163451831695
 30
0.0
 40
4.6000000000000512
 50
269.9999999999996
 51
0.0
  0
ARC
  5
FF4
  8
0
  6
CONTINUOUS
 62
     7
 10
2.3168389822977811
 20
129.163451831695
 30
0.0
 40
6.000000000000056
 50
269.9999999999996
 51
0.0
  0
ARC
  5
FF5
  8
L6
  6
CONTINUOUS
 10
6.0028792204129777
 20
130.3634518316949
 30
0.0
 40
0.9087232424065518
 50
359.99999999999278
 51
164.07904974630671
  0
ARC
  5
FF6
  8
L6
  6
CONTINUOUS
 10
6.113064429112228
 20
133.1675517387759
 30
0.0
 40
0.7985380337072666
 50
187.0098376244996
 51
0.0
  0
LINE
  5
FF7
  8
L6
  6
CONTINUOUS
 10
-0.0082800684915583
 20
130.80676636757491
 30
0.0
 11
0.8841073443438745
 21
132.35242670664081
 31
0.0
  0
ARC
  5
FF8
  8
L6
  6
CONTINUOUS
 10
-0.8331610177021958
 20
132.31345183169489
 30
0.0
 40
1.7177105891742179
 50
1.3001535376214111
 51
24.396668447936779
  0
LINE
  5
FF9
  8
L6
  6
CONTINUOUS
 10
6.9116024628195296
 20
130.36345183169479
 30
0.0
 11
6.9116024628194159
 21
133.1675517387759
 31
0.0
  0
ARC
  5
FFA
  8
L6
  6
CONTINUOUS
 10
2.8167020251880208
 20
153.363588788805
 30
0.0
 40
4.2001369625164546
 50
269.9999999999996
 51
359.99709288605152
  0
ARC
  5
FFB
  8
L6
  6
CONTINUOUS
 10
-2.983161017702173
 20
144.4634518316949
 30
0.0
 40
7.4349101298566316
 50
89.999999999999986
 51
179.99999999999781
  0
LINE
  5
FFC
  8
L6
  6
CONTINUOUS
 10
2.8169151347213979
 20
148.3634518316953
 30
0.0
 11
-2.983161017700922
 21
148.3634518316955
 31
0.0
  0
LINE
  5
FFD
  8
L6
  6
CONTINUOUS
 10
2.8169151347178172
 20
149.16345183169511
 30
0.0
 11
-2.9831610177038779
 21
149.16345183169511
 31
0.0
  0
ARC
  5
FFE
  8
L6
  6
CONTINUOUS
 10
-2.983161017702173
 20
144.4634518316949
 30
0.0
 40
3.9000000000005741
 50
89.999999999999986
 51
179.99999999998369
  0
ARC
  5
FFF
  8
L6
  6
CONTINUOUS
 10
-2.983161017702173
 20
144.4634518316949
 30
0.0
 40
4.7000000000001592
 50
89.999999999999204
 51
180.0000000000199
  0
LINE
  5
1000
  8
L6
  6
CONTINUOUS
 10
0.3236897865193669
 20
136.31717620138349
 30
0.0
 11
0.3221192475978682
 21
136.32108844744729
 31
0.0
  0
LINE
  5
1001
  8
L6
  6
CONTINUOUS
 10
2.0557405940882059
 20
135.31717620138349
 30
0.0
 11
2.0475981753552328
 21
135.32526823159881
 31
0.0
  0
ARC
  5
1002
  8
L6
  6
CONTINUOUS
 10
-0.8331610177021958
 20
132.31345183169489
 30
0.0
 40
4.1677105891742219
 50
46.274109584938877
 51
73.725890415060974
  0
LINE
  5
1003
  8
L6
  6
CONTINUOUS
 10
0.334768899620542
 20
136.31417067502011
 30
0.0
 11
0.3236897865193669
 21
136.31717620138349
 31
0.0
  0
ARC
  5
1004
  8
L6
  6
CONTINUOUS
 10
2.8173985452992261
 20
153.36215518472639
 30
0.0
 40
4.9987033764058904
 50
269.9999999999996
 51
325.09488146649329
  0
LINE
  5
1005
  8
L6
  6
CONTINUOUS
 10
2.8169151347196362
 20
151.89836196155139
 30
0.0
 11
-2.983161017702002
 21
151.8983619615515
 31
0.0
  0
LINE
  5
1006
  8
0
  6
CONTINUOUS
 62
     7
 10
2.8169151347893262
 20
152.8285417018385
 30
0.0
 11
-2.9831610177021162
 21
152.8285417018385
 31
0.0
  0
ARC
  5
1007
  8
0
  6
CONTINUOUS
 62
     7
 10
2.816077201923064
 20
153.3642136120709
 30
0.0
 40
0.5356725656065573
 50
270.08962571431562
 51
359.91037429301718
  0
ARC
  5
1008
  8
L6
  6
CONTINUOUS
 10
2.8177479339805691
 20
153.36254289342489
 30
0.0
 40
1.4641811658314501
 50
269.96741116220642
 51
0.0331240964518573
  0
ARC
  5
1009
  8
L6
  6
CONTINUOUS
 10
-171.7831610177021
 20
132.31345183169489
 30
0.0
 40
7.0000000000002842
 50
0.0000000000153303
 51
180.00000000001501
  0
ARC
  5
100A
  8
L6
  6
CONTINUOUS
 10
-171.78316101770221
 20
132.31345183169501
 30
0.0
 40
6.200000000000613
 50
359.99999999999409
 51
179.999999999994
  0
ARC
  5
100B
  8
L6
  6
CONTINUOUS
 10
-171.7831610177021
 20
132.31345183169489
 30
0.0
 40
9.7349101298567575
 50
359.99999999999812
 51
179.9999999999981
  0
ARC
  5
100C
  8
0
  6
CONTINUOUS
 62
     7
 10
-171.7831610177021
 20
132.31345183169489
 30
0.0
 40
10.665089870143561
 50
0.0
 51
179.99999999999909
  0
ARC
  5
100D
  8
L6
  6
CONTINUOUS
 10
-171.78316101770221
 20
132.31345183169501
 30
0.0
 40
6.6616790475278806
 50
201.57917453385821
 51
338.42082546613813
  0
LINE
  5
100E
  8
L6
  6
CONTINUOUS
 10
-175.8623766285763
 20
133.31345183169501
 30
0.0
 11
-173.21930167933661
 21
133.31345183169501
 31
0.0
  0
LINE
  5
100F
  8
L6
  6
CONTINUOUS
 10
-173.21930167933661
 20
131.31345183169501
 30
0.0
 11
-175.8623766285763
 21
131.31345183169501
 31
0.0
  0
LINE
  5
1010
  8
L6
  6
CONTINUOUS
 10
-180.1211401651579
 20
124.56345183169501
 30
0.0
 11
-163.44481141006511
 21
124.5634518316951
 31
0.0
  0
ARC
  5
1011
  8
L6
  6
CONTINUOUS
 10
-182.98329797480801
 20
128.66358878880129
 30
0.0
 40
4.2001369625125902
 50
269.9999999999996
 51
359.9970928860721
  0
ARC
  5
1012
  8
L6
  6
CONTINUOUS
 10
-182.9842325211776
 20
128.66386871133719
 30
0.0
 40
5.0010715277780919
 50
304.92444825049108
 51
359.99435147922509
  0
LINE
  5
1013
  8
0
  6
CONTINUOUS
 62
     7
 10
-182.44825088784569
 20
132.31345183169489
 30
0.0
 11
-182.44825088784569
 21
128.66337567927309
 31
0.0
  0
LINE
  5
1014
  8
L6
  6
CONTINUOUS
 10
-181.51807114755891
 20
132.31345183169509
 30
0.0
 11
-181.5180711448732
 21
128.66338937244939
 31
0.0
  0
ARC
  5
1015
  8
0
  6
CONTINUOUS
 62
     7
 10
-182.98392279806711
 20
128.66421361206301
 30
0.0
 40
0.5356725655986409
 50
270.0896257132664
 51
359.91037429385801
  0
ARC
  5
1016
  8
L6
  6
CONTINUOUS
 10
-182.98225206600449
 20
128.6625428934104
 30
0.0
 40
1.464181165816439
 50
269.96741118602768
 51
0.0331240970805766
  0
LINE
  5
1017
  8
L6
  6
CONTINUOUS
 10
-178.78316101770241
 20
132.31345183169299
 30
0.0
 11
-178.78316101770241
 21
128.66337567927121
 31
0.0
  0
LINE
  5
1018
  8
L6
  6
CONTINUOUS
 10
-177.98316101770271
 20
132.3134518316956
 30
0.0
 11
-177.98316101770271
 21
128.6633756792742
 31
0.0
  0
ARC
  5
1019
  8
L6
  6
CONTINUOUS
 10
-171.78316101770221
 20
132.31345183169501
 30
0.0
 40
4.1999999999999726
 50
166.2258530019723
 51
193.774146998026
  0
ARC
  5
101A
  8
L6
  6
CONTINUOUS
 10
-160.58302406059789
 20
128.6635887887995
 30
0.0
 40
4.2001369625109701
 50
180.00290711384551
 51
269.9999999999996
  0
ARC
  5
101B
  8
L6
  6
CONTINUOUS
 10
-160.58445766467801
 20
128.6628922686898
 30
0.0
 40
4.9987033763985389
 50
179.9944590858658
 51
235.09488146647331
  0
LINE
  5
101C
  8
L6
  6
CONTINUOUS
 10
-167.7039454068279
 20
131.31345183169501
 30
0.0
 11
-170.34702035606759
 21
131.31345183169501
 31
0.0
  0
LINE
  5
101D
  8
L6
  6
CONTINUOUS
 10
-170.34702035606759
 20
133.31345183169501
 30
0.0
 11
-167.7039454068279
 21
133.31345183169501
 31
0.0
  0
ARC
  5
101E
  8
L6
  6
CONTINUOUS
 10
-171.78316101770221
 20
132.31345183169501
 30
0.0
 40
1.750000000000002
 50
301.00271913387593
 51
325.15009542095351
  0
ARC
  5
101F
  8
L6
  6
CONTINUOUS
 10
-171.78316101770221
 20
132.31345183169501
 30
0.0
 40
1.75000000000001
 50
34.849904579046218
 51
58.997280866127241
  0
LINE
  5
1020
  8
L6
  6
CONTINUOUS
 10
-172.6845488365681
 20
133.81345183169501
 30
0.0
 11
-170.88177319883621
 21
133.81345183169501
 31
0.0
  0
ARC
  5
1021
  8
L6
  6
CONTINUOUS
 10
-171.78316101770221
 20
132.31345183169501
 30
0.0
 40
1.7499999999999949
 50
121.0027191338711
 51
145.1500954209526
  0
ARC
  5
1022
  8
L6
  6
CONTINUOUS
 10
-171.78316101770221
 20
132.31345183169501
 30
0.0
 40
1.7499999999999709
 50
214.8499045790463
 51
238.99728086612669
  0
LINE
  5
1023
  8
L6
  6
CONTINUOUS
 10
-170.88177319883621
 20
130.81345183169501
 30
0.0
 11
-172.6845488365681
 21
130.81345183169501
 31
0.0
  0
LINE
  5
1024
  8
L6
  6
CONTINUOUS
 10
-165.5883975371801
 20
129.8633756792739
 30
0.0
 11
-165.58839753717999
 21
132.31345183169441
 31
0.0
  0
LINE
  5
1025
  8
L6
  6
CONTINUOUS
 10
-164.78316101770179
 20
128.66337567927499
 30
0.0
 11
-164.78316101770179
 21
132.3134518316968
 31
0.0
  0
LINE
  5
1026
  8
L6
  6
CONTINUOUS
 10
-165.58316101770151
 20
128.6633756792726
 30
0.0
 11
-165.58316101770151
 21
132.31345183169441
 31
0.0
  0
ARC
  5
1027
  8
L6
  6
CONTINUOUS
 10
-171.78316101770221
 20
132.31345183169501
 30
0.0
 40
4.2000000000000277
 50
346.22585300197329
 51
13.77414699802662
  0
LINE
  5
1028
  8
0
  6
CONTINUOUS
 62
     7
 10
-161.1180711475586
 20
128.6633756792034
 30
0.0
 11
-161.1180711475586
 21
132.31345183169489
 31
0.0
  0
LINE
  5
1029
  8
L6
  6
CONTINUOUS
 10
-162.04825088784551
 20
128.66337567927309
 30
0.0
 11
-162.0482508878454
 21
132.31345183169461
 31
0.0
  0
ARC
  5
102A
  8
0
  6
CONTINUOUS
 62
     7
 10
-160.58239923734681
 20
128.664213612053
 30
0.0
 40
0.5356725655884553
 50
180.08962571253591
 51
269.91037429521538
  0
ARC
  5
102B
  8
L6
  6
CONTINUOUS
 10
-160.58406995597369
 20
128.6625428800094
 30
0.0
 40
1.4641811658291239
 50
179.96741121471251
 51
270.03312413906292
  0
LINE
  5
102C
  8
0
  6
CONTINUOUS
 62
     7
 10
-345.88316101770221
 20
123.163451831695
 30
0.0
 11
2.3168389822978379
 21
123.1634518316949
 31
0.0
  0
LINE
  5
102D
  8
L6
  6
CONTINUOUS
 10
-11.88308486528245
 20
124.4634518316952
 30
0.0
 11
-160.5832371701259
 21
124.4634518316952
 31
0.0
  0
LINE
  5
102E
  8
L6
  6
CONTINUOUS
 10
-11.883084865280461
 20
127.1983619615515
 30
0.0
 11
-160.5832234769465
 21
127.198361958866
 31
0.0
  0
LINE
  5
102F
  8
0
  6
CONTINUOUS
 62
     7
 10
-11.883084865210369
 20
128.12854170183849
 30
0.0
 11
-160.58323717012391
 21
128.12854170183849
 31
0.0
  0
LINE
  5
1030
  8
L6
  6
CONTINUOUS
 10
-182.98308486528279
 20
124.4634518316952
 30
0.0
 11
-331.68323717012618
 21
124.46345183169529
 31
0.0
  0
LINE
  5
1031
  8
L6
  6
CONTINUOUS
 10
-182.98308486528049
 20
127.1983619615516
 30
0.0
 11
-331.68322347694789
 21
127.1983619588661
 31
0.0
  0
LINE
  5
1032
  8
0
  6
CONTINUOUS
 62
     7
 10
-182.9830848652106
 20
128.12854170183849
 30
0.0
 11
-331.6832371701239
 21
128.12854170183849
 31
0.0
  0
LINE
  5
1033
  8
0
  6
CONTINUOUS
 62
     7
 10
-351.88316101770198
 20
277.36345183169487
 30
0.0
 11
-351.88316101770198
 21
129.16345183169511
 31
0.0
  0
LINE
  5
1034
  8
L6
  6
CONTINUOUS
 10
-350.58316101770203
 20
253.16352798411671
 30
0.0
 11
-350.58316101770151
 21
153.36337567927501
 31
0.0
  0
LINE
  5
1035
  8
0
  6
CONTINUOUS
 62
     7
 10
-346.91807114755852
 20
153.3633756792035
 30
0.0
 11
-346.91807114755841
 21
253.16352798411671
 31
0.0
  0
LINE
  5
1036
  8
L6
  6
CONTINUOUS
 10
-347.84825088784532
 20
153.36337567927319
 30
0.0
 11
-347.84825089053112
 21
253.16351429094311
 31
0.0
  0
ARC
  5
1037
  8
0
  6
CONTINUOUS
 62
     7
 10
-340.58316101770208
 20
262.06345183169509
 30
0.0
 40
8.3650898701436063
 50
270.0
 51
359.9999999999992
  0
LINE
  5
1038
  8
L6
  6
CONTINUOUS
 10
-345.62206262949252
 20
271.20972746200641
 30
0.0
 11
-344.29749324304868
 21
273.50394893747739
 31
0.0
  0
LINE
  5
1039
  8
L6
  6
CONTINUOUS
 10
-342.56544243547978
 20
272.50394893747728
 30
0.0
 11
-343.89001182192362
 21
270.20972746200641
 31
0.0
  0
ARC
  5
103A
  8
L6
  6
CONTINUOUS
 10
-342.73316101770212
 20
274.21345183169512
 30
0.0
 40
6.2000000000000277
 50
187.00983762450269
 51
347.15159897727841
  0
LINE
  5
103B
  8
L6
  6
CONTINUOUS
 10
-350.48316101770212
 20
277.36345183169487
 30
0.0
 11
-350.48316101770507
 21
256.02510222405363
 31
0.0
  0
LINE
  5
103C
  8
L6
  6
CONTINUOUS
 10
-336.68316101770148
 20
262.0634518316939
 30
0.0
 11
-336.68316101770148
 21
277.86352798411502
 31
0.0
  0
LINE
  5
103D
  8
L6
  6
CONTINUOUS
 10
-335.88316101770192
 20
262.06345183169668
 30
0.0
 11
-335.88316101770192
 21
277.86352798411838
 31
0.0
  0
LINE
  5
103E
  8
0
  6
CONTINUOUS
 62
     7
 10
-332.21807114755848
 20
262.06345183169498
 30
0.0
 11
-332.21807114755848
 21
277.86352798411667
 31
0.0
  0
LINE
  5
103F
  8
L6
  6
CONTINUOUS
 10
-333.14825088784551
 20
262.06345183169492
 30
0.0
 11
-333.14825089053107
 21
277.8635142909431
 31
0.0
  0
ARC
  5
1040
  8
L6
  6
CONTINUOUS
 10
-342.73316101770212
 20
274.21345183169512
 30
0.0
 40
6.1999999999999984
 50
33.197882456324329
 51
164.07904974630571
  0
ARC
  5
1041
  8
L6
  6
CONTINUOUS
 10
-342.73316101770212
 20
274.21345183169512
 30
0.0
 40
1.7177105891741711
 50
95.603331552075275
 51
118.699846462379
  0
LINE
  5
1042
  8
L6
  6
CONTINUOUS
 10
-334.54518187024649
 20
281.96345183169501
 30
0.0
 11
-345.88316101770198
 21
281.96345183169501
 31
0.0
  0
ARC
  5
1043
  8
L6
  6
CONTINUOUS
 10
-331.68208951423861
 20
277.8630349520588
 30
0.0
 40
5.0010715277665287
 50
124.9244482504175
 51
179.99435147929961
  0
ARC
  5
1044
  8
L6
  6
CONTINUOUS
 10
-331.68302406059468
 20
277.86331487458779
 30
0.0
 40
4.2001369625138691
 50
89.999999999999574
 51
179.997092886064
  0
ARC
  5
1045
  8
L6
  6
CONTINUOUS
 10
-337.15481003609273
 20
277.86352798591878
 30
0.0
 40
0.4664124989124617
 50
213.19788245631969
 51
359.99999977842981
  0
LINE
  5
1046
  8
L6
  6
CONTINUOUS
 10
-336.68839753717992
 20
272.83474429760901
 30
0.0
 11
-336.68839753718021
 21
277.86352798411502
 31
0.0
  0
ARC
  5
1047
  8
0
  6
CONTINUOUS
 62
     7
 10
-331.68239923735291
 20
277.8626900513388
 30
0.0
 40
0.5356725655867363
 50
90.089625711615454
 51
179.91037429512369
  0
ARC
  5
1048
  8
L6
  6
CONTINUOUS
 10
-331.6840699693833
 20
277.86436076996353
 30
0.0
 40
1.4641811658329851
 50
89.967411160271638
 51
180.033124096454
  0
LINE
  5
1049
  8
L6
  6
CONTINUOUS
 10
-339.84425940591171
 20
277.21717620138361
 30
0.0
 11
-341.1688287923555
 21
274.92295472591258
 31
0.0
  0
LINE
  5
104A
  8
L6
  6
CONTINUOUS
 10
-341.57631021348061
 20
278.2171762013835
 30
0.0
 11
-341.577880752402
 21
278.22108844744741
 31
0.0
  0
LINE
  5
104B
  8
L6
  6
CONTINUOUS
 10
-339.84425940591171
 20
277.21717620138361
 30
0.0
 11
-339.8524018246448
 21
277.22526823159887
 31
0.0
  0
ARC
  5
104C
  8
L6
  6
CONTINUOUS
 10
-342.73316101770212
 20
274.21345183169512
 30
0.0
 40
4.1677105891741801
 50
46.274109584938117
 51
73.725890415060803
  0
LINE
  5
104D
  8
L6
  6
CONTINUOUS
 10
-341.56523110037938
 20
278.21417067502023
 30
0.0
 11
-341.57631021348061
 21
278.2171762013835
 31
0.0
  0
LINE
  5
104E
  8
L6
  6
CONTINUOUS
 10
-342.90087959992428
 20
275.92295472591258
 30
0.0
 11
-341.57631021348061
 21
278.2171762013835
 31
0.0
  0
ARC
  5
104F
  8
L6
  6
CONTINUOUS
 10
-342.73316101770212
 20
274.21345183169512
 30
0.0
 40
1.7177105891742459
 50
275.60333155207081
 51
298.6998464623768
  0
LINE
  5
1050
  8
L6
  6
CONTINUOUS
 10
-341.90828006849159
 20
272.70676636757503
 30
0.0
 11
-341.0158926556561
 21
274.25242670664079
 31
0.0
  0
ARC
  5
1051
  8
L6
  6
CONTINUOUS
 10
-342.73316101770212
 20
274.21345183169512
 30
0.0
 40
1.7177105891742179
 50
1.3001535376205839
 51
24.39666844793075
  0
ARC
  5
1052
  8
L6
  6
CONTINUOUS
 10
-345.88316101770198
 20
277.3634518316951
 30
0.0
 40
4.6000000000000512
 50
89.999999999999574
 51
180.0
  0
ARC
  5
1053
  8
0
  6
CONTINUOUS
 62
     7
 10
-345.88316101770198
 20
277.3634518316951
 30
0.0
 40
6.000000000000056
 50
89.999999999999574
 51
180.0
  0
ARC
  5
1054
  8
L6
  6
CONTINUOUS
 10
-349.56920125581729
 20
276.163451831695
 30
0.0
 40
0.9087232424065518
 50
179.99999999999281
 51
344.07904974630668
  0
ARC
  5
1055
  8
L6
  6
CONTINUOUS
 10
-349.67938646451648
 20
273.3593519246142
 30
0.0
 40
0.7985380337072666
 50
7.0098376244995828
 51
180.0
  0
LINE
  5
1056
  8
L6
  6
CONTINUOUS
 10
-343.5580419669127
 20
275.72013729581511
 30
0.0
 11
-344.45042937974819
 21
274.17447695674917
 31
0.0
  0
ARC
  5
1057
  8
L6
  6
CONTINUOUS
 10
-342.73316101770212
 20
274.21345183169512
 30
0.0
 40
1.7177105891742179
 50
181.30015353762141
 51
204.39666844793669
  0
LINE
  5
1058
  8
L6
  6
CONTINUOUS
 10
-350.47792449822379
 20
276.163451831695
 30
0.0
 11
-350.47792449822362
 21
273.35935192461409
 31
0.0
  0
ARC
  5
1059
  8
L6
  6
CONTINUOUS
 10
-346.38302406059222
 20
253.16331487458501
 30
0.0
 40
4.2001369625164546
 50
89.999999999999574
 51
179.9970928860516
  0
ARC
  5
105A
  8
L6
  6
CONTINUOUS
 10
-340.58316101770208
 20
262.06345183169509
 30
0.0
 40
7.4349101298566316
 50
270.0
 51
359.99999999999778
  0
LINE
  5
105B
  8
L6
  6
CONTINUOUS
 10
-346.38323717012571
 20
258.16345183169472
 30
0.0
 11
-340.58316101770328
 21
258.16345183169449
 31
0.0
  0
LINE
  5
105C
  8
L6
  6
CONTINUOUS
 10
-346.38323717012202
 20
257.36345183169482
 30
0.0
 11
-340.58316101770038
 21
257.36345183169482
 31
0.0
  0
ARC
  5
105D
  8
L6
  6
CONTINUOUS
 10
-340.58316101770208
 20
262.06345183169509
 30
0.0
 40
3.9000000000005741
 50
270.0
 51
359.99999999998369
  0
ARC
  5
105E
  8
L6
  6
CONTINUOUS
 10
-340.58316101770208
 20
262.06345183169509
 30
0.0
 40
4.7000000000001592
 50
269.9999999999992
 51
0.0000000000199484
  0
LINE
  5
105F
  8
L6
  6
CONTINUOUS
 10
-343.89001182192362
 20
270.20972746200641
 30
0.0
 11
-343.88844128300212
 21
270.20581521594272
 31
0.0
  0
LINE
  5
1060
  8
L6
  6
CONTINUOUS
 10
-345.62206262949252
 20
271.20972746200641
 30
0.0
 11
-345.61392021075949
 21
271.20163543179109
 31
0.0
  0
ARC
  5
1061
  8
L6
  6
CONTINUOUS
 10
-342.73316101770212
 20
274.21345183169512
 30
0.0
 40
4.1677105891742219
 50
226.2741095849388
 51
253.72589041506089
  0
LINE
  5
1062
  8
L6
  6
CONTINUOUS
 10
-343.9010909350248
 20
270.21273298836979
 30
0.0
 11
-343.89001182192362
 21
270.20972746200641
 31
0.0
  0
ARC
  5
1063
  8
L6
  6
CONTINUOUS
 10
-346.38372058070343
 20
253.16474847866351
 30
0.0
 40
4.9987033764058904
 50
89.999999999999574
 51
145.09488146649329
  0
LINE
  5
1064
  8
L6
  6
CONTINUOUS
 10
-346.38323717012389
 20
254.62854170183849
 30
0.0
 11
-340.5831610177022
 21
254.6285417018384
 31
0.0
  0
LINE
  5
1065
  8
0
  6
CONTINUOUS
 62
     7
 10
-346.38323717019352
 20
253.6983619615514
 30
0.0
 11
-340.58316101770208
 21
253.6983619615514
 31
0.0
  0
ARC
  5
1066
  8
0
  6
CONTINUOUS
 62
     7
 10
-346.38239923732732
 20
253.16269005131909
 30
0.0
 40
0.5356725656065573
 50
90.089625714315645
 51
179.9103742930173
  0
ARC
  5
1067
  8
L6
  6
CONTINUOUS
 10
-346.38406996938483
 20
253.1643607699651
 30
0.0
 40
1.4641811658314501
 50
89.967411162206417
 51
180.03312409645179
  0
ARC
  5
1068
  8
0
  6
CONTINUOUS
 62
     7
 10
-340.5831610177022
 20
144.46345183169501
 30
0.0
 40
8.3650898701436063
 50
0.0000000000008015
 51
89.999999999999986
  0
LINE
  5
1069
  8
L6
  6
CONTINUOUS
 10
-333.14825088784551
 20
144.4634518316951
 30
0.0
 11
-333.14825089053107
 21
128.6633893724468
 31
0.0
  0
LINE
  5
106A
  8
0
  6
CONTINUOUS
 62
     7
 10
-332.21807114755848
 20
144.46345183169501
 30
0.0
 11
-332.21807114755848
 21
128.6633756792732
 31
0.0
  0
LINE
  5
106B
  8
L6
  6
CONTINUOUS
 10
-335.88316101770192
 20
144.46345183169331
 30
0.0
 11
-335.88316101770192
 21
128.6633756792715
 31
0.0
  0
LINE
  5
106C
  8
L6
  6
CONTINUOUS
 10
-336.68316101770148
 20
144.46345183169601
 30
0.0
 11
-336.68316101770148
 21
128.66337567927491
 31
0.0
  0
LINE
  5
106D
  8
L6
  6
CONTINUOUS
 10
-350.48316101770212
 20
129.16345183169511
 30
0.0
 11
-350.48316101770507
 21
150.5018014393365
 31
0.0
  0
LINE
  5
106E
  8
0
  6
CONTINUOUS
 62
     7
 10
-346.38323717019352
 20
152.82854170183859
 30
0.0
 11
-340.5831610177022
 21
152.82854170183859
 31
0.0
  0
LINE
  5
106F
  8
L6
  6
CONTINUOUS
 10
-346.383237170124
 20
151.8983619615515
 30
0.0
 11
-340.5831610177022
 21
151.8983619615515
 31
0.0
  0
LINE
  5
1070
  8
L6
  6
CONTINUOUS
 10
-346.38323717012207
 20
149.16345183169511
 30
0.0
 11
-340.58316101770038
 21
149.16345183169511
 31
0.0
  0
LINE
  5
1071
  8
L6
  6
CONTINUOUS
 10
-346.38323717012571
 20
148.3634518316953
 30
0.0
 11
-340.58316101770328
 21
148.36345183169561
 31
0.0
  0
ARC
  5
1072
  8
L6
  6
CONTINUOUS
 10
-340.5831610177022
 20
144.46345183169501
 30
0.0
 40
4.7000000000001592
 50
359.99999999997999
 51
90.000000000000782
  0
ARC
  5
1073
  8
L6
  6
CONTINUOUS
 10
-340.58316101770208
 20
144.46345183169501
 30
0.0
 40
3.9000000000005741
 50
0.0000000000162972
 51
89.999999999999986
  0
ARC
  5
1074
  8
L6
  6
CONTINUOUS
 10
-340.5831610177022
 20
144.46345183169501
 30
0.0
 40
7.4349101298566316
 50
0.0000000000021501
 51
89.999999999999986
  0
ARC
  5
1075
  8
L6
  6
CONTINUOUS
 10
-346.3837205807036
 20
153.3621551847265
 30
0.0
 40
4.9987033764058904
 50
214.9051185335066
 51
270.0000000000004
  0
ARC
  5
1076
  8
L6
  6
CONTINUOUS
 10
-346.38302406059222
 20
153.363588788805
 30
0.0
 40
4.2001369625164546
 50
180.00290711394831
 51
270.0000000000004
  0
ARC
  5
1077
  8
L6
  6
CONTINUOUS
 10
-346.38406996938483
 20
153.36254289342489
 30
0.0
 40
1.4641811658314501
 50
179.9668759035481
 51
270.03258883779353
  0
ARC
  5
1078
  8
0
  6
CONTINUOUS
 62
     7
 10
-346.38239923732732
 20
153.36421361207101
 30
0.0
 40
0.5356725656065573
 50
180.0896257069827
 51
269.91037428568433
  0
ARC
  5
1079
  8
0
  6
CONTINUOUS
 62
     7
 10
-345.88316101770221
 20
129.16345183169511
 30
0.0
 40
6.000000000000056
 50
180.0
 51
270.0000000000004
  0
ARC
  5
107A
  8
L6
  6
CONTINUOUS
 10
-345.88316101770221
 20
129.16345183169511
 30
0.0
 40
4.6000000000000512
 50
180.0
 51
270.0000000000004
  0
ARC
  5
107B
  8
L6
  6
CONTINUOUS
 10
-331.68302406059468
 20
128.66358878880209
 30
0.0
 40
4.2001369625138691
 50
180.00290711393589
 51
270.0000000000004
  0
LINE
  5
107C
  8
L6
  6
CONTINUOUS
 10
-334.54518187024649
 20
124.56345183169501
 30
0.0
 11
-345.88316101770221
 21
124.56345183169501
 31
0.0
  0
ARC
  5
107D
  8
L6
  6
CONTINUOUS
 10
-342.73316101770212
 20
132.31345183169489
 30
0.0
 40
1.7177105891741711
 50
241.3001535376209
 51
264.39666844792458
  0
ARC
  5
107E
  8
L6
  6
CONTINUOUS
 10
-342.73316101770212
 20
132.31345183169489
 30
0.0
 40
6.1999999999999984
 50
195.9209502536942
 51
326.80211754367559
  0
ARC
  5
107F
  8
L6
  6
CONTINUOUS
 10
-342.73316101770212
 20
132.31345183169489
 30
0.0
 40
6.2000000000000277
 50
12.84840102272161
 51
172.99016237549719
  0
LINE
  5
1080
  8
L6
  6
CONTINUOUS
 10
-342.56544243547978
 20
134.02295472591271
 30
0.0
 11
-343.89001182192362
 21
136.3171762013836
 31
0.0
  0
LINE
  5
1081
  8
L6
  6
CONTINUOUS
 10
-341.90828006849159
 20
133.8201372958151
 30
0.0
 11
-341.0158926556561
 21
132.2744769567492
 31
0.0
  0
LINE
  5
1082
  8
L6
  6
CONTINUOUS
 10
-336.68839753717998
 20
133.69215936578101
 30
0.0
 11
-336.68839753718021
 21
128.66337567927491
 31
0.0
  0
ARC
  5
1083
  8
L6
  6
CONTINUOUS
 10
-342.73316101770212
 20
132.31345183169489
 30
0.0
 40
1.7177105891742459
 50
61.30015353762311
 51
84.39666844792913
  0
ARC
  5
1084
  8
L6
  6
CONTINUOUS
 10
-337.15481003609273
 20
128.66337567747121
 30
0.0
 40
0.4664124989124617
 50
0.0000002215701104
 51
146.8021175436802
  0
ARC
  5
1085
  8
L6
  6
CONTINUOUS
 10
-331.6840699693833
 20
128.66254289342649
 30
0.0
 40
1.4641811658329851
 50
179.96687590354591
 51
270.03258883972831
  0
ARC
  5
1086
  8
0
  6
CONTINUOUS
 62
     7
 10
-331.68239923735291
 20
128.66421361205121
 30
0.0
 40
0.5356725655867363
 50
180.0896257048762
 51
269.9103742883845
  0
ARC
  5
1087
  8
L6
  6
CONTINUOUS
 10
-331.68208951423873
 20
128.66386871133139
 30
0.0
 40
5.0010715277665287
 50
180.0056485207003
 51
235.07555174958239
  0
ARC
  5
1088
  8
L6
  6
CONTINUOUS
 10
-342.73316101770212
 20
132.31345183169489
 30
0.0
 40
1.7177105891742179
 50
335.60333155206922
 51
358.69984646237941
  0
LINE
  5
1089
  8
L6
  6
CONTINUOUS
 10
-342.90087959992428
 20
130.60394893747741
 30
0.0
 11
-341.57631021348061
 21
128.30972746200641
 31
0.0
  0
LINE
  5
108A
  8
L6
  6
CONTINUOUS
 10
-341.56523110037938
 20
128.31273298836979
 30
0.0
 11
-341.57631021348061
 21
128.30972746200641
 31
0.0
  0
ARC
  5
108B
  8
L6
  6
CONTINUOUS
 10
-342.73316101770212
 20
132.31345183169489
 30
0.0
 40
4.1677105891741801
 50
286.27410958493908
 51
313.72589041506183
  0
LINE
  5
108C
  8
L6
  6
CONTINUOUS
 10
-339.84425940591183
 20
129.30972746200641
 30
0.0
 11
-339.85240182464491
 21
129.30163543179111
 31
0.0
  0
LINE
  5
108D
  8
L6
  6
CONTINUOUS
 10
-341.57631021348061
 20
128.30972746200641
 30
0.0
 11
-341.577880752402
 21
128.3058152159426
 31
0.0
  0
LINE
  5
108E
  8
L6
  6
CONTINUOUS
 10
-339.84425940591183
 20
129.30972746200641
 30
0.0
 11
-341.1688287923555
 21
131.60394893747741
 31
0.0
  0
LINE
  5
108F
  8
L6
  6
CONTINUOUS
 10
-350.47792449822379
 20
130.3634518316949
 30
0.0
 11
-350.47792449822379
 21
133.16755173877601
 31
0.0
  0
LINE
  5
1090
  8
L6
  6
CONTINUOUS
 10
-343.5580419669127
 20
130.80676636757499
 30
0.0
 11
-344.45042937974819
 21
132.35242670664081
 31
0.0
  0
ARC
  5
1091
  8
L6
  6
CONTINUOUS
 10
-349.67938646451648
 20
133.16755173877601
 30
0.0
 40
0.7985380337072666
 50
180.0
 51
352.9901623755004
  0
ARC
  5
1092
  8
L6
  6
CONTINUOUS
 10
-342.73316101770212
 20
132.31345183169489
 30
0.0
 40
4.1677105891742219
 50
106.2741095849389
 51
133.725890415061
  0
LINE
  5
1093
  8
L6
  6
CONTINUOUS
 10
-343.9010909350248
 20
136.31417067502019
 30
0.0
 11
-343.89001182192362
 21
136.3171762013836
 31
0.0
  0
LINE
  5
1094
  8
L6
  6
CONTINUOUS
 10
-345.62206262949252
 20
135.3171762013836
 30
0.0
 11
-345.61392021075949
 21
135.3252682315989
 31
0.0
  0
LINE
  5
1095
  8
L6
  6
CONTINUOUS
 10
-343.89001182192362
 20
136.3171762013836
 30
0.0
 11
-343.88844128300212
 21
136.32108844744729
 31
0.0
  0
ARC
  5
1096
  8
L6
  6
CONTINUOUS
 10
-342.73316101770212
 20
132.31345183169489
 30
0.0
 40
1.7177105891742179
 50
155.6033315520632
 51
178.69984646237859
  0
LINE
  5
1097
  8
L6
  6
CONTINUOUS
 10
-345.62206262949252
 20
135.3171762013836
 30
0.0
 11
-344.29749324304868
 21
133.02295472591271
 31
0.0
  0
ARC
  5
1098
  8
L6
  6
CONTINUOUS
 10
-349.56920125581729
 20
130.36345183169499
 30
0.0
 40
0.9087232424065518
 50
15.920950253693221
 51
180.00000000000711
  0
TEXT
  5
144B
  8
L1
 10
-191.39185272569051
 20
340.14826904322302
 30
0.0
 40
14.0
  1
160x360x25 COVER
  7
TKKISO
  0
TEXT
  5
144C
  8
L1
 10
-191.39185272569051
 20
364.14826904322302
 30
0.0
 40
14.0
  1
EURONORD II
  7
TKKISO
  0
LINE
  5
15C9
  8
L6
 10
-171.7831610177021
 20
312.50256790259141
 30
0.0
 11
-171.7831610177021
 21
106.3698125418143
 31
0.0
  0
LINE
  5
15CA
  8
L6
 10
332.78289576415511
 20
390.91115099764511
 30
0.0
 11
332.78289576415511
 21
326.38521932905991
 31
0.0
  0
LINE
  5
15CB
  8
L6
 10
332.78289576415511
 20
304.61743416503072
 30
0.0
 11
332.782895764155
 21
89.265537471187585
 31
0.0
  0
LINE
  5
15CC
  8
L6
 10
643.8241083695807
 20
203.26345183169479
 30
0.0
 11
551.50432341044234
 21
203.26345183169479
 31
0.0
  0
LINE
  5
15CD
  8
L6
 10
532.06857944951435
 20
203.26345183169479
 30
0.0
 11
115.07502311352199
 21
203.26345183169491
 31
0.0
  0
LINE
  5
15CE
  8
0
  6
CONTINUOUS
 62
     7
 10
506.88289576415502
 20
123.1634518316947
 30
0.0
 11
158.68289576415501
 21
123.1634518316949
 31
0.0
  0
LINE
  5
15CF
  8
0
  6
CONTINUOUS
 62
     7
 10
506.88289576415502
 20
125.2285007606135
 30
0.0
 11
158.68289576415501
 21
125.2285007606136
 31
0.0
  0
LINE
  5
15D0
  8
0
  6
CONTINUOUS
 62
     7
 10
158.68289576415501
 20
123.5719046046007
 30
0.0
 11
506.88289576415502
 21
123.5719046046006
 31
0.0
  0
ARC
  5
15D1
  8
0
  6
CONTINUOUS
 62
     7
 10
332.782895764155
 20
132.31345183169481
 30
0.0
 40
4.3973933631785176
 50
17.836282596177611
 51
162.16371740382149
  0
ARC
  5
15D2
  8
0
  6
CONTINUOUS
 62
     7
 10
332.782895764155
 20
132.31345183169481
 30
0.0
 40
4.4155536344317934
 50
343.54817849969601
 51
16.451821500304369
  0
ARC
  5
15D3
  8
0
  6
CONTINUOUS
 62
     7
 10
332.782895764155
 20
132.31345183169481
 30
0.0
 40
4.2000000000000348
 50
346.22585300197329
 51
13.77414699802698
  0
LINE
  5
15D4
  8
0
  6
CONTINUOUS
 62
     7
 10
331.88150794528912
 20
133.81345183169489
 30
0.0
 11
333.684283583021
 21
133.81345183169489
 31
0.0
  0
ARC
  5
15D5
  8
0
  6
CONTINUOUS
 62
     7
 10
332.782895764155
 20
132.31345183169481
 30
0.0
 40
1.7499999999999949
 50
121.0027191338711
 51
145.15009542095149
  0
LINE
  5
15D6
  8
0
  6
CONTINUOUS
 62
     7
 10
334.22076723770658
 20
133.31676808133039
 30
0.0
 11
334.21903642578951
 21
133.31345183169489
 31
0.0
  0
ARC
  5
15D7
  8
0
  6
CONTINUOUS
 62
     7
 10
332.782895764155
 20
132.31345183169481
 30
0.0
 40
1.7500000000000191
 50
34.849904579047163
 51
58.997280866126751
  0
LINE
  5
15D8
  8
0
  6
CONTINUOUS
 62
     7
 10
333.684283583021
 20
130.81345183169481
 30
0.0
 11
331.88150794528912
 21
130.81345183169481
 31
0.0
  0
ARC
  5
15D9
  8
0
  6
CONTINUOUS
 62
     7
 10
332.782895764155
 20
132.31345183169481
 30
0.0
 40
1.750000000000002
 50
301.00271913387411
 51
325.15009542095351
  0
LINE
  5
15DA
  8
0
  6
CONTINUOUS
 62
     7
 10
331.34502429060348
 20
131.31013558205919
 30
0.0
 11
331.3467551025206
 21
131.31345183169481
 31
0.0
  0
ARC
  5
15DB
  8
0
  6
CONTINUOUS
 62
     7
 10
332.782895764155
 20
132.31345183169481
 30
0.0
 40
1.7499999999999709
 50
214.8499045790463
 51
238.99728086612669
  0
LINE
  5
15DC
  8
0
  6
CONTINUOUS
 62
     7
 10
334.21903642578951
 20
131.31345183169481
 30
0.0
 11
336.86211137502931
 21
131.31345183169481
 31
0.0
  0
LINE
  5
15DD
  8
0
  6
CONTINUOUS
 62
     7
 10
336.86211137502931
 20
133.31345183169489
 30
0.0
 11
334.21903642578951
 21
133.31345183169489
 31
0.0
  0
ARC
  5
15DE
  8
0
  6
CONTINUOUS
 62
     7
 10
332.782895764155
 20
132.31345183169481
 30
0.0
 40
4.1999999999999789
 50
166.22585300197201
 51
193.77414699802591
  0
ARC
  5
15DF
  8
0
  6
CONTINUOUS
 62
     7
 10
332.782895764155
 20
132.31345183169481
 30
0.0
 40
4.4155536344317383
 50
163.5481784996945
 51
196.45182150030331
  0
LINE
  5
15E0
  8
0
  6
CONTINUOUS
 62
     7
 10
331.3467551025206
 20
133.31345183169489
 30
0.0
 11
328.7036801532808
 21
133.31345183169489
 31
0.0
  0
LINE
  5
15E1
  8
0
  6
CONTINUOUS
 62
     7
 10
328.7036801532808
 20
131.31345183169481
 30
0.0
 11
331.3467551025206
 21
131.31345183169481
 31
0.0
  0
ARC
  5
15E2
  8
0
  6
CONTINUOUS
 62
     7
 10
332.782895764155
 20
132.31345183169481
 30
0.0
 40
4.3973933631785087
 50
197.83628259617609
 51
342.16371740382272
  0
ARC
  5
15E3
  8
0
  6
CONTINUOUS
 62
     7
 10
506.88289576415491
 20
129.16345183169491
 30
0.0
 40
6.000000000000056
 50
269.9999999999996
 51
0.0
  0
ARC
  5
15E4
  8
0
  6
CONTINUOUS
 62
     7
 10
506.88289576415491
 20
129.16345183169491
 30
0.0
 40
3.934951071081314
 50
269.9999999999996
 51
0.0
  0
ARC
  5
15E5
  8
0
  6
CONTINUOUS
 62
     7
 10
506.88289576415491
 20
129.16345183169491
 30
0.0
 40
5.591547227094253
 50
269.9999999999996
 51
0.0
  0
CIRCLE
  5
15E6
  8
0
  6
CONTINUOUS
 62
     7
 10
503.73289576415499
 20
132.31345183169481
 30
0.0
 40
4.5956556052974511
  0
LINE
  5
15E7
  8
0
  6
CONTINUOUS
 62
     7
 10
505.29722798950161
 20
133.0229547259124
 30
0.0
 11
506.62179737594539
 21
135.3171762013834
 31
0.0
  0
LINE
  5
15E8
  8
0
  6
CONTINUOUS
 62
     7
 10
504.88974656837638
 20
136.3171762013834
 30
0.0
 11
503.56517718193282
 21
134.0229547259124
 31
0.0
  0
LINE
  5
15E9
  8
0
  6
CONTINUOUS
 62
     7
 10
502.90801481494452
 20
133.82013729581479
 30
0.0
 11
502.01562740210909
 21
132.27447695674891
 31
0.0
  0
LINE
  5
15EA
  8
0
  6
CONTINUOUS
 62
     7
 10
504.55777671336563
 20
130.80676636757471
 30
0.0
 11
505.45016412620112
 21
132.35242670664061
 31
0.0
  0
ARC
  5
15EB
  8
0
  6
CONTINUOUS
 62
     7
 10
503.73289576415499
 20
132.31345183169481
 30
0.0
 40
1.7177105891742179
 50
1.3001535376214111
 51
24.396668447935731
  0
LINE
  5
15EC
  8
0
  6
CONTINUOUS
 62
     7
 10
503.56315680572129
 20
134.02608783093501
 30
0.0
 11
503.56517718193282
 21
134.0229547259124
 31
0.0
  0
ARC
  5
15ED
  8
0
  6
CONTINUOUS
 62
     7
 10
503.73289576415499
 20
132.31345183169481
 30
0.0
 40
1.7177105891742039
 50
95.60333155206601
 51
118.6998464623782
  0
LINE
  5
15EE
  8
0
  6
CONTINUOUS
 62
     7
 10
502.16856353880843
 20
131.60394893747721
 30
0.0
 11
500.84399415236459
 21
129.30972746200621
 31
0.0
  0
ARC
  5
15EF
  8
0
  6
CONTINUOUS
 62
     7
 10
503.73289576415499
 20
132.31345183169481
 30
0.0
 40
1.7177105891742519
 50
181.3001535376215
 51
204.39666844793121
  0
LINE
  5
15F0
  8
0
  6
CONTINUOUS
 62
     7
 10
502.57604495993348
 20
128.30972746200621
 30
0.0
 11
503.90061434637721
 21
130.6039489374771
 31
0.0
  0
ARC
  5
15F1
  8
0
  6
CONTINUOUS
 62
     7
 10
503.73289576415499
 20
132.31345183169481
 30
0.0
 40
4.1677105891742077
 50
226.27410958493829
 51
253.7258904150608
  0
ARC
  5
15F2
  8
0
  6
CONTINUOUS
 62
     7
 10
503.73289576415499
 20
132.31345183169481
 30
0.0
 40
1.7177105891741971
 50
275.60333155207411
 51
298.6998464623785
  0
ARC
  5
15F3
  8
0
  6
CONTINUOUS
 62
     7
 10
503.73289576415499
 20
132.31345183169481
 30
0.0
 40
4.1677105891742023
 50
46.274109584938643
 51
73.725890415060547
  0
LINE
  5
15F4
  8
0
  6
CONTINUOUS
 62
     7
 10
504.88974656837638
 20
136.3171762013834
 30
0.0
 11
504.90082568147778
 21
136.31417067501991
 31
0.0
  0
LINE
  5
15F5
  8
0
  6
CONTINUOUS
 62
     7
 10
506.61365495721242
 20
135.3252682315987
 30
0.0
 11
506.62179737594539
 21
135.3171762013834
 31
0.0
  0
LINE
  5
15F6
  8
0
  6
CONTINUOUS
 62
     7
 10
162.65777671336551
 20
133.8201372958149
 30
0.0
 11
163.550164126201
 21
132.274476956749
 31
0.0
  0
LINE
  5
15F7
  8
0
  6
CONTINUOUS
 62
     7
 10
160.26856353880851
 20
133.02295472591251
 30
0.0
 11
158.9439941523647
 21
135.31717620138349
 31
0.0
  0
CIRCLE
  5
15F8
  8
0
  6
CONTINUOUS
 62
     7
 10
161.83289576415501
 20
132.31345183169481
 30
0.0
 40
4.5956556052974511
  0
LINE
  5
15F9
  8
0
  6
CONTINUOUS
 62
     7
 10
152.68289576415501
 20
129.16345183169491
 30
0.0
 11
152.68289576415509
 21
277.36345183169482
 31
0.0
  0
LINE
  5
15FA
  8
0
  6
CONTINUOUS
 62
     7
 10
153.09134853706081
 20
277.36345183169482
 30
0.0
 11
153.09134853706081
 21
129.16345183169491
 31
0.0
  0
LINE
  5
15FB
  8
0
  6
CONTINUOUS
 62
     7
 10
154.74794469307361
 20
129.16345183169491
 30
0.0
 11
154.74794469307369
 21
277.36345183169482
 31
0.0
  0
ARC
  5
15FC
  8
0
  6
CONTINUOUS
 62
     7
 10
158.68289576415501
 20
277.36345183169487
 30
0.0
 40
6.000000000000056
 50
89.999999999999574
 51
180.0
  0
ARC
  5
15FD
  8
0
  6
CONTINUOUS
 62
     7
 10
158.68289576415501
 20
277.36345183169487
 30
0.0
 40
3.934951071081314
 50
89.999999999999574
 51
180.0
  0
ARC
  5
15FE
  8
0
  6
CONTINUOUS
 62
     7
 10
158.68289576415501
 20
277.36345183169487
 30
0.0
 40
5.591547227094253
 50
89.999999999999574
 51
180.0
  0
CIRCLE
  5
15FF
  8
0
  6
CONTINUOUS
 62
     7
 10
161.83289576415501
 20
274.2134518316949
 30
0.0
 40
4.5956556052974511
  0
LINE
  5
1600
  8
0
  6
CONTINUOUS
 62
     7
 10
160.26856353880851
 20
273.50394893747722
 30
0.0
 11
158.9439941523647
 21
271.2097274620063
 31
0.0
  0
LINE
  5
1601
  8
0
  6
CONTINUOUS
 62
     7
 10
160.67604495993359
 20
270.2097274620063
 30
0.0
 11
162.00061434637729
 21
272.50394893747722
 31
0.0
  0
LINE
  5
1602
  8
0
  6
CONTINUOUS
 62
     7
 10
162.65777671336559
 20
272.70676636757491
 30
0.0
 11
163.550164126201
 21
274.25242670664079
 31
0.0
  0
LINE
  5
1603
  8
0
  6
CONTINUOUS
 62
     7
 10
161.0080148149444
 20
275.72013729581488
 30
0.0
 11
160.115627402109
 21
274.17447695674912
 31
0.0
  0
ARC
  5
1604
  8
0
  6
CONTINUOUS
 62
     7
 10
161.83289576415501
 20
274.2134518316949
 30
0.0
 40
1.7177105891742179
 50
181.30015353762141
 51
204.3966684479357
  0
LINE
  5
1605
  8
0
  6
CONTINUOUS
 62
     7
 10
162.00263472258879
 20
272.50081583245469
 30
0.0
 11
162.00061434637729
 21
272.50394893747722
 31
0.0
  0
ARC
  5
1606
  8
0
  6
CONTINUOUS
 62
     7
 10
161.83289576415501
 20
274.2134518316949
 30
0.0
 40
1.7177105891742039
 50
275.60333155206592
 51
298.69984646237822
  0
LINE
  5
1607
  8
0
  6
CONTINUOUS
 62
     7
 10
163.39722798950169
 20
274.92295472591252
 30
0.0
 11
164.72179737594541
 21
277.21717620138338
 31
0.0
  0
ARC
  5
1608
  8
0
  6
CONTINUOUS
 62
     7
 10
161.83289576415501
 20
274.2134518316949
 30
0.0
 40
1.7177105891742519
 50
1.300153537621513
 51
24.396668447931258
  0
LINE
  5
1609
  8
0
  6
CONTINUOUS
 62
     7
 10
162.9897465683766
 20
278.2171762013835
 30
0.0
 11
161.66517718193279
 21
275.92295472591252
 31
0.0
  0
ARC
  5
160A
  8
0
  6
CONTINUOUS
 62
     7
 10
161.83289576415501
 20
274.2134518316949
 30
0.0
 40
4.1677105891742077
 50
46.27410958493828
 51
73.725890415060803
  0
ARC
  5
160B
  8
0
  6
CONTINUOUS
 62
     7
 10
161.83289576415501
 20
274.2134518316949
 30
0.0
 40
1.7177105891741971
 50
95.60333155207411
 51
118.6998464623785
  0
ARC
  5
160C
  8
0
  6
CONTINUOUS
 62
     7
 10
161.83289576415501
 20
274.2134518316949
 30
0.0
 40
4.1677105891742023
 50
226.2741095849386
 51
253.72589041506049
  0
LINE
  5
160D
  8
0
  6
CONTINUOUS
 62
     7
 10
160.67604495993359
 20
270.2097274620063
 30
0.0
 11
160.6649658468323
 21
270.21273298836979
 31
0.0
  0
LINE
  5
160E
  8
0
  6
CONTINUOUS
 62
     7
 10
158.95213657109761
 20
271.20163543179098
 30
0.0
 11
158.9439941523647
 21
271.2097274620063
 31
0.0
  0
LINE
  5
160F
  8
0
  6
CONTINUOUS
 62
     7
 10
158.95213657109761
 20
135.3252682315987
 30
0.0
 11
158.9439941523647
 21
135.31717620138349
 31
0.0
  0
LINE
  5
1610
  8
0
  6
CONTINUOUS
 62
     7
 10
160.67604495993359
 20
136.3171762013834
 30
0.0
 11
160.6649658468323
 21
136.31417067501999
 31
0.0
  0
ARC
  5
1611
  8
0
  6
CONTINUOUS
 62
     7
 10
161.83289576415501
 20
132.31345183169481
 30
0.0
 40
4.1677105891742023
 50
106.2741095849394
 51
133.72589041506129
  0
ARC
  5
1612
  8
0
  6
CONTINUOUS
 62
     7
 10
161.83289576415501
 20
132.31345183169481
 30
0.0
 40
1.7177105891742039
 50
61.300153537621782
 51
84.396668447933962
  0
LINE
  5
1613
  8
0
  6
CONTINUOUS
 62
     7
 10
162.00263472258879
 20
134.02608783093501
 30
0.0
 11
162.00061434637729
 21
134.02295472591251
 31
0.0
  0
LINE
  5
1614
  8
0
  6
CONTINUOUS
 62
     7
 10
160.67604495993359
 20
136.3171762013834
 30
0.0
 11
162.00061434637729
 21
134.02295472591251
 31
0.0
  0
ARC
  5
1615
  8
0
  6
CONTINUOUS
 62
     7
 10
158.68289576415501
 20
129.16345183169491
 30
0.0
 40
5.591547227094253
 50
180.0
 51
270.0000000000004
  0
ARC
  5
1616
  8
0
  6
CONTINUOUS
 62
     7
 10
158.68289576415501
 20
129.16345183169491
 30
0.0
 40
3.934951071081314
 50
180.0
 51
270.0000000000004
  0
ARC
  5
1617
  8
0
  6
CONTINUOUS
 62
     7
 10
158.68289576415501
 20
129.16345183169491
 30
0.0
 40
6.000000000000056
 50
180.0
 51
270.0000000000004
  0
ARC
  5
1618
  8
0
  6
CONTINUOUS
 62
     7
 10
161.83289576415501
 20
132.31345183169481
 30
0.0
 40
1.7177105891741971
 50
241.3001535376213
 51
264.39666844792578
  0
ARC
  5
1619
  8
0
  6
CONTINUOUS
 62
     7
 10
161.83289576415501
 20
132.31345183169481
 30
0.0
 40
4.1677105891742077
 50
286.27410958493908
 51
313.7258904150616
  0
LINE
  5
161A
  8
0
  6
CONTINUOUS
 62
     7
 10
162.98974656837649
 20
128.30972746200629
 30
0.0
 11
161.66517718193279
 21
130.60394893747721
 31
0.0
  0
ARC
  5
161B
  8
0
  6
CONTINUOUS
 62
     7
 10
161.83289576415501
 20
132.31345183169481
 30
0.0
 40
1.7177105891742519
 50
335.6033315520686
 51
358.6998464623785
  0
LINE
  5
161C
  8
0
  6
CONTINUOUS
 62
     7
 10
163.39722798950169
 20
131.6039489374773
 30
0.0
 11
164.72179737594541
 21
129.30972746200629
 31
0.0
  0
ARC
  5
161D
  8
0
  6
CONTINUOUS
 62
     7
 10
161.83289576415501
 20
132.31345183169481
 30
0.0
 40
1.7177105891742179
 50
155.60333155206419
 51
178.69984646237859
  0
LINE
  5
161E
  8
0
  6
CONTINUOUS
 62
     7
 10
161.0080148149444
 20
130.8067663675748
 30
0.0
 11
160.115627402109
 21
132.35242670664061
 31
0.0
  0
LINE
  5
161F
  8
L1
  6
HIDDEN
 62
     1
 10
573.76128143661606
 20
142.97854170183831
 30
0.0
 11
596.36826239919105
 21
143.37314802237111
 31
0.0
  0
LINE
  5
1620
  8
L1
  6
HIDDEN
 62
     1
 10
596.36826239919105
 20
153.22314802237111
 30
0.0
 11
573.76128143661606
 21
152.82854170183839
 31
0.0
  0
LINE
  5
1621
  8
0
  6
HIDDEN
 62
     7
 10
573.76128143661606
 20
128.1285417018384
 30
0.0
 11
575.76128143661617
 21
128.1634518316948
 31
0.0
  0
LINE
  5
1622
  8
0
  6
CONTINUOUS
 62
     7
 10
573.76128143661606
 20
127.1983619615515
 30
0.0
 11
575.76128143661617
 21
127.1634518316951
 31
0.0
  0
LINE
  5
1623
  8
0
  6
CONTINUOUS
 62
     7
 10
573.76128143661606
 20
152.82854170183839
 30
0.0
 11
573.76128143661606
 21
128.66338937244959
 31
0.0
  0
LINE
  5
1624
  8
0
  6
CONTINUOUS
 62
     7
 10
573.76128143661606
 20
128.6633893724501
 30
0.0
 11
573.76128143661606
 21
127.1983619644347
 31
0.0
  0
LINE
  5
1625
  8
L1
  6
HIDDEN
 62
     1
 10
596.76128143661606
 20
153.62308710043371
 30
0.0
 11
596.76128143661606
 21
144.46345183169481
 31
0.0
  0
LINE
  5
1626
  8
L1
  6
HIDDEN
 62
     1
 10
596.36826239919105
 20
128.5231480223712
 30
0.0
 11
575.76128143661617
 21
128.1634518316948
 31
0.0
  0
LINE
  5
1627
  8
0
  6
CONTINUOUS
 62
     7
 10
599.16152512436588
 20
123.5719046046006
 30
0.0
 11
575.76128143661617
 21
123.1634518316948
 31
0.0
  0
LINE
  5
1628
  8
0
  6
CONTINUOUS
 62
     7
 10
575.76128143661617
 20
123.1634518316948
 30
0.0
 11
575.76128143661617
 21
129.1634518316948
 31
0.0
  0
LINE
  5
1629
  8
L1
  6
HIDDEN
 62
     1
 10
596.76128143661606
 20
144.46345183169481
 30
0.0
 11
596.76128143661606
 21
129.02307186994929
 31
0.0
  0
LINE
  5
162A
  8
L1
  6
HIDDEN
 62
     1
 10
596.76128143661606
 20
129.02307186994929
 30
0.0
 11
596.76128143661606
 21
128.92308710043369
 31
0.0
  0
ARC
  5
162B
  8
L1
  6
HIDDEN
 62
     1
 10
596.3612814366162
 20
128.92308710043369
 30
0.0
 40
0.3999999999999872
 50
270.99999999999221
 51
0.0
  0
LINE
  5
162C
  8
0
  6
CONTINUOUS
 62
     7
 10
599.16152512436588
 20
123.5719046046006
 30
0.0
 11
600.76128143661617
 21
125.2285007606136
 31
0.0
  0
LINE
  5
162D
  8
0
  6
CONTINUOUS
 62
     7
 10
600.76128143661617
 20
125.2285007606136
 30
0.0
 11
600.76128143661617
 21
129.1634518316948
 31
0.0
  0
LINE
  5
162E
  8
0
  6
CONTINUOUS
 62
     7
 10
599.16152512436588
 20
129.1634518316948
 30
0.0
 11
599.16152512436588
 21
123.5719046046006
 31
0.0
  0
ARC
  5
162F
  8
L1
  6
HIDDEN
 62
     1
 10
596.3612814366162
 20
143.7730871004336
 30
0.0
 40
0.4000000000000157
 50
270.99999999999221
 51
0.0
  0
ARC
  5
1630
  8
L1
  6
HIDDEN
 62
     1
 10
596.3612814366162
 20
153.62308710043371
 30
0.0
 40
0.3999999999999872
 50
270.99999999999221
 51
0.0
  0
LINE
  5
1631
  8
L1
  6
HIDDEN
 62
     1
 10
596.76128143661606
 20
153.72307186994931
 30
0.0
 11
596.76128143661606
 21
153.62308710043371
 31
0.0
  0
LINE
  5
1632
  8
L6
 10
21.718587273006499
 20
203.26345183169491
 30
0.0
 11
-408.6767173536943
 21
203.26345183169499
 31
0.0
  0
LINE
  5
1633
  8
L1
  6
HIDDEN
 62
     1
 10
68.804510091694056
 20
153.72307186994931
 30
0.0
 11
68.804510091694056
 21
252.80383179344031
 31
0.0
  0
LINE
  5
1634
  8
0
  6
CONTINUOUS
 62
     7
 10
91.804510091694056
 20
153.3633756792731
 30
0.0
 11
91.804510091694056
 21
253.1635142909391
 31
0.0
  0
LINE
  5
1635
  8
0
  6
CONTINUOUS
 62
     7
 10
66.404266403944334
 20
129.1634518316948
 30
0.0
 11
66.404266403944334
 21
277.36345183169482
 31
0.0
  0
LINE
  5
1636
  8
0
  6
CONTINUOUS
 62
     7
 10
89.804510091694056
 20
277.36345183169482
 30
0.0
 11
89.804510091694056
 21
129.1634518316948
 31
0.0
  0
LINE
  5
1637
  8
0
  6
CONTINUOUS
 62
     7
 10
64.804510091694056
 20
277.36345183169482
 30
0.0
 11
64.804510091694056
 21
129.1634518316948
 31
0.0
  0
LINE
  5
1638
  8
L1
  6
HIDDEN
 62
     1
 10
69.197529129119175
 20
128.5231480223712
 30
0.0
 11
89.804510091694056
 21
128.1634518316948
 31
0.0
  0
LINE
  5
1639
  8
0
  6
CONTINUOUS
 62
     7
 10
66.404266403944334
 20
123.5719046046006
 30
0.0
 11
89.804510091694056
 21
123.1634518316948
 31
0.0
  0
LINE
  5
163A
  8
L6
 10
49.023090623042663
 20
203.26345183169479
 30
0.0
 11
114.0614681178678
 21
203.26345183169479
 31
0.0
  0
LINE
  5
163B
  8
L1
  6
HIDDEN
 62
     1
 10
91.804510091694056
 20
142.97854170183831
 30
0.0
 11
69.197529129119175
 21
143.37314802237111
 31
0.0
  0
LINE
  5
163C
  8
L1
  6
HIDDEN
 62
     1
 10
69.197529129119175
 20
153.22314802237111
 30
0.0
 11
91.804510091694056
 21
152.82854170183839
 31
0.0
  0
LINE
  5
163D
  8
0
  6
CONTINUOUS
 62
     7
 10
91.804510091694056
 20
152.82854170183839
 30
0.0
 11
91.804510091694056
 21
128.66338937244959
 31
0.0
  0
LINE
  5
163E
  8
0
  6
CONTINUOUS
 62
     7
 10
89.804510091694056
 20
123.1634518316948
 30
0.0
 11
89.804510091694056
 21
129.1634518316948
 31
0.0
  0
LINE
  5
163F
  8
0
  6
CONTINUOUS
 62
     7
 10
91.804510091694056
 20
128.6633893724501
 30
0.0
 11
91.804510091694056
 21
127.1983619644347
 31
0.0
  0
LINE
  5
1640
  8
0
  6
HIDDEN
 62
     7
 10
91.804510091694056
 20
128.1285417018384
 30
0.0
 11
89.804510091694056
 21
128.1634518316948
 31
0.0
  0
LINE
  5
1641
  8
0
  6
CONTINUOUS
 62
     7
 10
91.804510091694056
 20
127.1983619615515
 30
0.0
 11
89.804510091694056
 21
127.1634518316951
 31
0.0
  0
LINE
  5
1642
  8
L1
  6
HIDDEN
 62
     1
 10
68.804510091694056
 20
144.46345183169481
 30
0.0
 11
68.804510091694056
 21
129.02307186994929
 31
0.0
  0
LINE
  5
1643
  8
L1
  6
HIDDEN
 62
     1
 10
68.804510091694056
 20
129.02307186994929
 30
0.0
 11
68.804510091694056
 21
128.92308710043369
 31
0.0
  0
ARC
  5
1644
  8
L1
  6
HIDDEN
 62
     1
 10
69.204510091694033
 20
128.92308710043369
 30
0.0
 40
0.3999999999999872
 50
180.0
 51
269.00000000000779
  0
LINE
  5
1645
  8
0
  6
CONTINUOUS
 62
     7
 10
66.404266403944334
 20
123.5719046046006
 30
0.0
 11
64.804510091694056
 21
125.2285007606136
 31
0.0
  0
LINE
  5
1646
  8
0
  6
CONTINUOUS
 62
     7
 10
64.804510091694056
 20
125.2285007606136
 30
0.0
 11
64.804510091694056
 21
129.1634518316948
 31
0.0
  0
LINE
  5
1647
  8
0
  6
CONTINUOUS
 62
     7
 10
66.404266403944334
 20
129.1634518316948
 30
0.0
 11
66.404266403944334
 21
123.5719046046006
 31
0.0
  0
LINE
  5
1648
  8
L1
  6
HIDDEN
 62
     1
 10
68.804510091694056
 20
153.62308710043371
 30
0.0
 11
68.804510091694056
 21
144.46345183169481
 31
0.0
  0
ARC
  5
1649
  8
L1
  6
HIDDEN
 62
     1
 10
69.204510091694033
 20
143.7730871004336
 30
0.0
 40
0.4000000000000157
 50
180.0
 51
269.00000000000779
  0
ARC
  5
164A
  8
L1
  6
HIDDEN
 62
     1
 10
69.204510091694033
 20
153.62308710043371
 30
0.0
 40
0.3999999999999872
 50
180.0
 51
269.00000000000779
  0
LINE
  5
164B
  8
L1
  6
HIDDEN
 62
     1
 10
68.804510091694056
 20
153.72307186994931
 30
0.0
 11
68.804510091694056
 21
153.62308710043371
 31
0.0
  0
LINE
  5
164C
  8
0
  6
CONTINUOUS
 62
     7
 10
66.404266403944334
 20
282.95499905878899
 30
0.0
 11
89.804510091694056
 21
283.36345183169482
 31
0.0
  0
LINE
  5
164D
  8
L1
  6
HIDDEN
 62
     1
 10
69.197529129119175
 20
278.00375564101842
 30
0.0
 11
89.804510091694056
 21
278.36345183169482
 31
0.0
  0
LINE
  5
164E
  8
L1
  6
HIDDEN
 62
     1
 10
69.197529129119175
 20
253.3037556410184
 30
0.0
 11
91.804510091694056
 21
253.6983619615512
 31
0.0
  0
LINE
  5
164F
  8
L1
  6
HIDDEN
 62
     1
 10
91.804510091694056
 20
263.54836196155128
 30
0.0
 11
69.197529129119175
 21
263.15375564101851
 31
0.0
  0
LINE
  5
1650
  8
0
  6
CONTINUOUS
 62
     7
 10
91.804510091694056
 20
253.6983619615512
 30
0.0
 11
91.804510091694056
 21
277.86351429093997
 31
0.0
  0
LINE
  5
1651
  8
0
  6
CONTINUOUS
 62
     7
 10
89.804510091694056
 20
283.36345183169482
 30
0.0
 11
89.804510091694056
 21
277.36345183169482
 31
0.0
  0
LINE
  5
1652
  8
0
  6
CONTINUOUS
 62
     7
 10
91.804510091694056
 20
277.86351429093952
 30
0.0
 11
91.804510091694056
 21
279.32854169895489
 31
0.0
  0
LINE
  5
1653
  8
0
  6
CONTINUOUS
 62
     7
 10
91.804510091694056
 20
279.32854170183811
 30
0.0
 11
89.804510091694056
 21
279.36345183169448
 31
0.0
  0
LINE
  5
1654
  8
0
  6
HIDDEN
 62
     7
 10
91.804510091694056
 20
278.39836196155119
 30
0.0
 11
89.804510091694056
 21
278.3634518316947
 31
0.0
  0
LINE
  5
1655
  8
L1
  6
HIDDEN
 62
     1
 10
68.804510091694056
 20
262.06345183169469
 30
0.0
 11
68.804510091694056
 21
277.50383179344033
 31
0.0
  0
LINE
  5
1656
  8
L1
  6
HIDDEN
 62
     1
 10
68.804510091694056
 20
252.80383179344031
 30
0.0
 11
68.804510091694056
 21
252.90381656295591
 31
0.0
  0
ARC
  5
1657
  8
L1
  6
HIDDEN
 62
     1
 10
69.204510091694033
 20
252.90381656295591
 30
0.0
 40
0.3999999999999872
 50
90.999999999992255
 51
180.0
  0
ARC
  5
1658
  8
L1
  6
HIDDEN
 62
     1
 10
69.204510091694033
 20
262.75381656295588
 30
0.0
 40
0.4000000000000157
 50
90.999999999992255
 51
180.0
  0
LINE
  5
1659
  8
L1
  6
HIDDEN
 62
     1
 10
68.804510091694056
 20
252.90381656295591
 30
0.0
 11
68.804510091694056
 21
262.06345183169469
 31
0.0
  0
LINE
  5
165A
  8
0
  6
CONTINUOUS
 62
     7
 10
66.404266403944334
 20
277.36345183169482
 30
0.0
 11
66.404266403944334
 21
282.95499905878899
 31
0.0
  0
LINE
  5
165B
  8
0
  6
CONTINUOUS
 62
     7
 10
64.804510091694056
 20
281.29840290277599
 30
0.0
 11
64.804510091694056
 21
277.36345183169482
 31
0.0
  0
LINE
  5
165C
  8
0
  6
CONTINUOUS
 62
     7
 10
66.404266403944334
 20
282.95499905878899
 30
0.0
 11
64.804510091694056
 21
281.29840290277599
 31
0.0
  0
ARC
  5
165D
  8
L1
  6
HIDDEN
 62
     1
 10
69.204510091694033
 20
277.6038165629559
 30
0.0
 40
0.3999999999999872
 50
90.999999999992255
 51
180.0
  0
LINE
  5
165E
  8
L1
  6
HIDDEN
 62
     1
 10
68.804510091694056
 20
277.50383179344033
 30
0.0
 11
68.804510091694056
 21
277.6038165629559
 31
0.0
  0
ENDSEC
  0
EOF
