  0
SECTION
  2
HEADER
  9
$ACADVER
  1
AC1012
  9
$DWGCODEPAGE
  3
ANSI_1252
  9
$INSBASE
 10
0.0
 20
0.0
 30
0.0
  9
$EXTMIN
 10
-274.027353
 20
-11.542947
 30
0.0
  9
$EXTMAX
 10
622.551302
 20
430.340535
 30
0.0
  9
$LIMMIN
 10
-5.0
 20
0.0
  9
$LIMMAX
 10
1071.235114
 20
943.858443
  9
$ORTHOMODE
 70
     0
  9
$REGENMODE
 70
     1
  9
$FILLMODE
 70
     1
  9
$QTEXTMODE
 70
     0
  9
$MIRRTEXT
 70
     1
  9
$DRAGMODE
 70
     2
  9
$LTSCALE
 40
7.0
  9
$OSMODE
 70
     0
  9
$ATTMODE
 70
     1
  9
$TEXTSIZE
 40
3.5
  9
$TRACEWID
 40
0.5
  9
$TEXTSTYLE
  7
TKKISO
  9
$CLAYER
  8
1
  9
$CELTYPE
  6
BYLAYER
  9
$CECOLOR
 62
   256
  9
$CELTSCALE
 40
1.0
  9
$DELOBJ
 70
     1
  9
$DISPSILH
 70
     0
  9
$DIMSCALE
 40
1.0
  9
$DIMASZ
 40
3.5
  9
$DIMEXO
 40
1.0
  9
$DIMDLI
 40
7.0
  9
$DIMRND
 40
0.0
  9
$DIMDLE
 40
0.0
  9
$DIMEXE
 40
1.0
  9
$DIMTP
 40
0.0
  9
$DIMTM
 40
0.0
  9
$DIMTXT
 40
3.5
  9
$DIMCEN
 40
0.0
  9
$DIMTSZ
 40
0.0
  9
$DIMTOL
 70
     0
  9
$DIMLIM
 70
     0
  9
$DIMTIH
 70
     0
  9
$DIMTOH
 70
     0
  9
$DIMSE1
 70
     0
  9
$DIMSE2
 70
     0
  9
$DIMTAD
 70
     1
  9
$DIMZIN
 70
     8
  9
$DIMBLK
  1

  9
$DIMASO
 70
     1
  9
$DIMSHO
 70
     1
  9
$DIMPOST
  1

  9
$DIMAPOST
  1

  9
$DIMALT
 70
     0
  9
$DIMALTD
 70
     2
  9
$DIMALTF
 40
25.4
  9
$DIMLFAC
 40
1.0
  9
$DIMTOFL
 70
     1
  9
$DIMTVP
 40
0.0
  9
$DIMTIX
 70
     0
  9
$DIMSOXD
 70
     0
  9
$DIMSAH
 70
     0
  9
$DIMBLK1
  1

  9
$DIMBLK2
  1

  9
$DIMSTYLE
  2
STANDARD
  9
$DIMCLRD
 70
     1
  9
$DIMCLRE
 70
     1
  9
$DIMCLRT
 70
     3
  9
$DIMTFAC
 40
1.0
  9
$DIMGAP
 40
0.09
  9
$DIMJUST
 70
     0
  9
$DIMSD1
 70
     0
  9
$DIMSD2
 70
     0
  9
$DIMTOLJ
 70
     1
  9
$DIMTZIN
 70
     8
  9
$DIMALTZ
 70
     8
  9
$DIMALTTZ
 70
     8
  9
$DIMFIT
 70
     5
  9
$DIMUPT
 70
     0
  9
$DIMUNIT
 70
     2
  9
$DIMDEC
 70
     1
  9
$DIMTDEC
 70
     1
  9
$DIMALTU
 70
     2
  9
$DIMALTTD
 70
     2
  9
$DIMTXSTY
  7
TKKISO
  9
$DIMAUNIT
 70
     0
  9
$LUNITS
 70
     2
  9
$LUPREC
 70
     1
  9
$SKETCHINC
 40
1.0
  9
$FILLETRAD
 40
0.0
  9
$AUNITS
 70
     0
  9
$AUPREC
 70
     1
  9
$MENU
  1
caesar
  9
$ELEVATION
 40
0.0
  9
$PELEVATION
 40
0.0
  9
$THICKNESS
 40
0.0
  9
$LIMCHECK
 70
     0
  9
$BLIPMODE
 70
     0
  9
$CHAMFERA
 40
5.0
  9
$CHAMFERB
 40
5.0
  9
$CHAMFERC
 40
0.0
  9
$CHAMFERD
 40
0.0
  9
$SKPOLY
 70
     1
  9
$TDCREATE
 40
2448749.806246412
  9
$TDUPDATE
 40
2451093.650128356
  9
$TDINDWG
 40
0.5941262731
  9
$TDUSRTIMER
 40
0.5941262731
  9
$USRTIMER
 70
     1
  9
$ANGBASE
 50
0.0
  9
$ANGDIR
 70
     0
  9
$PDMODE
 70
     0
  9
$PDSIZE
 40
2.0
  9
$PLINEWID
 40
0.0
  9
$COORDS
 70
     2
  9
$SPLFRAME
 70
     0
  9
$SPLINETYPE
 70
     6
  9
$SPLINESEGS
 70
     8
  9
$ATTDIA
 70
     1
  9
$ATTREQ
 70
     1
  9
$HANDLING
 70
     1
  9
$HANDSEED
  5
3A0
  9
$SURFTAB1
 70
     6
  9
$SURFTAB2
 70
     6
  9
$SURFTYPE
 70
     6
  9
$SURFU
 70
     6
  9
$SURFV
 70
     6
  9
$UCSNAME
  2

  9
$UCSORG
 10
0.0
 20
0.0
 30
0.0
  9
$UCSXDIR
 10
1.0
 20
0.0
 30
0.0
  9
$UCSYDIR
 10
0.0
 20
1.0
 30
0.0
  9
$PUCSNAME
  2

  9
$PUCSORG
 10
0.0
 20
0.0
 30
0.0
  9
$PUCSXDIR
 10
1.0
 20
0.0
 30
0.0
  9
$PUCSYDIR
 10
0.0
 20
1.0
 30
0.0
  9
$USERI1
 70
   103
  9
$USERI2
 70
     0
  9
$USERI3
 70
     0
  9
$USERI4
 70
     0
  9
$USERI5
 70
     0
  9
$USERR1
 40
1.0
  9
$USERR2
 40
0.0
  9
$USERR3
 40
3.5
  9
$USERR4
 40
0.0
  9
$USERR5
 40
0.0
  9
$WORLDVIEW
 70
     1
  9
$SHADEDGE
 70
     3
  9
$SHADEDIF
 70
    70
  9
$TILEMODE
 70
     1
  9
$MAXACTVP
 70
    16
  9
$PINSBASE
 10
0.0
 20
0.0
 30
0.0
  9
$PLIMCHECK
 70
     0
  9
$PEXTMIN
 10
1.000000E+20
 20
1.000000E+20
 30
1.000000E+20
  9
$PEXTMAX
 10
-1.000000E+20
 20
-1.000000E+20
 30
-1.000000E+20
  9
$PLIMMIN
 10
0.0
 20
0.0
  9
$PLIMMAX
 10
12.0
 20
9.0
  9
$UNITMODE
 70
     0
  9
$VISRETAIN
 70
     0
  9
$PLINEGEN
 70
     0
  9
$PSLTSCALE
 70
     0
  9
$TREEDEPTH
 70
  3020
  9
$PICKSTYLE
 70
     1
  9
$CMLSTYLE
  2
STANDARD
  9
$CMLJUST
 70
     0
  9
$CMLSCALE
 40
1.0
  9
$SAVEIMAGES
 70
     1
  0
ENDSEC
  0
SECTION
  2
CLASSES
  0
ENDSEC
  0
SECTION
  2
TABLES
  0
TABLE
  2
VPORT
  5
8
100
AcDbSymbolTable
 70
     2
  0
VPORT
  5
39F
100
AcDbSymbolTableRecord
100
AcDbViewportTableRecord
  2
*ACTIVE
 70
     0
 10
0.0
 20
0.0
 11
1.0
 21
1.0
 12
174.28425
 22
209.398
 13
0.0
 23
0.0
 14
6.0
 24
6.0
 15
0.0
 25
0.0
 16
0.0
 26
0.0
 36
1.0
 17
0.0
 27
0.0
 37
0.0
 40
575.496593
 41
1.566964
 42
50.0
 43
0.0
 44
0.0
 50
0.0
 51
0.0
 71
     0
 72
  1000
 73
     1
 74
     0
 75
     0
 76
     0
 77
     0
 78
     0
  0
ENDTAB
  0
TABLE
  2
LTYPE
  5
5
100
AcDbSymbolTable
 70
     8
  0
LTYPE
  5
11
100
AcDbSymbolTableRecord
100
AcDbLinetypeTableRecord
  2
BYBLOCK
 70
     0
  3

 72
    65
 73
     0
 40
0.0
  0
LTYPE
  5
12
100
AcDbSymbolTableRecord
100
AcDbLinetypeTableRecord
  2
BYLAYER
 70
     0
  3

 72
    65
 73
     0
 40
0.0
  0
LTYPE
  5
13
100
AcDbSymbolTableRecord
100
AcDbLinetypeTableRecord
  2
CONTINUOUS
 70
     0
  3
Solid line
 72
    65
 73
     0
 40
0.0
  0
LTYPE
  5
26
100
AcDbSymbolTableRecord
100
AcDbLinetypeTableRecord
  2
CENTER
 70
     0
  3
------  -  -----  -  -----  -  -----  -  ------
 72
    65
 73
     4
 40
1.8
 49
1.25
 74
     0
 49
-0.25
 74
     0
 49
0.05
 74
     0
 49
-0.25
 74
     0
  0
LTYPE
  5
27
100
AcDbSymbolTableRecord
100
AcDbLinetypeTableRecord
  2
DASHDOT
 70
     0
  3
__ . __ . __ . __ . __ . __ . __ . __ . __ . __
 72
    65
 73
     4
 40
1.0
 49
0.5
 74
     0
 49
-0.25
 74
     0
 49
0.0
 74
     0
 49
-0.25
 74
     0
  0
LTYPE
  5
28
100
AcDbSymbolTableRecord
100
AcDbLinetypeTableRecord
  2
DASHED
 70
     0
  3
__ __ __ __ __ __ __ __ __ __ __ __ __ __ __
 72
    65
 73
     2
 40
0.75
 49
0.5
 74
     0
 49
-0.25
 74
     0
  0
LTYPE
  5
29
100
AcDbSymbolTableRecord
100
AcDbLinetypeTableRecord
  2
DIVIDE
 70
     0
  3
__ . . __ . . __ . . __ . . __ . . __ . . __
 72
    65
 73
     6
 40
1.25
 49
0.5
 74
     0
 49
-0.25
 74
     0
 49
0.0
 74
     0
 49
-0.25
 74
     0
 49
0.0
 74
     0
 49
-0.25
 74
     0
  0
LTYPE
  5
2A
100
AcDbSymbolTableRecord
100
AcDbLinetypeTableRecord
  2
PHANTOM
 70
     0
  3
______  __  __  ______  __  __  ______  __  __ 
 72
    65
 73
     6
 40
2.5
 49
1.25
 74
     0
 49
-0.25
 74
     0
 49
0.25
 74
     0
 49
-0.25
 74
     0
 49
0.25
 74
     0
 49
-0.25
 74
     0
  0
LTYPE
  5
2B
100
AcDbSymbolTableRecord
100
AcDbLinetypeTableRecord
  2
DOTX2
 70
     0
  3
.  .  .  .  .  .  .  .  .  .  .  .  .  .  .  . 
 72
    65
 73
     2
 40
0.5
 49
0.0
 74
     0
 49
-0.5
 74
     0
  0
LTYPE
  5
2C
100
AcDbSymbolTableRecord
100
AcDbLinetypeTableRecord
  2
HIDDEN
 70
     0
  3
__ __ __ __ __ __ __ __ __ __ __ __ __ __ __ __
 72
    65
 73
     2
 40
0.375
 49
0.25
 74
     0
 49
-0.125
 74
     0
  0
ENDTAB
  0
TABLE
  2
LAYER
  5
2
100
AcDbSymbolTable
 70
    81
  0
LAYER
  5
E
100
AcDbSymbolTableRecord
100
AcDbLayerTableRecord
  2
0
 70
     0
 62
     7
  6
CONTINUOUS
  0
LAYER
  5
2F
100
AcDbSymbolTableRecord
100
AcDbLayerTableRecord
  2
L1
 70
     0
 62
     7
  6
CONTINUOUS
  0
LAYER
  5
30
100
AcDbSymbolTableRecord
100
AcDbLayerTableRecord
  2
L6
 70
     0
 62
     1
  6
CENTER
  0
LAYER
  5
31
100
AcDbSymbolTableRecord
100
AcDbLayerTableRecord
  2
L23
 70
     0
 62
     1
  6
CONTINUOUS
  0
LAYER
  5
32
100
AcDbSymbolTableRecord
100
AcDbLayerTableRecord
  2
L45
 70
     0
 62
     1
  6
CONTINUOUS
  0
LAYER
  5
33
100
AcDbSymbolTableRecord
100
AcDbLayerTableRecord
  2
L4
 70
     0
 62
     1
  6
DASHED
  0
LAYER
  5
34
100
AcDbSymbolTableRecord
100
AcDbLayerTableRecord
  2
L22
 70
     0
 62
     1
  6
CONTINUOUS
  0
LAYER
  5
35
100
AcDbSymbolTableRecord
100
AcDbLayerTableRecord
  2
DEFPOINTS
 70
     0
 62
    -7
  6
CONTINUOUS
  0
LAYER
  5
36
100
AcDbSymbolTableRecord
100
AcDbLayerTableRecord
  2
L40
 70
     0
 62
     7
  6
CONTINUOUS
  0
LAYER
  5
37
100
AcDbSymbolTableRecord
100
AcDbLayerTableRecord
  2
L41
 70
     0
 62
     1
  6
CONTINUOUS
  0
LAYER
  5
38
100
AcDbSymbolTableRecord
100
AcDbLayerTableRecord
  2
A1
 70
     0
 62
     7
  6
CONTINUOUS
  0
LAYER
  5
39
100
AcDbSymbolTableRecord
100
AcDbLayerTableRecord
  2
L43
 70
     0
 62
     7
  6
CONTINUOUS
  0
LAYER
  5
3A
100
AcDbSymbolTableRecord
100
AcDbLayerTableRecord
  2
L44
 70
     0
 62
     1
  6
CONTINUOUS
  0
LAYER
  5
3B
100
AcDbSymbolTableRecord
100
AcDbLayerTableRecord
  2
L46
 70
     0
 62
     3
  6
CONTINUOUS
  0
LAYER
  5
3C
100
AcDbSymbolTableRecord
100
AcDbLayerTableRecord
  2
L2
 70
     0
 62
     1
  6
CONTINUOUS
  0
LAYER
  5
3D
100
AcDbSymbolTableRecord
100
AcDbLayerTableRecord
  2
L3
 70
     0
 62
     7
  6
DASHED
  0
LAYER
  5
3E
100
AcDbSymbolTableRecord
100
AcDbLayerTableRecord
  2
L5
 70
     0
 62
     7
  6
CENTER
  0
LAYER
  5
3F
100
AcDbSymbolTableRecord
100
AcDbLayerTableRecord
  2
L7
 70
     0
 62
     1
  6
PHANTOM
  0
LAYER
  5
40
100
AcDbSymbolTableRecord
100
AcDbLayerTableRecord
  2
L8
 70
     0
 62
     1
  6
CONTINUOUS
  0
LAYER
  5
41
100
AcDbSymbolTableRecord
100
AcDbLayerTableRecord
  2
L20
 70
     0
 62
     3
  6
CONTINUOUS
  0
LAYER
  5
42
100
AcDbSymbolTableRecord
100
AcDbLayerTableRecord
  2
L21
 70
     0
 62
     1
  6
CONTINUOUS
  0
LAYER
  5
43
100
AcDbSymbolTableRecord
100
AcDbLayerTableRecord
  2
1
 70
     0
 62
     7
  6
CONTINUOUS
  0
LAYER
  5
44
100
AcDbSymbolTableRecord
100
AcDbLayerTableRecord
  2
TITEL
 70
     0
 62
     7
  6
CONTINUOUS
  0
LAYER
  5
45
100
AcDbSymbolTableRecord
100
AcDbLayerTableRecord
  2
L30
 70
     0
 62
     3
  6
CONTINUOUS
  0
LAYER
  5
46
100
AcDbSymbolTableRecord
100
AcDbLayerTableRecord
  2
L31
 70
     0
 62
     1
  6
CONTINUOUS
  0
LAYER
  5
47
100
AcDbSymbolTableRecord
100
AcDbLayerTableRecord
  2
L32
 70
     0
 62
     3
  6
CONTINUOUS
  0
LAYER
  5
48
100
AcDbSymbolTableRecord
100
AcDbLayerTableRecord
  2
L33
 70
     0
 62
     1
  6
CONTINUOUS
  0
LAYER
  5
49
100
AcDbSymbolTableRecord
100
AcDbLayerTableRecord
  2
L34
 70
     0
 62
     3
  6
CONTINUOUS
  0
LAYER
  5
4A
100
AcDbSymbolTableRecord
100
AcDbLayerTableRecord
  2
L35
 70
     0
 62
     1
  6
CONTINUOUS
  0
LAYER
  5
4B
100
AcDbSymbolTableRecord
100
AcDbLayerTableRecord
  2
L36
 70
     0
 62
     7
  6
CONTINUOUS
  0
LAYER
  5
4C
100
AcDbSymbolTableRecord
100
AcDbLayerTableRecord
  2
L37
 70
     0
 62
     1
  6
CONTINUOUS
  0
LAYER
  5
4D
100
AcDbSymbolTableRecord
100
AcDbLayerTableRecord
  2
L38
 70
     0
 62
     1
  6
CENTER
  0
LAYER
  5
4E
100
AcDbSymbolTableRecord
100
AcDbLayerTableRecord
  2
L42
 70
     0
 62
     1
  6
CONTINUOUS
  0
LAYER
  5
4F
100
AcDbSymbolTableRecord
100
AcDbLayerTableRecord
  2
L50
 70
     0
 62
     7
  6
CONTINUOUS
  0
LAYER
  5
50
100
AcDbSymbolTableRecord
100
AcDbLayerTableRecord
  2
L51
 70
     0
 62
     1
  6
CONTINUOUS
  0
LAYER
  5
51
100
AcDbSymbolTableRecord
100
AcDbLayerTableRecord
  2
L52
 70
     0
 62
     7
  6
CONTINUOUS
  0
LAYER
  5
52
100
AcDbSymbolTableRecord
100
AcDbLayerTableRecord
  2
L53
 70
     0
 62
     1
  6
CONTINUOUS
  0
LAYER
  5
53
100
AcDbSymbolTableRecord
100
AcDbLayerTableRecord
  2
L54
 70
     0
 62
     3
  6
CONTINUOUS
  0
LAYER
  5
54
100
AcDbSymbolTableRecord
100
AcDbLayerTableRecord
  2
L55
 70
     0
 62
     3
  6
CONTINUOUS
  0
LAYER
  5
55
100
AcDbSymbolTableRecord
100
AcDbLayerTableRecord
  2
L56
 70
     0
 62
     3
  6
CONTINUOUS
  0
LAYER
  5
56
100
AcDbSymbolTableRecord
100
AcDbLayerTableRecord
  2
L57
 70
     0
 62
     1
  6
CONTINUOUS
  0
LAYER
  5
57
100
AcDbSymbolTableRecord
100
AcDbLayerTableRecord
  2
L58
 70
     0
 62
     1
  6
CONTINUOUS
  0
LAYER
  5
58
100
AcDbSymbolTableRecord
100
AcDbLayerTableRecord
  2
A2
 70
     0
 62
     5
  6
CONTINUOUS
  0
LAYER
  5
59
100
AcDbSymbolTableRecord
100
AcDbLayerTableRecord
  2
A3
 70
     0
 62
     4
  6
CONTINUOUS
  0
LAYER
  5
5A
100
AcDbSymbolTableRecord
100
AcDbLayerTableRecord
  2
A4
 70
     0
 62
     3
  6
CONTINUOUS
  0
LAYER
  5
5B
100
AcDbSymbolTableRecord
100
AcDbLayerTableRecord
  2
A5
 70
     0
 62
     2
  6
CONTINUOUS
  0
LAYER
  5
5C
100
AcDbSymbolTableRecord
100
AcDbLayerTableRecord
  2
A6
 70
     0
 62
     8
  6
CONTINUOUS
  0
LAYER
  5
5D
100
AcDbSymbolTableRecord
100
AcDbLayerTableRecord
  2
L24
 70
     0
 62
     1
  6
CONTINUOUS
  0
LAYER
  5
5E
100
AcDbSymbolTableRecord
100
AcDbLayerTableRecord
  2
L16
 70
     0
 62
     5
  6
DOTX2
  0
LAYER
  5
5F
100
AcDbSymbolTableRecord
100
AcDbLayerTableRecord
  2
L15
 70
     0
 62
     4
  6
CONTINUOUS
  0
LAYER
  5
60
100
AcDbSymbolTableRecord
100
AcDbLayerTableRecord
  2
L9
 70
     0
 62
     7
  6
HIDDEN
  0
LAYER
  5
61
100
AcDbSymbolTableRecord
100
AcDbLayerTableRecord
  2
11
 70
     0
 62
     7
  6
CONTINUOUS
  0
LAYER
  5
62
100
AcDbSymbolTableRecord
100
AcDbLayerTableRecord
  2
12
 70
     0
 62
     1
  6
CONTINUOUS
  0
LAYER
  5
63
100
AcDbSymbolTableRecord
100
AcDbLayerTableRecord
  2
13
 70
     0
 62
     1
  6
CENTER
  0
LAYER
  5
64
100
AcDbSymbolTableRecord
100
AcDbLayerTableRecord
  2
14
 70
     0
 62
     1
  6
DASHED
  0
LAYER
  5
65
100
AcDbSymbolTableRecord
100
AcDbLayerTableRecord
  2
15
 70
     0
 62
     2
  6
DASHED
  0
LAYER
  5
66
100
AcDbSymbolTableRecord
100
AcDbLayerTableRecord
  2
21
 70
     0
 62
     7
  6
CONTINUOUS
  0
LAYER
  5
67
100
AcDbSymbolTableRecord
100
AcDbLayerTableRecord
  2
22
 70
     0
 62
     1
  6
CONTINUOUS
  0
LAYER
  5
68
100
AcDbSymbolTableRecord
100
AcDbLayerTableRecord
  2
23
 70
     0
 62
     1
  6
CENTER
  0
LAYER
  5
69
100
AcDbSymbolTableRecord
100
AcDbLayerTableRecord
  2
24
 70
     0
 62
     1
  6
DASHED
  0
LAYER
  5
6A
100
AcDbSymbolTableRecord
100
AcDbLayerTableRecord
  2
25
 70
     0
 62
     2
  6
DASHED
  0
LAYER
  5
6B
100
AcDbSymbolTableRecord
100
AcDbLayerTableRecord
  2
31
 70
     0
 62
     7
  6
CONTINUOUS
  0
LAYER
  5
6C
100
AcDbSymbolTableRecord
100
AcDbLayerTableRecord
  2
32
 70
     0
 62
     1
  6
CONTINUOUS
  0
LAYER
  5
6D
100
AcDbSymbolTableRecord
100
AcDbLayerTableRecord
  2
33
 70
     0
 62
     1
  6
CENTER
  0
LAYER
  5
6E
100
AcDbSymbolTableRecord
100
AcDbLayerTableRecord
  2
34
 70
     0
 62
     1
  6
DASHED
  0
LAYER
  5
6F
100
AcDbSymbolTableRecord
100
AcDbLayerTableRecord
  2
35
 70
     0
 62
     2
  6
DASHED
  0
LAYER
  5
70
100
AcDbSymbolTableRecord
100
AcDbLayerTableRecord
  2
41
 70
     0
 62
     7
  6
CONTINUOUS
  0
LAYER
  5
71
100
AcDbSymbolTableRecord
100
AcDbLayerTableRecord
  2
42
 70
     0
 62
     1
  6
CONTINUOUS
  0
LAYER
  5
72
100
AcDbSymbolTableRecord
100
AcDbLayerTableRecord
  2
43
 70
     0
 62
     1
  6
CENTER
  0
LAYER
  5
73
100
AcDbSymbolTableRecord
100
AcDbLayerTableRecord
  2
44
 70
     0
 62
     1
  6
DASHED
  0
LAYER
  5
74
100
AcDbSymbolTableRecord
100
AcDbLayerTableRecord
  2
45
 70
     0
 62
     2
  6
DASHED
  0
LAYER
  5
75
100
AcDbSymbolTableRecord
100
AcDbLayerTableRecord
  2
51
 70
     0
 62
     7
  6
CONTINUOUS
  0
LAYER
  5
76
100
AcDbSymbolTableRecord
100
AcDbLayerTableRecord
  2
52
 70
     0
 62
     1
  6
CONTINUOUS
  0
LAYER
  5
77
100
AcDbSymbolTableRecord
100
AcDbLayerTableRecord
  2
53
 70
     0
 62
     1
  6
CENTER
  0
LAYER
  5
78
100
AcDbSymbolTableRecord
100
AcDbLayerTableRecord
  2
54
 70
     0
 62
     1
  6
DASHED
  0
LAYER
  5
79
100
AcDbSymbolTableRecord
100
AcDbLayerTableRecord
  2
55
 70
     0
 62
     2
  6
DASHED
  0
LAYER
  5
7A
100
AcDbSymbolTableRecord
100
AcDbLayerTableRecord
  2
61
 70
     0
 62
     7
  6
CONTINUOUS
  0
LAYER
  5
7B
100
AcDbSymbolTableRecord
100
AcDbLayerTableRecord
  2
62
 70
     0
 62
     1
  6
CONTINUOUS
  0
LAYER
  5
7C
100
AcDbSymbolTableRecord
100
AcDbLayerTableRecord
  2
63
 70
     0
 62
     1
  6
CENTER
  0
LAYER
  5
7D
100
AcDbSymbolTableRecord
100
AcDbLayerTableRecord
  2
64
 70
     0
 62
     1
  6
DASHED
  0
LAYER
  5
7E
100
AcDbSymbolTableRecord
100
AcDbLayerTableRecord
  2
65
 70
     0
 62
     2
  6
DASHED
  0
ENDTAB
  0
TABLE
  2
STYLE
  5
3
100
AcDbSymbolTable
 70
    11
  0
STYLE
  5
F
100
AcDbSymbolTableRecord
100
AcDbTextStyleTableRecord
  2
STANDARD
 70
     0
 40
0.0
 41
1.0
 50
0.0
 71
     0
 42
0.2
  3
caeiso
  4

  0
STYLE
  5
1C
100
AcDbSymbolTableRecord
100
AcDbTextStyleTableRecord
  2
ISO
 70
     0
 40
0.0
 41
1.0
 50
0.0
 71
     0
 42
3.5
  3
ISO
  4

  0
STYLE
  5
1D
100
AcDbSymbolTableRecord
100
AcDbTextStyleTableRecord
  2
SIMPLEX
 70
     0
 40
0.0
 41
1.0
 50
0.0
 71
     0
 42
2.0
  3
simplex
  4

  0
STYLE
  5
1E
100
AcDbSymbolTableRecord
100
AcDbTextStyleTableRecord
  2
PIENI
 70
     0
 40
0.0
 41
1.0
 50
0.0
 71
     0
 42
3.0
  3
SIMPLEX
  4

  0
STYLE
  5
1F
100
AcDbSymbolTableRecord
100
AcDbTextStyleTableRecord
  2
ROMANS
 70
     0
 40
0.0
 41
1.0
 50
0.0
 71
     0
 42
3.5
  3
ISO
  4

  0
STYLE
  5
20
100
AcDbSymbolTableRecord
100
AcDbTextStyleTableRecord
  2
COMPLEX
 70
     0
 40
5.0
 41
1.0
 50
0.0
 71
     0
 42
5.0
  3
complex
  4

  0
STYLE
  5
21
100
AcDbSymbolTableRecord
100
AcDbTextStyleTableRecord
  2
TXT
 70
     0
 40
0.0
 41
1.0
 50
0.0
 71
     0
 42
0.2
  3
txt
  4

  0
STYLE
  5
22
100
AcDbSymbolTableRecord
100
AcDbTextStyleTableRecord
  2
USER
 70
     0
 40
0.0
 41
1.0
 50
0.0
 71
     0
 42
0.2
  3
KIRJAIN
  4

  0
STYLE
  5
23
100
AcDbSymbolTableRecord
100
AcDbTextStyleTableRecord
  2
ITALIC
 70
     0
 40
0.0
 41
1.0
 50
0.0
 71
     0
 42
0.2
  3
ITALIC
  4

  0
STYLE
  5
24
100
AcDbSymbolTableRecord
100
AcDbTextStyleTableRecord
  2
MONO
 70
     0
 40
0.0
 41
1.0
 50
0.0
 71
     0
 42
9.5
  3
monotxt
  4

  0
STYLE
  5
25
100
AcDbSymbolTableRecord
100
AcDbTextStyleTableRecord
  2
TKKISO
 70
     0
 40
0.0
 41
1.0
 50
0.0
 71
     0
 42
3.5
  3
caeiso
  4

  0
ENDTAB
  0
TABLE
  2
VIEW
  5
6
100
AcDbSymbolTable
 70
     0
  0
ENDTAB
  0
TABLE
  2
UCS
  5
7
100
AcDbSymbolTable
 70
     0
  0
ENDTAB
  0
TABLE
  2
APPID
  5
9
100
AcDbSymbolTable
 70
     1
  0
APPID
  5
10
100
AcDbSymbolTableRecord
100
AcDbRegAppTableRecord
  2
ACAD
 70
     0
  0
ENDTAB
  0
TABLE
  2
DIMSTYLE
  5
A
100
AcDbSymbolTable
 70
     1
  0
DIMSTYLE
105
369
100
AcDbSymbolTableRecord
100
AcDbDimStyleTableRecord
  2
STANDARD
 70
     0
  3

  4

  5

  6

  7

 40
1.0
 41
0.18
 42
0.0625
 43
0.38
 44
0.18
 45
0.0
 46
0.0
 47
0.0
 48
0.0
140
0.18
141
0.09
142
0.0
143
25.4
144
1.0
145
0.0
146
1.0
147
0.09
 71
     0
 72
     0
 73
     1
 74
     1
 75
     0
 76
     0
 77
     0
 78
     0
170
     0
171
     2
172
     0
173
     0
174
     0
175
     0
176
     0
177
     0
178
     0
270
     2
271
     4
272
     4
273
     2
274
     2
340
F
275
     0
280
     0
281
     0
282
     0
283
     1
284
     0
285
     0
286
     0
287
     3
288
     0
  0
ENDTAB
  0
TABLE
  2
BLOCK_RECORD
  5
1
100
AcDbSymbolTable
 70
     3
  0
BLOCK_RECORD
  5
17
100
AcDbSymbolTableRecord
100
AcDbBlockTableRecord
  2
*MODEL_SPACE
  0
BLOCK_RECORD
  5
14
100
AcDbSymbolTableRecord
100
AcDbBlockTableRecord
  2
*PAPER_SPACE
  0
ENDTAB
  0
ENDSEC
  0
SECTION
  2
BLOCKS
  0
BLOCK
  5
81
100
AcDbEntity
  8
0
100
AcDbBlockBegin
  2
*MODEL_SPACE
 70
     0
 10
0.0
 20
0.0
 30
0.0
  3
*MODEL_SPACE
  1

  0
ENDBLK
  5
82
100
AcDbEntity
  8
0
100
AcDbBlockEnd
  0
BLOCK
  5
7F
100
AcDbEntity
 67
     1
  8
0
100
AcDbBlockBegin
  2
*PAPER_SPACE
 70
     0
 10
0.0
 20
0.0
 30
0.0
  3
*PAPER_SPACE
  1

  0
ENDBLK
  5
80
100
AcDbEntity
 67
     1
  8
0
100
AcDbBlockEnd
  0
ENDSEC
  0
SECTION
  2
ENTITIES
  0
ARC
  5
83
100
AcDbEntity
  8
61
100
AcDbCircle
 10
217.125132
 20
272.745652
 30
0.0
 40
4.580337
100
AcDbArc
 50
270.0
 51
0.0
  0
ARC
  5
84
100
AcDbEntity
  8
62
100
AcDbCircle
 10
217.125132
 20
272.745652
 30
0.0
 40
3.982546
100
AcDbArc
 50
270.0
 51
0.0
  0
ARC
  5
85
100
AcDbEntity
  8
62
100
AcDbCircle
 10
217.125132
 20
272.745652
 30
0.0
 40
2.454422
100
AcDbArc
 50
270.0
 51
0.0
  0
ARC
  5
86
100
AcDbEntity
  8
62
100
AcDbCircle
 10
217.125132
 20
272.745652
 30
0.0
 40
3.152654
100
AcDbArc
 50
270.0
 51
0.0
  0
ARC
  5
87
100
AcDbEntity
  8
62
100
AcDbCircle
 10
217.125132
 20
272.745652
 30
0.0
 40
2.8
100
AcDbArc
 50
270.0
 51
0.0
  0
ARC
  5
88
100
AcDbEntity
  8
62
100
AcDbCircle
 10
219.625132
 20
282.284607
 30
0.0
 40
0.3
100
AcDbArc
 50
0.0
 51
164.98255
  0
ARC
  5
89
100
AcDbEntity
  8
62
100
AcDbCircle
 10
211.271991
 20
282.47684
 30
0.0
 40
0.3
100
AcDbArc
 50
12.380799
 51
180.0
  0
ARC
  5
8A
100
AcDbEntity
  8
62
100
AcDbCircle
 10
215.471991
 20
283.398794
 30
0.0
 40
4.0
100
AcDbArc
 50
192.380799
 51
344.98255
  0
ARC
  5
8B
100
AcDbEntity
  8
62
100
AcDbCircle
 10
219.625132
 20
278.709675
 30
0.0
 40
0.3
100
AcDbArc
 50
0.0
 51
90.0
  0
ARC
  5
8C
100
AcDbEntity
  8
62
100
AcDbCircle
 10
211.271991
 20
278.709675
 30
0.0
 40
0.3
100
AcDbArc
 50
90.0
 51
180.0
  0
ARC
  5
8D
100
AcDbEntity
  8
62
100
AcDbCircle
 10
219.279554
 20
278.364096
 30
0.0
 40
0.3
100
AcDbArc
 50
0.0
 51
90.0
  0
ARC
  5
8E
100
AcDbEntity
  8
62
100
AcDbCircle
 10
211.617569
 20
278.364096
 30
0.0
 40
0.3
100
AcDbArc
 50
90.0
 51
180.0
  0
ARC
  5
8F
100
AcDbEntity
  8
62
100
AcDbCircle
 10
211.617569
 20
269.008243
 30
0.0
 40
0.3
100
AcDbArc
 50
180.0
 51
320.526261
  0
LINE
  5
90
100
AcDbEntity
  8
62
100
AcDbLine
 10
217.125132
 20
270.29123
 30
0.0
 11
214.971991
 21
270.29123
 31
0.0
  0
LINE
  5
91
100
AcDbEntity
  8
62
100
AcDbLine
 10
219.579554
 20
278.364096
 30
0.0
 11
219.579554
 21
272.745652
 31
0.0
  0
ARC
  5
92
100
AcDbEntity
  8
62
100
AcDbCircle
 10
214.971991
 20
266.245652
 30
0.0
 40
4.045578
100
AcDbArc
 50
90.0
 51
140.526261
  0
LINE
  5
93
100
AcDbEntity
  8
62
100
AcDbLine
 10
211.317569
 20
278.364096
 30
0.0
 11
211.317569
 21
269.008243
 31
0.0
  0
LINE
  5
94
100
AcDbEntity
  8
62
100
AcDbLine
 10
219.279554
 20
278.664096
 30
0.0
 11
211.617569
 21
278.664096
 31
0.0
  0
ARC
  5
95
100
AcDbEntity
  8
61
100
AcDbCircle
 10
223.625132
 20
283.698794
 30
0.0
 40
1.919663
100
AcDbArc
 50
90.0
 51
180.0
  0
LINE
  5
96
100
AcDbEntity
  8
61
100
AcDbLine
 10
221.705469
 20
283.698794
 30
0.0
 11
221.705469
 21
272.745652
 31
0.0
  0
LINE
  5
97
100
AcDbEntity
  8
61
100
AcDbLine
 10
217.125132
 20
268.165315
 30
0.0
 11
215.171991
 21
268.165315
 31
0.0
  0
ARC
  5
98
100
AcDbEntity
  8
61
100
AcDbCircle
 10
215.171991
 20
266.245652
 30
0.0
 40
1.919663
100
AcDbArc
 50
90.0
 51
180.0
  0
ARC
  5
99
100
AcDbEntity
  8
62
100
AcDbCircle
 10
223.625132
 20
283.898794
 30
0.0
 40
2.517454
100
AcDbArc
 50
90.0
 51
180.0
  0
ARC
  5
9A
100
AcDbEntity
  8
62
100
AcDbCircle
 10
214.971991
 20
266.245652
 30
0.0
 40
2.517454
100
AcDbArc
 50
90.0
 51
180.0
  0
ARC
  5
9B
100
AcDbEntity
  8
62
100
AcDbCircle
 10
223.625132
 20
283.898794
 30
0.0
 40
3.347346
100
AcDbArc
 50
90.0
 51
180.0
  0
ARC
  5
9C
100
AcDbEntity
  8
62
100
AcDbCircle
 10
214.971991
 20
266.245652
 30
0.0
 40
3.347346
100
AcDbArc
 50
90.0
 51
180.0
  0
ARC
  5
9D
100
AcDbEntity
  8
62
100
AcDbCircle
 10
211.271991
 20
267.765521
 30
0.0
 40
0.3
100
AcDbArc
 50
180.0
 51
337.668355
  0
ARC
  5
9E
100
AcDbEntity
  8
62
100
AcDbCircle
 10
223.625132
 20
283.898794
 30
0.0
 40
3.7
100
AcDbArc
 50
90.0
 51
180.0
  0
ARC
  5
9F
100
AcDbEntity
  8
62
100
AcDbCircle
 10
214.971991
 20
266.245652
 30
0.0
 40
3.7
100
AcDbArc
 50
90.0
 51
180.0
  0
LINE
  5
A0
100
AcDbEntity
  8
62
100
AcDbLine
 10
219.925132
 20
283.898794
 30
0.0
 11
219.925132
 21
272.745652
 31
0.0
  0
LINE
  5
A1
100
AcDbEntity
  8
62
100
AcDbLine
 10
220.277786
 20
283.898794
 30
0.0
 11
220.277786
 21
272.745652
 31
0.0
  0
LINE
  5
A2
100
AcDbEntity
  8
62
100
AcDbLine
 10
221.107679
 20
283.898794
 30
0.0
 11
221.107679
 21
272.745652
 31
0.0
  0
LINE
  5
A3
100
AcDbEntity
  8
62
100
AcDbLine
 10
217.125132
 20
269.945652
 30
0.0
 11
214.971991
 21
269.945652
 31
0.0
  0
LINE
  5
A4
100
AcDbEntity
  8
62
100
AcDbLine
 10
217.125132
 20
269.592998
 30
0.0
 11
214.971991
 21
269.592998
 31
0.0
  0
LINE
  5
A5
100
AcDbEntity
  8
62
100
AcDbLine
 10
217.125132
 20
268.763106
 30
0.0
 11
214.971991
 21
268.763106
 31
0.0
  0
ARC
  5
A6
100
AcDbEntity
  8
61
100
AcDbCircle
 10
215.471991
 20
283.398794
 30
0.0
 40
6.0
100
AcDbArc
 50
90.0
 51
180.0
  0
CIRCLE
  5
A7
100
AcDbEntity
  8
62
100
AcDbCircle
 10
215.471991
 20
283.398794
 30
0.0
 40
1.5
  0
CIRCLE
  5
A8
100
AcDbEntity
  8
62
100
AcDbCircle
 10
215.471991
 20
283.398794
 30
0.0
 40
2.05
  0
LINE
  5
A9
100
AcDbEntity
  8
62
100
AcDbLine
 10
210.971991
 20
282.47684
 30
0.0
 11
210.971991
 21
267.765521
 31
0.0
  0
LINE
  5
AA
100
AcDbEntity
  8
62
100
AcDbLine
 10
219.625132
 20
279.009675
 30
0.0
 11
211.271991
 21
279.009675
 31
0.0
  0
CIRCLE
  5
AB
100
AcDbEntity
  8
62
100
AcDbCircle
 10
215.471991
 20
274.398794
 30
0.0
 40
2.25
  0
CIRCLE
  5
AC
100
AcDbEntity
  8
62
100
AcDbCircle
 10
215.471991
 20
144.398794
 30
0.0
 40
2.25
  0
LINE
  5
AD
100
AcDbEntity
  8
62
100
AcDbLine
 10
219.625132
 20
139.787913
 30
0.0
 11
211.271991
 21
139.787913
 31
0.0
  0
LINE
  5
AE
100
AcDbEntity
  8
62
100
AcDbLine
 10
210.971991
 20
136.320748
 30
0.0
 11
210.971991
 21
151.032068
 31
0.0
  0
CIRCLE
  5
AF
100
AcDbEntity
  8
62
100
AcDbCircle
 10
215.471991
 20
135.398794
 30
0.0
 40
2.05
  0
CIRCLE
  5
B0
100
AcDbEntity
  8
62
100
AcDbCircle
 10
215.471991
 20
135.398794
 30
0.0
 40
1.5
  0
ARC
  5
B1
100
AcDbEntity
  8
61
100
AcDbCircle
 10
215.471991
 20
135.398794
 30
0.0
 40
6.0
100
AcDbArc
 50
180.0
 51
270.0
  0
LINE
  5
B2
100
AcDbEntity
  8
62
100
AcDbLine
 10
217.125132
 20
150.034482
 30
0.0
 11
214.971991
 21
150.034482
 31
0.0
  0
LINE
  5
B3
100
AcDbEntity
  8
62
100
AcDbLine
 10
217.125132
 20
149.20459
 30
0.0
 11
214.971991
 21
149.20459
 31
0.0
  0
LINE
  5
B4
100
AcDbEntity
  8
62
100
AcDbLine
 10
217.125132
 20
148.851936
 30
0.0
 11
214.971991
 21
148.851936
 31
0.0
  0
LINE
  5
B5
100
AcDbEntity
  8
62
100
AcDbLine
 10
221.107679
 20
134.898794
 30
0.0
 11
221.107679
 21
146.051936
 31
0.0
  0
LINE
  5
B6
100
AcDbEntity
  8
62
100
AcDbLine
 10
220.277786
 20
134.898794
 30
0.0
 11
220.277786
 21
146.051936
 31
0.0
  0
LINE
  5
B7
100
AcDbEntity
  8
62
100
AcDbLine
 10
219.925132
 20
134.898794
 30
0.0
 11
219.925132
 21
146.051936
 31
0.0
  0
ARC
  5
B8
100
AcDbEntity
  8
62
100
AcDbCircle
 10
214.971991
 20
152.551936
 30
0.0
 40
3.7
100
AcDbArc
 50
180.0
 51
270.0
  0
ARC
  5
B9
100
AcDbEntity
  8
62
100
AcDbCircle
 10
223.625132
 20
134.898794
 30
0.0
 40
3.7
100
AcDbArc
 50
180.0
 51
270.0
  0
ARC
  5
BA
100
AcDbEntity
  8
62
100
AcDbCircle
 10
211.271991
 20
151.032068
 30
0.0
 40
0.3
100
AcDbArc
 50
22.331645
 51
180.0
  0
ARC
  5
BB
100
AcDbEntity
  8
62
100
AcDbCircle
 10
214.971991
 20
152.551936
 30
0.0
 40
3.347346
100
AcDbArc
 50
180.0
 51
270.0
  0
ARC
  5
BC
100
AcDbEntity
  8
62
100
AcDbCircle
 10
223.625132
 20
134.898794
 30
0.0
 40
3.347346
100
AcDbArc
 50
180.0
 51
270.0
  0
ARC
  5
BD
100
AcDbEntity
  8
62
100
AcDbCircle
 10
214.971991
 20
152.551936
 30
0.0
 40
2.517454
100
AcDbArc
 50
180.0
 51
270.0
  0
ARC
  5
BE
100
AcDbEntity
  8
62
100
AcDbCircle
 10
223.625132
 20
134.898794
 30
0.0
 40
2.517454
100
AcDbArc
 50
180.0
 51
270.0
  0
ARC
  5
BF
100
AcDbEntity
  8
61
100
AcDbCircle
 10
215.171991
 20
152.551936
 30
0.0
 40
1.919663
100
AcDbArc
 50
180.0
 51
270.0
  0
LINE
  5
C0
100
AcDbEntity
  8
61
100
AcDbLine
 10
217.125132
 20
150.632273
 30
0.0
 11
215.171991
 21
150.632273
 31
0.0
  0
LINE
  5
C1
100
AcDbEntity
  8
61
100
AcDbLine
 10
221.705469
 20
135.098794
 30
0.0
 11
221.705469
 21
146.051936
 31
0.0
  0
ARC
  5
C2
100
AcDbEntity
  8
61
100
AcDbCircle
 10
223.625132
 20
135.098794
 30
0.0
 40
1.919663
100
AcDbArc
 50
180.0
 51
270.0
  0
LINE
  5
C3
100
AcDbEntity
  8
62
100
AcDbLine
 10
219.279554
 20
140.133492
 30
0.0
 11
211.617569
 21
140.133492
 31
0.0
  0
LINE
  5
C4
100
AcDbEntity
  8
62
100
AcDbLine
 10
211.317569
 20
140.433492
 30
0.0
 11
211.317569
 21
149.789345
 31
0.0
  0
ARC
  5
C5
100
AcDbEntity
  8
62
100
AcDbCircle
 10
214.971991
 20
152.551936
 30
0.0
 40
4.045578
100
AcDbArc
 50
219.473739
 51
270.0
  0
LINE
  5
C6
100
AcDbEntity
  8
62
100
AcDbLine
 10
219.579554
 20
140.433492
 30
0.0
 11
219.579554
 21
146.051936
 31
0.0
  0
LINE
  5
C7
100
AcDbEntity
  8
62
100
AcDbLine
 10
217.125132
 20
148.506358
 30
0.0
 11
214.971991
 21
148.506358
 31
0.0
  0
ARC
  5
C8
100
AcDbEntity
  8
62
100
AcDbCircle
 10
211.617569
 20
149.789345
 30
0.0
 40
0.3
100
AcDbArc
 50
39.473739
 51
180.0
  0
ARC
  5
C9
100
AcDbEntity
  8
62
100
AcDbCircle
 10
211.617569
 20
140.433492
 30
0.0
 40
0.3
100
AcDbArc
 50
180.0
 51
270.0
  0
ARC
  5
CA
100
AcDbEntity
  8
62
100
AcDbCircle
 10
219.279554
 20
140.433492
 30
0.0
 40
0.3
100
AcDbArc
 50
270.0
 51
360.0
  0
ARC
  5
CB
100
AcDbEntity
  8
62
100
AcDbCircle
 10
211.271991
 20
140.087913
 30
0.0
 40
0.3
100
AcDbArc
 50
180.0
 51
270.0
  0
ARC
  5
CC
100
AcDbEntity
  8
62
100
AcDbCircle
 10
219.625132
 20
140.087913
 30
0.0
 40
0.3
100
AcDbArc
 50
270.0
 51
360.0
  0
ARC
  5
CD
100
AcDbEntity
  8
62
100
AcDbCircle
 10
215.471991
 20
135.398794
 30
0.0
 40
4.0
100
AcDbArc
 50
15.01745
 51
167.619201
  0
ARC
  5
CE
100
AcDbEntity
  8
62
100
AcDbCircle
 10
211.271991
 20
136.320748
 30
0.0
 40
0.3
100
AcDbArc
 50
180.0
 51
347.619201
  0
ARC
  5
CF
100
AcDbEntity
  8
62
100
AcDbCircle
 10
219.625132
 20
136.512981
 30
0.0
 40
0.3
100
AcDbArc
 50
195.01745
 51
0.0
  0
ARC
  5
D0
100
AcDbEntity
  8
62
100
AcDbCircle
 10
217.125132
 20
146.051936
 30
0.0
 40
2.8
100
AcDbArc
 50
360.0
 51
90.0
  0
ARC
  5
D1
100
AcDbEntity
  8
62
100
AcDbCircle
 10
217.125132
 20
146.051936
 30
0.0
 40
3.152654
100
AcDbArc
 50
360.0
 51
90.0
  0
ARC
  5
D2
100
AcDbEntity
  8
62
100
AcDbCircle
 10
217.125132
 20
146.051936
 30
0.0
 40
2.454422
100
AcDbArc
 50
360.0
 51
90.0
  0
ARC
  5
D3
100
AcDbEntity
  8
62
100
AcDbCircle
 10
217.125132
 20
146.051936
 30
0.0
 40
3.982546
100
AcDbArc
 50
360.0
 51
90.0
  0
ARC
  5
D4
100
AcDbEntity
  8
61
100
AcDbCircle
 10
217.125132
 20
146.051936
 30
0.0
 40
4.580337
100
AcDbArc
 50
360.0
 51
90.0
  0
CIRCLE
  5
D5
100
AcDbEntity
  8
62
100
AcDbCircle
 10
453.471991
 20
274.398794
 30
0.0
 40
2.25
  0
LINE
  5
D6
100
AcDbEntity
  8
62
100
AcDbLine
 10
449.318849
 20
279.009675
 30
0.0
 11
457.671991
 21
279.009675
 31
0.0
  0
LINE
  5
D7
100
AcDbEntity
  8
62
100
AcDbLine
 10
457.971991
 20
282.47684
 30
0.0
 11
457.971991
 21
267.765521
 31
0.0
  0
CIRCLE
  5
D8
100
AcDbEntity
  8
62
100
AcDbCircle
 10
453.471991
 20
283.398794
 30
0.0
 40
2.05
  0
CIRCLE
  5
D9
100
AcDbEntity
  8
62
100
AcDbCircle
 10
453.471991
 20
283.398794
 30
0.0
 40
1.5
  0
ARC
  5
DA
100
AcDbEntity
  8
61
100
AcDbCircle
 10
453.471991
 20
283.398794
 30
0.0
 40
6.0
100
AcDbArc
 50
0.0
 51
90.0
  0
LINE
  5
DB
100
AcDbEntity
  8
62
100
AcDbLine
 10
451.818849
 20
268.763106
 30
0.0
 11
453.971991
 21
268.763106
 31
0.0
  0
LINE
  5
DC
100
AcDbEntity
  8
62
100
AcDbLine
 10
451.818849
 20
269.592998
 30
0.0
 11
453.971991
 21
269.592998
 31
0.0
  0
LINE
  5
DD
100
AcDbEntity
  8
62
100
AcDbLine
 10
451.818849
 20
269.945652
 30
0.0
 11
453.971991
 21
269.945652
 31
0.0
  0
LINE
  5
DE
100
AcDbEntity
  8
62
100
AcDbLine
 10
447.836302
 20
283.898794
 30
0.0
 11
447.836302
 21
272.745652
 31
0.0
  0
LINE
  5
DF
100
AcDbEntity
  8
62
100
AcDbLine
 10
448.666195
 20
283.898794
 30
0.0
 11
448.666195
 21
272.745652
 31
0.0
  0
LINE
  5
E0
100
AcDbEntity
  8
62
100
AcDbLine
 10
449.018849
 20
283.898794
 30
0.0
 11
449.018849
 21
272.745652
 31
0.0
  0
ARC
  5
E1
100
AcDbEntity
  8
62
100
AcDbCircle
 10
453.971991
 20
266.245652
 30
0.0
 40
3.7
100
AcDbArc
 50
0.0
 51
90.0
  0
ARC
  5
E2
100
AcDbEntity
  8
62
100
AcDbCircle
 10
445.318849
 20
283.898794
 30
0.0
 40
3.7
100
AcDbArc
 50
360.0
 51
90.0
  0
ARC
  5
E3
100
AcDbEntity
  8
62
100
AcDbCircle
 10
457.671991
 20
267.765521
 30
0.0
 40
0.3
100
AcDbArc
 50
202.331645
 51
0.0
  0
ARC
  5
E4
100
AcDbEntity
  8
62
100
AcDbCircle
 10
453.971991
 20
266.245652
 30
0.0
 40
3.347346
100
AcDbArc
 50
0.0
 51
90.0
  0
ARC
  5
E5
100
AcDbEntity
  8
62
100
AcDbCircle
 10
445.318849
 20
283.898794
 30
0.0
 40
3.347346
100
AcDbArc
 50
360.0
 51
90.0
  0
ARC
  5
E6
100
AcDbEntity
  8
62
100
AcDbCircle
 10
453.971991
 20
266.245652
 30
0.0
 40
2.517454
100
AcDbArc
 50
0.0
 51
90.0
  0
ARC
  5
E7
100
AcDbEntity
  8
62
100
AcDbCircle
 10
445.318849
 20
283.898794
 30
0.0
 40
2.517454
100
AcDbArc
 50
360.0
 51
90.0
  0
ARC
  5
E8
100
AcDbEntity
  8
61
100
AcDbCircle
 10
453.771991
 20
266.245652
 30
0.0
 40
1.919663
100
AcDbArc
 50
0.0
 51
90.0
  0
LINE
  5
E9
100
AcDbEntity
  8
61
100
AcDbLine
 10
451.818849
 20
268.165315
 30
0.0
 11
453.771991
 21
268.165315
 31
0.0
  0
LINE
  5
EA
100
AcDbEntity
  8
61
100
AcDbLine
 10
447.238512
 20
283.698794
 30
0.0
 11
447.238512
 21
272.745652
 31
0.0
  0
ARC
  5
EB
100
AcDbEntity
  8
61
100
AcDbCircle
 10
445.318849
 20
283.698794
 30
0.0
 40
1.919663
100
AcDbArc
 50
360.0
 51
90.0
  0
LINE
  5
EC
100
AcDbEntity
  8
62
100
AcDbLine
 10
449.664427
 20
278.664096
 30
0.0
 11
457.326412
 21
278.664096
 31
0.0
  0
LINE
  5
ED
100
AcDbEntity
  8
62
100
AcDbLine
 10
457.626412
 20
278.364096
 30
0.0
 11
457.626412
 21
269.008243
 31
0.0
  0
ARC
  5
EE
100
AcDbEntity
  8
62
100
AcDbCircle
 10
453.971991
 20
266.245652
 30
0.0
 40
4.045578
100
AcDbArc
 50
39.473739
 51
90.0
  0
LINE
  5
EF
100
AcDbEntity
  8
62
100
AcDbLine
 10
449.364427
 20
278.364096
 30
0.0
 11
449.364427
 21
272.745652
 31
0.0
  0
LINE
  5
F0
100
AcDbEntity
  8
62
100
AcDbLine
 10
451.818849
 20
270.29123
 30
0.0
 11
453.971991
 21
270.29123
 31
0.0
  0
ARC
  5
F1
100
AcDbEntity
  8
62
100
AcDbCircle
 10
457.326412
 20
269.008243
 30
0.0
 40
0.3
100
AcDbArc
 50
219.473739
 51
0.0
  0
ARC
  5
F2
100
AcDbEntity
  8
62
100
AcDbCircle
 10
457.326412
 20
278.364096
 30
0.0
 40
0.3
100
AcDbArc
 50
0.0
 51
90.0
  0
ARC
  5
F3
100
AcDbEntity
  8
62
100
AcDbCircle
 10
449.664427
 20
278.364096
 30
0.0
 40
0.3
100
AcDbArc
 50
90.0
 51
180.0
  0
ARC
  5
F4
100
AcDbEntity
  8
62
100
AcDbCircle
 10
457.671991
 20
278.709675
 30
0.0
 40
0.3
100
AcDbArc
 50
0.0
 51
90.0
  0
ARC
  5
F5
100
AcDbEntity
  8
62
100
AcDbCircle
 10
449.318849
 20
278.709675
 30
0.0
 40
0.3
100
AcDbArc
 50
90.0
 51
180.0
  0
ARC
  5
F6
100
AcDbEntity
  8
62
100
AcDbCircle
 10
453.471991
 20
283.398794
 30
0.0
 40
4.0
100
AcDbArc
 50
195.01745
 51
347.619201
  0
ARC
  5
F7
100
AcDbEntity
  8
62
100
AcDbCircle
 10
457.671991
 20
282.47684
 30
0.0
 40
0.3
100
AcDbArc
 50
0.0
 51
167.619201
  0
ARC
  5
F8
100
AcDbEntity
  8
62
100
AcDbCircle
 10
449.318849
 20
282.284607
 30
0.0
 40
0.3
100
AcDbArc
 50
15.01745
 51
180.0
  0
ARC
  5
F9
100
AcDbEntity
  8
62
100
AcDbCircle
 10
451.818849
 20
272.745652
 30
0.0
 40
2.8
100
AcDbArc
 50
180.0
 51
270.0
  0
ARC
  5
FA
100
AcDbEntity
  8
62
100
AcDbCircle
 10
451.818849
 20
272.745652
 30
0.0
 40
3.152654
100
AcDbArc
 50
180.0
 51
270.0
  0
ARC
  5
FB
100
AcDbEntity
  8
62
100
AcDbCircle
 10
451.818849
 20
272.745652
 30
0.0
 40
2.454422
100
AcDbArc
 50
180.0
 51
270.0
  0
ARC
  5
FC
100
AcDbEntity
  8
62
100
AcDbCircle
 10
451.818849
 20
272.745652
 30
0.0
 40
3.982546
100
AcDbArc
 50
180.0
 51
270.0
  0
ARC
  5
FD
100
AcDbEntity
  8
61
100
AcDbCircle
 10
451.818849
 20
272.745652
 30
0.0
 40
4.580337
100
AcDbArc
 50
180.0
 51
270.0
  0
ARC
  5
FE
100
AcDbEntity
  8
61
100
AcDbCircle
 10
451.818849
 20
146.051936
 30
0.0
 40
4.580337
100
AcDbArc
 50
90.0
 51
180.0
  0
ARC
  5
FF
100
AcDbEntity
  8
62
100
AcDbCircle
 10
451.818849
 20
146.051936
 30
0.0
 40
3.982546
100
AcDbArc
 50
90.0
 51
180.0
  0
ARC
  5
100
100
AcDbEntity
  8
62
100
AcDbCircle
 10
451.818849
 20
146.051936
 30
0.0
 40
2.454422
100
AcDbArc
 50
90.0
 51
180.0
  0
ARC
  5
101
100
AcDbEntity
  8
62
100
AcDbCircle
 10
451.818849
 20
146.051936
 30
0.0
 40
3.152654
100
AcDbArc
 50
90.0
 51
180.0
  0
ARC
  5
102
100
AcDbEntity
  8
62
100
AcDbCircle
 10
451.818849
 20
146.051936
 30
0.0
 40
2.8
100
AcDbArc
 50
90.0
 51
180.0
  0
ARC
  5
103
100
AcDbEntity
  8
62
100
AcDbCircle
 10
449.318849
 20
136.512981
 30
0.0
 40
0.3
100
AcDbArc
 50
180.0
 51
344.98255
  0
ARC
  5
104
100
AcDbEntity
  8
62
100
AcDbCircle
 10
457.671991
 20
136.320748
 30
0.0
 40
0.3
100
AcDbArc
 50
192.380799
 51
0.0
  0
ARC
  5
105
100
AcDbEntity
  8
62
100
AcDbCircle
 10
453.471991
 20
135.398794
 30
0.0
 40
4.0
100
AcDbArc
 50
12.380799
 51
164.98255
  0
ARC
  5
106
100
AcDbEntity
  8
62
100
AcDbCircle
 10
449.318849
 20
140.087913
 30
0.0
 40
0.3
100
AcDbArc
 50
180.0
 51
270.0
  0
ARC
  5
107
100
AcDbEntity
  8
62
100
AcDbCircle
 10
457.671991
 20
140.087913
 30
0.0
 40
0.3
100
AcDbArc
 50
270.0
 51
360.0
  0
ARC
  5
108
100
AcDbEntity
  8
62
100
AcDbCircle
 10
449.664427
 20
140.433492
 30
0.0
 40
0.3
100
AcDbArc
 50
180.0
 51
270.0
  0
ARC
  5
109
100
AcDbEntity
  8
62
100
AcDbCircle
 10
457.326412
 20
140.433492
 30
0.0
 40
0.3
100
AcDbArc
 50
270.0
 51
360.0
  0
ARC
  5
10A
100
AcDbEntity
  8
51
100
AcDbCircle
 10
-268.727353
 20
280.024708
 30
0.0
 40
0.3
100
AcDbArc
 50
180.0
 51
270.0
  0
ARC
  5
10B
100
AcDbEntity
  8
51
100
AcDbCircle
 10
-261.925891
 20
280.024708
 30
0.0
 40
0.3
100
AcDbArc
 50
270.0
 51
0.0
  0
ARC
  5
10C
100
AcDbEntity
  8
52
100
AcDbCircle
 10
-268.203741
 20
280.54832
 30
0.0
 40
0.3
100
AcDbArc
 50
180.0
 51
270.0
  0
ARC
  5
10D
100
AcDbEntity
  8
52
100
AcDbCircle
 10
-262.449503
 20
280.54832
 30
0.0
 40
0.3
100
AcDbArc
 50
270.0
 51
0.0
  0
ARC
  5
10E
100
AcDbEntity
  8
51
100
AcDbCircle
 10
-261.925891
 20
138.424708
 30
0.0
 40
0.3
100
AcDbArc
 50
360.0
 51
90.0
  0
ARC
  5
10F
100
AcDbEntity
  8
51
100
AcDbCircle
 10
-268.727353
 20
138.424708
 30
0.0
 40
0.3
100
AcDbArc
 50
90.0
 51
180.0
  0
ARC
  5
110
100
AcDbEntity
  8
52
100
AcDbCircle
 10
-268.203741
 20
137.901096
 30
0.0
 40
0.3
100
AcDbArc
 50
90.0
 51
180.0
  0
ARC
  5
111
100
AcDbEntity
  8
52
100
AcDbCircle
 10
-262.449503
 20
137.901096
 30
0.0
 40
0.3
100
AcDbArc
 50
360.0
 51
90.0
  0
ARC
  5
112
100
AcDbEntity
  8
51
100
AcDbCircle
 10
-23.327353
 20
280.024708
 30
0.0
 40
0.3
100
AcDbArc
 50
270.0
 51
0.0
  0
ARC
  5
113
100
AcDbEntity
  8
51
100
AcDbCircle
 10
-30.128815
 20
280.024708
 30
0.0
 40
0.3
100
AcDbArc
 50
180.0
 51
270.0
  0
ARC
  5
114
100
AcDbEntity
  8
52
100
AcDbCircle
 10
-29.605203
 20
280.54832
 30
0.0
 40
0.3
100
AcDbArc
 50
180.0
 51
270.0
  0
ARC
  5
115
100
AcDbEntity
  8
52
100
AcDbCircle
 10
-23.850965
 20
280.54832
 30
0.0
 40
0.3
100
AcDbArc
 50
270.0
 51
0.0
  0
ARC
  5
116
100
AcDbEntity
  8
51
100
AcDbCircle
 10
-23.327353
 20
138.424708
 30
0.0
 40
0.3
100
AcDbArc
 50
0.0
 51
90.0
  0
ARC
  5
117
100
AcDbEntity
  8
51
100
AcDbCircle
 10
-30.128815
 20
138.424708
 30
0.0
 40
0.3
100
AcDbArc
 50
90.0
 51
180.0
  0
ARC
  5
118
100
AcDbEntity
  8
52
100
AcDbCircle
 10
-29.605203
 20
137.901096
 30
0.0
 40
0.3
100
AcDbArc
 50
90.0
 51
180.0
  0
ARC
  5
119
100
AcDbEntity
  8
52
100
AcDbCircle
 10
-23.850965
 20
137.901096
 30
0.0
 40
0.3
100
AcDbArc
 50
0.0
 51
90.0
  0
LINE
  5
11A
100
AcDbEntity
  8
51
100
AcDbLine
 10
-151.050819
 20
287.113827
 30
0.0
 11
-141.003887
 21
287.113827
 31
0.0
  0
ARC
  5
11B
100
AcDbEntity
  8
51
100
AcDbCircle
 10
-146.027353
 20
283.224708
 30
0.0
 40
4.0
100
AcDbArc
 50
180.0
 51
0.0
  0
CIRCLE
  5
11C
100
AcDbEntity
  8
51
100
AcDbCircle
 10
-146.027353
 20
283.224708
 30
0.0
 40
1.5
  0
ARC
  5
11D
100
AcDbEntity
  8
51
100
AcDbCircle
 10
-138.060443
 20
283.724708
 30
0.0
 40
3.96691
100
AcDbArc
 50
133.616689
 51
180.0
  0
LINE
  5
11E
100
AcDbEntity
  8
51
100
AcDbLine
 10
-142.027353
 20
283.724708
 30
0.0
 11
-142.027353
 21
283.224708
 31
0.0
  0
LINE
  5
11F
100
AcDbEntity
  8
51
100
AcDbLine
 10
-150.027353
 20
283.724708
 30
0.0
 11
-150.027353
 21
283.224708
 31
0.0
  0
ARC
  5
120
100
AcDbEntity
  8
51
100
AcDbCircle
 10
-153.994264
 20
283.724708
 30
0.0
 40
3.96691
100
AcDbArc
 50
0.0
 51
46.383311
  0
ARC
  5
121
100
AcDbEntity
  8
51
100
AcDbCircle
 10
-141.003887
 20
286.813827
 30
0.0
 40
0.3
100
AcDbArc
 50
313.616689
 51
90.0
  0
ARC
  5
122
100
AcDbEntity
  8
51
100
AcDbCircle
 10
-151.050819
 20
286.813827
 30
0.0
 40
0.3
100
AcDbArc
 50
90.0
 51
226.383311
  0
ARC
  5
123
100
AcDbEntity
  8
52
100
AcDbCircle
 10
-138.060443
 20
283.724708
 30
0.0
 40
4.490523
100
AcDbArc
 50
147.61959
 51
180.0
  0
ARC
  5
124
100
AcDbEntity
  8
52
100
AcDbCircle
 10
-146.027353
 20
283.224708
 30
0.0
 40
3.476388
100
AcDbArc
 50
180.0
 51
0.0
  0
LINE
  5
125
100
AcDbEntity
  8
52
100
AcDbLine
 10
-149.503741
 20
283.724708
 30
0.0
 11
-149.503741
 21
283.224708
 31
0.0
  0
LINE
  5
126
100
AcDbEntity
  8
52
100
AcDbLine
 10
-142.550965
 20
283.724708
 30
0.0
 11
-142.550965
 21
283.224708
 31
0.0
  0
LINE
  5
127
100
AcDbEntity
  8
52
100
AcDbLine
 10
-149.948614
 20
286.590215
 30
0.0
 11
-142.106092
 21
286.590215
 31
0.0
  0
ARC
  5
128
100
AcDbEntity
  8
52
100
AcDbCircle
 10
-153.994264
 20
283.724708
 30
0.0
 40
4.490523
100
AcDbArc
 50
0.0
 51
32.38041
  0
ARC
  5
129
100
AcDbEntity
  8
52
100
AcDbCircle
 10
-149.948614
 20
286.290215
 30
0.0
 40
0.3
100
AcDbArc
 50
90.0
 51
212.38041
  0
ARC
  5
12A
100
AcDbEntity
  8
52
100
AcDbCircle
 10
-142.106092
 20
286.290215
 30
0.0
 40
0.3
100
AcDbArc
 50
327.61959
 51
90.0
  0
ARC
  5
12B
100
AcDbEntity
  8
52
100
AcDbCircle
 10
-142.106092
 20
132.159201
 30
0.0
 40
0.3
100
AcDbArc
 50
270.0
 51
32.38041
  0
ARC
  5
12C
100
AcDbEntity
  8
52
100
AcDbCircle
 10
-149.948614
 20
132.159201
 30
0.0
 40
0.3
100
AcDbArc
 50
147.61959
 51
270.0
  0
ARC
  5
12D
100
AcDbEntity
  8
52
100
AcDbCircle
 10
-153.994264
 20
134.724708
 30
0.0
 40
4.490523
100
AcDbArc
 50
327.61959
 51
0.0
  0
LINE
  5
12E
100
AcDbEntity
  8
52
100
AcDbLine
 10
-149.948614
 20
131.859201
 30
0.0
 11
-142.106092
 21
131.859201
 31
0.0
  0
LINE
  5
12F
100
AcDbEntity
  8
52
100
AcDbLine
 10
-142.550965
 20
134.724708
 30
0.0
 11
-142.550965
 21
135.224708
 31
0.0
  0
LINE
  5
130
100
AcDbEntity
  8
52
100
AcDbLine
 10
-149.503741
 20
134.724708
 30
0.0
 11
-149.503741
 21
135.224708
 31
0.0
  0
ARC
  5
131
100
AcDbEntity
  8
52
100
AcDbCircle
 10
-146.027353
 20
135.224708
 30
0.0
 40
3.476388
100
AcDbArc
 50
0.0
 51
180.0
  0
ARC
  5
132
100
AcDbEntity
  8
52
100
AcDbCircle
 10
-138.060443
 20
134.724708
 30
0.0
 40
4.490523
100
AcDbArc
 50
180.0
 51
212.38041
  0
ARC
  5
133
100
AcDbEntity
  8
51
100
AcDbCircle
 10
-151.050819
 20
131.635589
 30
0.0
 40
0.3
100
AcDbArc
 50
133.616689
 51
270.0
  0
ARC
  5
134
100
AcDbEntity
  8
51
100
AcDbCircle
 10
-141.003887
 20
131.635589
 30
0.0
 40
0.3
100
AcDbArc
 50
270.0
 51
46.383311
  0
ARC
  5
135
100
AcDbEntity
  8
51
100
AcDbCircle
 10
-153.994264
 20
134.724708
 30
0.0
 40
3.96691
100
AcDbArc
 50
313.616689
 51
0.0
  0
LINE
  5
136
100
AcDbEntity
  8
51
100
AcDbLine
 10
-150.027353
 20
134.724708
 30
0.0
 11
-150.027353
 21
135.224708
 31
0.0
  0
LINE
  5
137
100
AcDbEntity
  8
51
100
AcDbLine
 10
-142.027353
 20
134.724708
 30
0.0
 11
-142.027353
 21
135.224708
 31
0.0
  0
ARC
  5
138
100
AcDbEntity
  8
51
100
AcDbCircle
 10
-138.060443
 20
134.724708
 30
0.0
 40
3.96691
100
AcDbArc
 50
180.0
 51
226.383311
  0
ARC
  5
139
100
AcDbEntity
  8
52
100
AcDbCircle
 10
-261.686466
 20
286.401096
 30
0.0
 40
0.3
100
AcDbArc
 50
328.174316
 51
90.0
  0
LINE
  5
13A
100
AcDbEntity
  8
52
100
AcDbLine
 10
-262.149503
 20
283.724708
 30
0.0
 11
-262.149503
 21
280.54832
 31
0.0
  0
ARC
  5
13B
100
AcDbEntity
  8
52
100
AcDbCircle
 10
-257.374211
 20
283.724708
 30
0.0
 40
4.775292
100
AcDbArc
 50
148.174316
 51
180.0
  0
LINE
  5
13C
100
AcDbEntity
  8
52
100
AcDbLine
 10
-261.686466
 20
286.701096
 30
0.0
 11
-265.027353
 21
286.701096
 31
0.0
  0
ARC
  5
13D
100
AcDbEntity
  8
52
100
AcDbCircle
 10
-265.027353
 20
283.224708
 30
0.0
 40
3.476388
100
AcDbArc
 50
90.0
 51
180.0
  0
LINE
  5
13E
100
AcDbEntity
  8
52
100
AcDbLine
 10
-268.503741
 20
283.224708
 30
0.0
 11
-268.503741
 21
280.54832
 31
0.0
  0
LINE
  5
13F
100
AcDbEntity
  8
52
100
AcDbLine
 10
-262.449503
 20
280.24832
 30
0.0
 11
-268.203741
 21
280.24832
 31
0.0
  0
ARC
  5
140
100
AcDbEntity
  8
51
100
AcDbCircle
 10
-260.611153
 20
286.924708
 30
0.0
 40
0.3
100
AcDbArc
 50
315.328817
 51
90.0
  0
ARC
  5
141
100
AcDbEntity
  8
51
100
AcDbCircle
 10
-257.374211
 20
283.724708
 30
0.0
 40
4.25168
100
AcDbArc
 50
135.328817
 51
180.0
  0
LINE
  5
142
100
AcDbEntity
  8
51
100
AcDbLine
 10
-261.625891
 20
283.724708
 30
0.0
 11
-261.625891
 21
280.024708
 31
0.0
  0
CIRCLE
  5
143
100
AcDbEntity
  8
51
100
AcDbCircle
 10
-265.027353
 20
283.224708
 30
0.0
 40
1.5
  0
ARC
  5
144
100
AcDbEntity
  8
51
100
AcDbCircle
 10
-265.027353
 20
283.224708
 30
0.0
 40
6.0
100
AcDbArc
 50
90.0
 51
180.0
  0
LINE
  5
145
100
AcDbEntity
  8
51
100
AcDbLine
 10
-269.027353
 20
283.224708
 30
0.0
 11
-269.027353
 21
280.024708
 31
0.0
  0
LINE
  5
146
100
AcDbEntity
  8
51
100
AcDbLine
 10
-261.925891
 20
279.724708
 30
0.0
 11
-268.727353
 21
279.724708
 31
0.0
  0
LINE
  5
147
100
AcDbEntity
  8
51
100
AcDbLine
 10
-260.611153
 20
287.224708
 30
0.0
 11
-265.027353
 21
287.224708
 31
0.0
  0
ARC
  5
148
100
AcDbEntity
  8
51
100
AcDbCircle
 10
-265.027353
 20
283.224708
 30
0.0
 40
4.0
100
AcDbArc
 50
90.0
 51
180.0
  0
ARC
  5
149
100
AcDbEntity
  8
52
100
AcDbCircle
 10
-265.027353
 20
283.224708
 30
0.0
 40
4.33836
100
AcDbArc
 50
90.0
 51
180.0
  0
ARC
  5
14A
100
AcDbEntity
  8
52
100
AcDbCircle
 10
-265.027353
 20
135.224708
 30
0.0
 40
4.33836
100
AcDbArc
 50
180.0
 51
270.0
  0
ARC
  5
14B
100
AcDbEntity
  8
51
100
AcDbCircle
 10
-265.027353
 20
135.224708
 30
0.0
 40
4.0
100
AcDbArc
 50
180.0
 51
270.0
  0
LINE
  5
14C
100
AcDbEntity
  8
51
100
AcDbLine
 10
-260.611153
 20
131.224708
 30
0.0
 11
-265.027353
 21
131.224708
 31
0.0
  0
LINE
  5
14D
100
AcDbEntity
  8
51
100
AcDbLine
 10
-261.925891
 20
138.724708
 30
0.0
 11
-268.727353
 21
138.724708
 31
0.0
  0
LINE
  5
14E
100
AcDbEntity
  8
51
100
AcDbLine
 10
-269.027353
 20
135.224708
 30
0.0
 11
-269.027353
 21
138.424708
 31
0.0
  0
ARC
  5
14F
100
AcDbEntity
  8
51
100
AcDbCircle
 10
-265.027353
 20
135.224708
 30
0.0
 40
6.0
100
AcDbArc
 50
180.0
 51
270.0
  0
CIRCLE
  5
150
100
AcDbEntity
  8
51
100
AcDbCircle
 10
-265.027353
 20
135.224708
 30
0.0
 40
1.5
  0
LINE
  5
151
100
AcDbEntity
  8
51
100
AcDbLine
 10
-261.625891
 20
134.724708
 30
0.0
 11
-261.625891
 21
138.424708
 31
0.0
  0
ARC
  5
152
100
AcDbEntity
  8
51
100
AcDbCircle
 10
-257.374211
 20
134.724708
 30
0.0
 40
4.25168
100
AcDbArc
 50
180.0
 51
224.671183
  0
ARC
  5
153
100
AcDbEntity
  8
51
100
AcDbCircle
 10
-260.611153
 20
131.524708
 30
0.0
 40
0.3
100
AcDbArc
 50
270.0
 51
44.671183
  0
LINE
  5
154
100
AcDbEntity
  8
52
100
AcDbLine
 10
-262.449503
 20
138.201096
 30
0.0
 11
-268.203741
 21
138.201096
 31
0.0
  0
LINE
  5
155
100
AcDbEntity
  8
52
100
AcDbLine
 10
-268.503741
 20
135.224708
 30
0.0
 11
-268.503741
 21
137.901096
 31
0.0
  0
ARC
  5
156
100
AcDbEntity
  8
52
100
AcDbCircle
 10
-265.027353
 20
135.224708
 30
0.0
 40
3.476388
100
AcDbArc
 50
180.0
 51
270.0
  0
LINE
  5
157
100
AcDbEntity
  8
52
100
AcDbLine
 10
-261.686466
 20
131.74832
 30
0.0
 11
-265.027353
 21
131.74832
 31
0.0
  0
ARC
  5
158
100
AcDbEntity
  8
52
100
AcDbCircle
 10
-257.374211
 20
134.724708
 30
0.0
 40
4.775292
100
AcDbArc
 50
180.0
 51
211.825684
  0
LINE
  5
159
100
AcDbEntity
  8
52
100
AcDbLine
 10
-262.149503
 20
134.724708
 30
0.0
 11
-262.149503
 21
137.901096
 31
0.0
  0
ARC
  5
15A
100
AcDbEntity
  8
52
100
AcDbCircle
 10
-261.686466
 20
132.04832
 30
0.0
 40
0.3
100
AcDbArc
 50
270.0
 51
31.825684
  0
ARC
  5
15B
100
AcDbEntity
  8
52
100
AcDbCircle
 10
-27.027353
 20
283.224708
 30
0.0
 40
4.33836
100
AcDbArc
 50
0.0
 51
90.0
  0
ARC
  5
15C
100
AcDbEntity
  8
51
100
AcDbCircle
 10
-27.027353
 20
283.224708
 30
0.0
 40
4.0
100
AcDbArc
 50
0.0
 51
90.0
  0
LINE
  5
15D
100
AcDbEntity
  8
51
100
AcDbLine
 10
-31.443553
 20
287.224708
 30
0.0
 11
-27.027353
 21
287.224708
 31
0.0
  0
LINE
  5
15E
100
AcDbEntity
  8
51
100
AcDbLine
 10
-30.128815
 20
279.724708
 30
0.0
 11
-23.327353
 21
279.724708
 31
0.0
  0
LINE
  5
15F
100
AcDbEntity
  8
51
100
AcDbLine
 10
-23.027353
 20
283.224708
 30
0.0
 11
-23.027353
 21
280.024708
 31
0.0
  0
ARC
  5
160
100
AcDbEntity
  8
51
100
AcDbCircle
 10
-27.027353
 20
283.224708
 30
0.0
 40
6.0
100
AcDbArc
 50
0.0
 51
90.0
  0
CIRCLE
  5
161
100
AcDbEntity
  8
51
100
AcDbCircle
 10
-27.027353
 20
283.224708
 30
0.0
 40
1.5
  0
LINE
  5
162
100
AcDbEntity
  8
51
100
AcDbLine
 10
-30.428815
 20
283.724708
 30
0.0
 11
-30.428815
 21
280.024708
 31
0.0
  0
ARC
  5
163
100
AcDbEntity
  8
51
100
AcDbCircle
 10
-34.680495
 20
283.724708
 30
0.0
 40
4.25168
100
AcDbArc
 50
360.0
 51
44.671183
  0
ARC
  5
164
100
AcDbEntity
  8
51
100
AcDbCircle
 10
-31.443553
 20
286.924708
 30
0.0
 40
0.3
100
AcDbArc
 50
90.0
 51
224.671183
  0
LINE
  5
165
100
AcDbEntity
  8
52
100
AcDbLine
 10
-29.605203
 20
280.24832
 30
0.0
 11
-23.850965
 21
280.24832
 31
0.0
  0
LINE
  5
166
100
AcDbEntity
  8
52
100
AcDbLine
 10
-23.550965
 20
283.224708
 30
0.0
 11
-23.550965
 21
280.54832
 31
0.0
  0
ARC
  5
167
100
AcDbEntity
  8
52
100
AcDbCircle
 10
-27.027353
 20
283.224708
 30
0.0
 40
3.476388
100
AcDbArc
 50
0.0
 51
90.0
  0
LINE
  5
168
100
AcDbEntity
  8
52
100
AcDbLine
 10
-30.368241
 20
286.701096
 30
0.0
 11
-27.027353
 21
286.701096
 31
0.0
  0
ARC
  5
169
100
AcDbEntity
  8
52
100
AcDbCircle
 10
-34.680495
 20
283.724708
 30
0.0
 40
4.775292
100
AcDbArc
 50
360.0
 51
31.825684
  0
LINE
  5
16A
100
AcDbEntity
  8
52
100
AcDbLine
 10
-29.905203
 20
283.724708
 30
0.0
 11
-29.905203
 21
280.54832
 31
0.0
  0
ARC
  5
16B
100
AcDbEntity
  8
52
100
AcDbCircle
 10
-30.368241
 20
286.401096
 30
0.0
 40
0.3
100
AcDbArc
 50
90.0
 51
211.825684
  0
ARC
  5
16C
100
AcDbEntity
  8
52
100
AcDbCircle
 10
-30.368241
 20
132.04832
 30
0.0
 40
0.3
100
AcDbArc
 50
148.174316
 51
270.0
  0
LINE
  5
16D
100
AcDbEntity
  8
52
100
AcDbLine
 10
-29.905203
 20
134.724708
 30
0.0
 11
-29.905203
 21
137.901096
 31
0.0
  0
ARC
  5
16E
100
AcDbEntity
  8
52
100
AcDbCircle
 10
-34.680495
 20
134.724708
 30
0.0
 40
4.775292
100
AcDbArc
 50
328.174316
 51
0.0
  0
LINE
  5
16F
100
AcDbEntity
  8
52
100
AcDbLine
 10
-30.368241
 20
131.74832
 30
0.0
 11
-27.027353
 21
131.74832
 31
0.0
  0
ARC
  5
170
100
AcDbEntity
  8
52
100
AcDbCircle
 10
-27.027353
 20
135.224708
 30
0.0
 40
3.476388
100
AcDbArc
 50
270.0
 51
0.0
  0
LINE
  5
171
100
AcDbEntity
  8
52
100
AcDbLine
 10
-23.550965
 20
135.224708
 30
0.0
 11
-23.550965
 21
137.901096
 31
0.0
  0
LINE
  5
172
100
AcDbEntity
  8
52
100
AcDbLine
 10
-29.605203
 20
138.201096
 30
0.0
 11
-23.850965
 21
138.201096
 31
0.0
  0
ARC
  5
173
100
AcDbEntity
  8
51
100
AcDbCircle
 10
-31.443553
 20
131.524708
 30
0.0
 40
0.3
100
AcDbArc
 50
135.328817
 51
270.0
  0
ARC
  5
174
100
AcDbEntity
  8
51
100
AcDbCircle
 10
-34.680495
 20
134.724708
 30
0.0
 40
4.25168
100
AcDbArc
 50
315.328817
 51
0.0
  0
LINE
  5
175
100
AcDbEntity
  8
51
100
AcDbLine
 10
-30.428815
 20
134.724708
 30
0.0
 11
-30.428815
 21
138.424708
 31
0.0
  0
ARC
  5
176
100
AcDbEntity
  8
62
100
AcDbCircle
 10
457.326412
 20
149.789345
 30
0.0
 40
0.3
100
AcDbArc
 50
0.0
 51
140.526261
  0
LINE
  5
177
100
AcDbEntity
  8
62
100
AcDbLine
 10
451.818849
 20
148.506358
 30
0.0
 11
453.971991
 21
148.506358
 31
0.0
  0
LINE
  5
178
100
AcDbEntity
  8
62
100
AcDbLine
 10
449.364427
 20
140.433492
 30
0.0
 11
449.364427
 21
146.051936
 31
0.0
  0
ARC
  5
179
100
AcDbEntity
  8
62
100
AcDbCircle
 10
453.971991
 20
152.551936
 30
0.0
 40
4.045578
100
AcDbArc
 50
270.0
 51
320.526261
  0
LINE
  5
17A
100
AcDbEntity
  8
62
100
AcDbLine
 10
457.626412
 20
140.433492
 30
0.0
 11
457.626412
 21
149.789345
 31
0.0
  0
LINE
  5
17B
100
AcDbEntity
  8
62
100
AcDbLine
 10
449.664427
 20
140.133492
 30
0.0
 11
457.326412
 21
140.133492
 31
0.0
  0
ARC
  5
17C
100
AcDbEntity
  8
31
100
AcDbCircle
 10
619.151305
 20
286.9105
 30
0.0
 40
0.4
100
AcDbArc
 50
0.0
 51
80.0
  0
ARC
  5
17D
100
AcDbEntity
  8
61
100
AcDbCircle
 10
237.803884
 20
277.458224
 30
0.0
 40
0.3
100
AcDbArc
 50
163.926116
 51
289.256164
  0
ARC
  5
17E
100
AcDbEntity
  8
61
100
AcDbCircle
 10
235.090097
 20
274.589364
 30
0.0
 40
0.3
100
AcDbArc
 50
343.926116
 51
109.256164
  0
ARC
  5
17F
100
AcDbEntity
  8
61
100
AcDbCircle
 10
232.63495
 20
274.47572
 30
0.0
 40
0.3
100
AcDbArc
 50
76.044262
 51
194.504019
  0
ARC
  5
180
100
AcDbEntity
  8
61
100
AcDbCircle
 10
229.509031
 20
277.571868
 30
0.0
 40
0.3
100
AcDbArc
 50
256.044262
 51
14.504019
  0
ARC
  5
181
100
AcDbEntity
  8
61
100
AcDbCircle
 10
233.671991
 20
278.648794
 30
0.0
 40
4.0
100
AcDbArc
 50
343.926116
 51
194.504019
  0
ARC
  5
182
100
AcDbEntity
  8
61
100
AcDbCircle
 10
229.509031
 20
141.22572
 30
0.0
 40
0.3
100
AcDbArc
 50
345.495981
 51
103.955738
  0
ARC
  5
183
100
AcDbEntity
  8
61
100
AcDbCircle
 10
232.63495
 20
144.321868
 30
0.0
 40
0.3
100
AcDbArc
 50
165.495981
 51
283.955738
  0
ARC
  5
184
100
AcDbEntity
  8
61
100
AcDbCircle
 10
237.803884
 20
141.339364
 30
0.0
 40
0.3
100
AcDbArc
 50
70.743836
 51
196.073884
  0
ARC
  5
185
100
AcDbEntity
  8
61
100
AcDbCircle
 10
235.090097
 20
144.208224
 30
0.0
 40
0.3
100
AcDbArc
 50
250.743836
 51
16.073884
  0
ARC
  5
186
100
AcDbEntity
  8
61
100
AcDbCircle
 10
233.671991
 20
140.148794
 30
0.0
 40
4.0
100
AcDbArc
 50
165.495981
 51
16.073884
  0
ARC
  5
189
100
AcDbEntity
  8
61
100
AcDbCircle
 10
439.43495
 20
277.571868
 30
0.0
 40
0.3
100
AcDbArc
 50
165.495981
 51
283.955738
  0
ARC
  5
18A
100
AcDbEntity
  8
61
100
AcDbCircle
 10
436.309031
 20
274.47572
 30
0.0
 40
0.3
100
AcDbArc
 50
345.495981
 51
103.955738
  0
ARC
  5
18B
100
AcDbEntity
  8
61
100
AcDbCircle
 10
433.853884
 20
274.589364
 30
0.0
 40
0.3
100
AcDbArc
 50
70.743836
 51
196.073884
  0
ARC
  5
18C
100
AcDbEntity
  8
61
100
AcDbCircle
 10
431.140097
 20
277.458224
 30
0.0
 40
0.3
100
AcDbArc
 50
250.743836
 51
16.073884
  0
ARC
  5
18D
100
AcDbEntity
  8
61
100
AcDbCircle
 10
435.271991
 20
278.648794
 30
0.0
 40
4.0
100
AcDbArc
 50
345.495981
 51
196.073884
  0
ARC
  5
18E
100
AcDbEntity
  8
61
100
AcDbCircle
 10
431.140097
 20
141.339364
 30
0.0
 40
0.3
100
AcDbArc
 50
343.926116
 51
109.256164
  0
ARC
  5
18F
100
AcDbEntity
  8
61
100
AcDbCircle
 10
433.853884
 20
144.208224
 30
0.0
 40
0.3
100
AcDbArc
 50
163.926116
 51
289.256164
  0
ARC
  5
190
100
AcDbEntity
  8
61
100
AcDbCircle
 10
436.309031
 20
144.321868
 30
0.0
 40
0.3
100
AcDbArc
 50
256.044262
 51
14.504019
  0
ARC
  5
191
100
AcDbEntity
  8
61
100
AcDbCircle
 10
439.43495
 20
141.22572
 30
0.0
 40
0.3
100
AcDbArc
 50
76.044262
 51
194.504019
  0
ARC
  5
192
100
AcDbEntity
  8
61
100
AcDbCircle
 10
435.271991
 20
140.148794
 30
0.0
 40
4.0
100
AcDbArc
 50
163.926116
 51
14.504019
  0
CIRCLE
  5
193
100
AcDbEntity
  8
62
100
AcDbCircle
 10
334.471991
 20
283.398794
 30
0.0
 40
2.05
  0
CIRCLE
  5
194
100
AcDbEntity
  8
62
100
AcDbCircle
 10
334.471991
 20
283.398794
 30
0.0
 40
3.05
  0
CIRCLE
  5
195
100
AcDbEntity
  8
62
100
AcDbCircle
 10
334.471991
 20
283.398794
 30
0.0
 40
1.5
  0
ARC
  5
196
100
AcDbEntity
  8
61
100
AcDbCircle
 10
334.471991
 20
283.398794
 30
0.0
 40
6.047247
100
AcDbArc
 50
180.0
 51
0.0
  0
ARC
  5
197
100
AcDbEntity
  8
62
100
AcDbCircle
 10
334.471991
 20
283.398794
 30
0.0
 40
5.449457
100
AcDbArc
 50
180.0
 51
0.0
  0
ARC
  5
198
100
AcDbEntity
  8
62
100
AcDbCircle
 10
334.471991
 20
283.398794
 30
0.0
 40
4.26691
100
AcDbArc
 50
180.0
 51
0.0
  0
ARC
  5
199
100
AcDbEntity
  8
62
100
AcDbCircle
 10
334.471991
 20
283.398794
 30
0.0
 40
4.619564
100
AcDbArc
 50
180.0
 51
0.0
  0
LINE
  5
19A
100
AcDbEntity
  8
62
100
AcDbLine
 10
338.738901
 20
283.898794
 30
0.0
 11
338.738901
 21
283.398794
 31
0.0
  0
ARC
  5
19B
100
AcDbEntity
  8
62
100
AcDbCircle
 10
342.438901
 20
283.898794
 30
0.0
 40
3.7
100
AcDbArc
 50
90.0
 51
180.0
  0
LINE
  5
19C
100
AcDbEntity
  8
62
100
AcDbLine
 10
339.091555
 20
283.898794
 30
0.0
 11
339.091555
 21
283.398794
 31
0.0
  0
LINE
  5
19D
100
AcDbEntity
  8
62
100
AcDbLine
 10
339.921447
 20
283.898794
 30
0.0
 11
339.921447
 21
283.398794
 31
0.0
  0
LINE
  5
19E
100
AcDbEntity
  8
61
100
AcDbLine
 10
340.519238
 20
283.698794
 30
0.0
 11
340.519238
 21
283.398794
 31
0.0
  0
ARC
  5
19F
100
AcDbEntity
  8
62
100
AcDbCircle
 10
342.438901
 20
283.898794
 30
0.0
 40
3.347346
100
AcDbArc
 50
90.0
 51
180.0
  0
ARC
  5
1A0
100
AcDbEntity
  8
62
100
AcDbCircle
 10
342.438901
 20
283.898794
 30
0.0
 40
2.517454
100
AcDbArc
 50
90.0
 51
180.0
  0
ARC
  5
1A1
100
AcDbEntity
  8
61
100
AcDbCircle
 10
342.438901
 20
283.698794
 30
0.0
 40
1.919663
100
AcDbArc
 50
90.0
 51
180.0
  0
ARC
  5
1A2
100
AcDbEntity
  8
61
100
AcDbCircle
 10
326.50508
 20
283.698794
 30
0.0
 40
1.919663
100
AcDbArc
 50
0.0
 51
90.0
  0
ARC
  5
1A3
100
AcDbEntity
  8
62
100
AcDbCircle
 10
326.50508
 20
283.898794
 30
0.0
 40
2.517454
100
AcDbArc
 50
0.0
 51
90.0
  0
ARC
  5
1A4
100
AcDbEntity
  8
62
100
AcDbCircle
 10
326.50508
 20
283.898794
 30
0.0
 40
3.347346
100
AcDbArc
 50
0.0
 51
90.0
  0
LINE
  5
1A5
100
AcDbEntity
  8
61
100
AcDbLine
 10
328.424743
 20
283.698794
 30
0.0
 11
328.424743
 21
283.398794
 31
0.0
  0
LINE
  5
1A6
100
AcDbEntity
  8
62
100
AcDbLine
 10
329.022534
 20
283.898794
 30
0.0
 11
329.022534
 21
283.398794
 31
0.0
  0
LINE
  5
1A7
100
AcDbEntity
  8
62
100
AcDbLine
 10
329.852426
 20
283.898794
 30
0.0
 11
329.852426
 21
283.398794
 31
0.0
  0
ARC
  5
1A8
100
AcDbEntity
  8
62
100
AcDbCircle
 10
326.50508
 20
283.898794
 30
0.0
 40
3.7
100
AcDbArc
 50
0.0
 51
90.0
  0
LINE
  5
1A9
100
AcDbEntity
  8
62
100
AcDbLine
 10
330.20508
 20
283.898794
 30
0.0
 11
330.20508
 21
283.398794
 31
0.0
  0
LINE
  5
1AA
100
AcDbEntity
  8
62
100
AcDbLine
 10
330.20508
 20
134.898794
 30
0.0
 11
330.20508
 21
135.398794
 31
0.0
  0
ARC
  5
1AB
100
AcDbEntity
  8
62
100
AcDbCircle
 10
326.50508
 20
134.898794
 30
0.0
 40
3.7
100
AcDbArc
 50
270.0
 51
0.0
  0
LINE
  5
1AC
100
AcDbEntity
  8
62
100
AcDbLine
 10
329.852426
 20
134.898794
 30
0.0
 11
329.852426
 21
135.398794
 31
0.0
  0
LINE
  5
1AD
100
AcDbEntity
  8
62
100
AcDbLine
 10
329.022534
 20
134.898794
 30
0.0
 11
329.022534
 21
135.398794
 31
0.0
  0
ARC
  5
1AE
100
AcDbEntity
  8
62
100
AcDbCircle
 10
326.50508
 20
134.898794
 30
0.0
 40
3.347346
100
AcDbArc
 50
270.0
 51
0.0
  0
ARC
  5
1AF
100
AcDbEntity
  8
62
100
AcDbCircle
 10
326.50508
 20
134.898794
 30
0.0
 40
2.517454
100
AcDbArc
 50
270.0
 51
0.0
  0
ARC
  5
1B0
100
AcDbEntity
  8
61
100
AcDbCircle
 10
326.50508
 20
135.098794
 30
0.0
 40
1.919663
100
AcDbArc
 50
270.0
 51
0.0
  0
ARC
  5
1B1
100
AcDbEntity
  8
61
100
AcDbCircle
 10
342.438901
 20
135.098794
 30
0.0
 40
1.919663
100
AcDbArc
 50
180.0
 51
270.0
  0
ARC
  5
1B2
100
AcDbEntity
  8
62
100
AcDbCircle
 10
342.438901
 20
134.898794
 30
0.0
 40
2.517454
100
AcDbArc
 50
180.0
 51
270.0
  0
ARC
  5
1B3
100
AcDbEntity
  8
62
100
AcDbCircle
 10
342.438901
 20
134.898794
 30
0.0
 40
3.347346
100
AcDbArc
 50
180.0
 51
270.0
  0
LINE
  5
1B4
100
AcDbEntity
  8
62
100
AcDbLine
 10
339.921447
 20
134.898794
 30
0.0
 11
339.921447
 21
135.398794
 31
0.0
  0
LINE
  5
1B5
100
AcDbEntity
  8
62
100
AcDbLine
 10
339.091555
 20
134.898794
 30
0.0
 11
339.091555
 21
135.398794
 31
0.0
  0
ARC
  5
1B6
100
AcDbEntity
  8
62
100
AcDbCircle
 10
342.438901
 20
134.898794
 30
0.0
 40
3.7
100
AcDbArc
 50
180.0
 51
270.0
  0
LINE
  5
1B7
100
AcDbEntity
  8
62
100
AcDbLine
 10
338.738901
 20
134.898794
 30
0.0
 11
338.738901
 21
135.398794
 31
0.0
  0
ARC
  5
1B8
100
AcDbEntity
  8
61
100
AcDbCircle
 10
445.318849
 20
135.098794
 30
0.0
 40
1.919663
100
AcDbArc
 50
270.0
 51
0.0
  0
LINE
  5
1B9
100
AcDbEntity
  8
61
100
AcDbLine
 10
447.238512
 20
135.098794
 30
0.0
 11
447.238512
 21
146.051936
 31
0.0
  0
LINE
  5
1BA
100
AcDbEntity
  8
61
100
AcDbLine
 10
451.818849
 20
150.632273
 30
0.0
 11
453.771991
 21
150.632273
 31
0.0
  0
ARC
  5
1BB
100
AcDbEntity
  8
61
100
AcDbCircle
 10
453.771991
 20
152.551936
 30
0.0
 40
1.919663
100
AcDbArc
 50
270.0
 51
0.0
  0
ARC
  5
1BC
100
AcDbEntity
  8
62
100
AcDbCircle
 10
445.318849
 20
134.898794
 30
0.0
 40
2.517454
100
AcDbArc
 50
270.0
 51
0.0
  0
ARC
  5
1BD
100
AcDbEntity
  8
62
100
AcDbCircle
 10
453.971991
 20
152.551936
 30
0.0
 40
2.517454
100
AcDbArc
 50
270.0
 51
0.0
  0
ARC
  5
1BE
100
AcDbEntity
  8
62
100
AcDbCircle
 10
445.318849
 20
134.898794
 30
0.0
 40
3.347346
100
AcDbArc
 50
270.0
 51
0.0
  0
ARC
  5
1BF
100
AcDbEntity
  8
62
100
AcDbCircle
 10
453.971991
 20
152.551936
 30
0.0
 40
3.347346
100
AcDbArc
 50
270.0
 51
0.0
  0
ARC
  5
1C0
100
AcDbEntity
  8
62
100
AcDbCircle
 10
457.671991
 20
151.032068
 30
0.0
 40
0.3
100
AcDbArc
 50
0.0
 51
157.668355
  0
ARC
  5
1C1
100
AcDbEntity
  8
62
100
AcDbCircle
 10
445.318849
 20
134.898794
 30
0.0
 40
3.7
100
AcDbArc
 50
270.0
 51
0.0
  0
ARC
  5
1C2
100
AcDbEntity
  8
62
100
AcDbCircle
 10
453.971991
 20
152.551936
 30
0.0
 40
3.7
100
AcDbArc
 50
270.0
 51
0.0
  0
LINE
  5
1C3
100
AcDbEntity
  8
62
100
AcDbLine
 10
449.018849
 20
134.898794
 30
0.0
 11
449.018849
 21
146.051936
 31
0.0
  0
LINE
  5
1C4
100
AcDbEntity
  8
62
100
AcDbLine
 10
448.666195
 20
134.898794
 30
0.0
 11
448.666195
 21
146.051936
 31
0.0
  0
LINE
  5
1C5
100
AcDbEntity
  8
62
100
AcDbLine
 10
447.836302
 20
134.898794
 30
0.0
 11
447.836302
 21
146.051936
 31
0.0
  0
LINE
  5
1C6
100
AcDbEntity
  8
62
100
AcDbLine
 10
451.818849
 20
148.851936
 30
0.0
 11
453.971991
 21
148.851936
 31
0.0
  0
LINE
  5
1C7
100
AcDbEntity
  8
62
100
AcDbLine
 10
451.818849
 20
149.20459
 30
0.0
 11
453.971991
 21
149.20459
 31
0.0
  0
LINE
  5
1C8
100
AcDbEntity
  8
62
100
AcDbLine
 10
451.818849
 20
150.034482
 30
0.0
 11
453.971991
 21
150.034482
 31
0.0
  0
ARC
  5
1C9
100
AcDbEntity
  8
61
100
AcDbCircle
 10
453.471991
 20
135.398794
 30
0.0
 40
6.0
100
AcDbArc
 50
270.0
 51
360.0
  0
LINE
  5
1CA
100
AcDbEntity
  8
61
100
AcDbLine
 10
215.471991
 20
129.398794
 30
0.0
 11
453.471991
 21
129.398794
 31
0.0
  0
LINE
  5
1CB
100
AcDbEntity
  8
61
100
AcDbLine
 10
215.471991
 20
289.398794
 30
0.0
 11
453.471991
 21
289.398794
 31
0.0
  0
LINE
  5
1CC
100
AcDbEntity
  8
61
100
AcDbLine
 10
209.471991
 20
135.398794
 30
0.0
 11
209.471991
 21
283.398794
 31
0.0
  0
LINE
  5
1CD
100
AcDbEntity
  8
61
100
AcDbLine
 10
459.471991
 20
135.398794
 30
0.0
 11
459.471991
 21
283.398794
 31
0.0
  0
LINE
  5
1CE
100
AcDbEntity
  8
62
100
AcDbLine
 10
457.319337
 20
152.551936
 30
0.0
 11
457.319337
 21
266.245652
 31
0.0
  0
LINE
  5
1CF
100
AcDbEntity
  8
62
100
AcDbLine
 10
342.438901
 20
131.551448
 30
0.0
 11
445.318849
 21
131.551448
 31
0.0
  0
ARC
  5
1D0
100
AcDbEntity
  8
62
100
AcDbCircle
 10
334.471991
 20
135.398794
 30
0.0
 40
4.619564
100
AcDbArc
 50
0.0
 51
180.0
  0
LINE
  5
1D1
100
AcDbEntity
  8
62
100
AcDbLine
 10
223.625132
 20
131.551448
 30
0.0
 11
326.50508
 21
131.551448
 31
0.0
  0
LINE
  5
1D2
100
AcDbEntity
  8
62
100
AcDbLine
 10
211.624644
 20
152.551936
 30
0.0
 11
211.624644
 21
266.245652
 31
0.0
  0
LINE
  5
1D3
100
AcDbEntity
  8
62
100
AcDbLine
 10
223.625132
 20
287.24614
 30
0.0
 11
326.50508
 21
287.24614
 31
0.0
  0
LINE
  5
1D4
100
AcDbEntity
  8
62
100
AcDbLine
 10
342.438901
 20
287.24614
 30
0.0
 11
445.318849
 21
287.24614
 31
0.0
  0
LINE
  5
1D5
100
AcDbEntity
  8
62
100
AcDbLine
 10
457.671991
 20
152.551936
 30
0.0
 11
457.671991
 21
266.245652
 31
0.0
  0
LINE
  5
1D6
100
AcDbEntity
  8
62
100
AcDbLine
 10
342.438901
 20
131.198794
 30
0.0
 11
445.318849
 21
131.198794
 31
0.0
  0
ARC
  5
1D7
100
AcDbEntity
  8
62
100
AcDbCircle
 10
334.471991
 20
135.398794
 30
0.0
 40
4.26691
100
AcDbArc
 50
0.0
 51
180.0
  0
LINE
  5
1D8
100
AcDbEntity
  8
62
100
AcDbLine
 10
223.625132
 20
131.198794
 30
0.0
 11
326.50508
 21
131.198794
 31
0.0
  0
LINE
  5
1D9
100
AcDbEntity
  8
62
100
AcDbLine
 10
211.271991
 20
152.551936
 30
0.0
 11
211.271991
 21
266.245652
 31
0.0
  0
LINE
  5
1DA
100
AcDbEntity
  8
62
100
AcDbLine
 10
223.625132
 20
287.598794
 30
0.0
 11
326.50508
 21
287.598794
 31
0.0
  0
LINE
  5
1DB
100
AcDbEntity
  8
62
100
AcDbLine
 10
342.438901
 20
287.598794
 30
0.0
 11
445.318849
 21
287.598794
 31
0.0
  0
LINE
  5
1DC
100
AcDbEntity
  8
62
100
AcDbLine
 10
456.489444
 20
152.551936
 30
0.0
 11
456.489444
 21
266.245652
 31
0.0
  0
LINE
  5
1DD
100
AcDbEntity
  8
62
100
AcDbLine
 10
342.438901
 20
132.38134
 30
0.0
 11
445.318849
 21
132.38134
 31
0.0
  0
ARC
  5
1DE
100
AcDbEntity
  8
62
100
AcDbCircle
 10
334.471991
 20
135.398794
 30
0.0
 40
5.449457
100
AcDbArc
 50
0.0
 51
180.0
  0
LINE
  5
1DF
100
AcDbEntity
  8
62
100
AcDbLine
 10
223.625132
 20
132.38134
 30
0.0
 11
326.50508
 21
132.38134
 31
0.0
  0
LINE
  5
1E0
100
AcDbEntity
  8
62
100
AcDbLine
 10
212.454537
 20
152.551936
 30
0.0
 11
212.454537
 21
266.245652
 31
0.0
  0
LINE
  5
1E1
100
AcDbEntity
  8
62
100
AcDbLine
 10
223.625132
 20
286.416248
 30
0.0
 11
326.50508
 21
286.416248
 31
0.0
  0
LINE
  5
1E2
100
AcDbEntity
  8
62
100
AcDbLine
 10
342.438901
 20
286.416248
 30
0.0
 11
445.318849
 21
286.416248
 31
0.0
  0
LINE
  5
1E3
100
AcDbEntity
  8
61
100
AcDbLine
 10
455.691654
 20
152.551936
 30
0.0
 11
455.691654
 21
266.245652
 31
0.0
  0
LINE
  5
1E4
100
AcDbEntity
  8
61
100
AcDbLine
 10
342.438901
 20
285.618457
 30
0.0
 11
445.318849
 21
285.618457
 31
0.0
  0
LINE
  5
1E5
100
AcDbEntity
  8
61
100
AcDbLine
 10
223.625132
 20
285.618457
 30
0.0
 11
326.50508
 21
285.618457
 31
0.0
  0
LINE
  5
1E6
100
AcDbEntity
  8
61
100
AcDbLine
 10
342.438901
 20
133.179131
 30
0.0
 11
445.318849
 21
133.179131
 31
0.0
  0
ARC
  5
1E7
100
AcDbEntity
  8
61
100
AcDbCircle
 10
334.471991
 20
135.398794
 30
0.0
 40
6.047247
100
AcDbArc
 50
0.0
 51
180.0
  0
LINE
  5
1E8
100
AcDbEntity
  8
61
100
AcDbLine
 10
223.625132
 20
133.179131
 30
0.0
 11
326.50508
 21
133.179131
 31
0.0
  0
LINE
  5
1E9
100
AcDbEntity
  8
61
100
AcDbLine
 10
213.252327
 20
152.551936
 30
0.0
 11
213.252327
 21
266.245652
 31
0.0
  0
CIRCLE
  5
1EA
100
AcDbEntity
  8
62
100
AcDbCircle
 10
334.471991
 20
135.398794
 30
0.0
 40
1.5
  0
CIRCLE
  5
1EB
100
AcDbEntity
  8
62
100
AcDbCircle
 10
334.471991
 20
135.398794
 30
0.0
 40
3.05
  0
CIRCLE
  5
1EC
100
AcDbEntity
  8
62
100
AcDbCircle
 10
334.471991
 20
135.398794
 30
0.0
 40
2.05
  0
CIRCLE
  5
1ED
100
AcDbEntity
  8
62
100
AcDbCircle
 10
453.471991
 20
135.398794
 30
0.0
 40
1.5
  0
CIRCLE
  5
1EE
100
AcDbEntity
  8
62
100
AcDbCircle
 10
453.471991
 20
135.398794
 30
0.0
 40
2.05
  0
LINE
  5
1EF
100
AcDbEntity
  8
62
100
AcDbLine
 10
457.971991
 20
136.320748
 30
0.0
 11
457.971991
 21
151.032068
 31
0.0
  0
LINE
  5
1F0
100
AcDbEntity
  8
31
100
AcDbLine
 10
542.551305
 20
131.000986
 30
0.0
 11
542.551305
 21
287.796602
 31
0.0
  0
LINE
  5
1F1
100
AcDbEntity
  8
31
100
AcDbLine
 10
617.551305
 20
289.398794
 30
0.0
 11
543.542578
 21
288.796564
 31
0.0
  0
LINE
  5
1F2
100
AcDbEntity
  8
33
  6
DASHED
100
AcDbLine
 10
546.051305
 20
150.629292
 30
0.0
 11
546.051305
 21
209.398794
 31
0.0
  0
LINE
  5
1F3
100
AcDbEntity
  8
31
100
AcDbLine
 10
617.551305
 20
287.598794
 30
0.0
 11
617.551305
 21
289.398794
 31
0.0
  0
LINE
  5
1F4
100
AcDbEntity
  8
31
100
AcDbLine
 10
619.551305
 20
131.701454
 30
0.0
 11
619.551305
 21
286.9105
 31
0.0
  0
LINE
  5
1F5
100
AcDbEntity
  8
31
100
AcDbLine
 10
617.551305
 20
287.598794
 30
0.0
 11
619.220764
 21
287.304423
 31
0.0
  0
ARC
  5
1F6
100
AcDbEntity
  8
31
100
AcDbCircle
 10
619.151305
 20
131.701454
 30
0.0
 40
0.4
100
AcDbArc
 50
280.0
 51
0.0
  0
LINE
  5
1F7
100
AcDbEntity
  8
31
100
AcDbLine
 10
617.551305
 20
131.01316
 30
0.0
 11
619.220764
 21
131.307531
 31
0.0
  0
LINE
  5
1F8
100
AcDbEntity
  8
31
100
AcDbLine
 10
617.551305
 20
131.01316
 30
0.0
 11
617.551305
 21
129.398794
 31
0.0
  0
LINE
  5
1F9
100
AcDbEntity
  8
31
100
AcDbLine
 10
617.551305
 20
129.398794
 30
0.0
 11
543.542578
 21
130.001024
 31
0.0
  0
LINE
  5
1FA
100
AcDbEntity
  8
33
  6
DASHED
100
AcDbLine
 10
546.051305
 20
150.629292
 30
0.0
 11
617.551305
 21
150.050667
 31
0.0
  0
ARC
  5
1FB
100
AcDbEntity
  8
31
100
AcDbCircle
 10
543.551305
 20
131.000986
 30
0.0
 40
1.0
100
AcDbArc
 50
180.0
 51
269.5
  0
ARC
  5
1FC
100
AcDbEntity
  8
31
100
AcDbCircle
 10
543.551305
 20
287.796602
 30
0.0
 40
1.0
100
AcDbArc
 50
90.5
 51
180.0
  0
LINE
  5
1FD
100
AcDbEntity
  8
62
100
AcDbLine
 10
449.318849
 20
139.787913
 30
0.0
 11
457.671991
 21
139.787913
 31
0.0
  0
CIRCLE
  5
1FE
100
AcDbEntity
  8
51
100
AcDbCircle
 10
-27.027353
 20
135.224708
 30
0.0
 40
1.5
  0
CIRCLE
  5
1FF
100
AcDbEntity
  8
51
100
AcDbCircle
 10
-146.027353
 20
135.224708
 30
0.0
 40
1.5
  0
LINE
  5
200
100
AcDbEntity
  8
51
100
AcDbLine
 10
-21.027353
 20
135.224708
 30
0.0
 11
-21.027353
 21
283.224708
 31
0.0
  0
LINE
  5
201
100
AcDbEntity
  8
51
100
AcDbLine
 10
-271.027353
 20
135.224708
 30
0.0
 11
-271.027353
 21
283.224708
 31
0.0
  0
LINE
  5
202
100
AcDbEntity
  8
51
100
AcDbLine
 10
-265.027353
 20
289.224708
 30
0.0
 11
-27.027353
 21
289.224708
 31
0.0
  0
LINE
  5
203
100
AcDbEntity
  8
51
100
AcDbLine
 10
-265.027353
 20
129.224708
 30
0.0
 11
-27.027353
 21
129.224708
 31
0.0
  0
ARC
  5
204
100
AcDbEntity
  8
51
100
AcDbCircle
 10
-27.027353
 20
135.224708
 30
0.0
 40
6.0
100
AcDbArc
 50
270.0
 51
360.0
  0
ARC
  5
205
100
AcDbEntity
  8
51
100
AcDbCircle
 10
-146.027353
 20
135.224708
 30
0.0
 40
4.0
100
AcDbArc
 50
0.0
 51
180.0
  0
LINE
  5
206
100
AcDbEntity
  8
51
100
AcDbLine
 10
-151.050819
 20
131.335589
 30
0.0
 11
-141.003887
 21
131.335589
 31
0.0
  0
LINE
  5
207
100
AcDbEntity
  8
51
100
AcDbLine
 10
-23.027353
 20
135.224708
 30
0.0
 11
-23.027353
 21
138.424708
 31
0.0
  0
LINE
  5
208
100
AcDbEntity
  8
51
100
AcDbLine
 10
-30.128815
 20
138.724708
 30
0.0
 11
-23.327353
 21
138.724708
 31
0.0
  0
LINE
  5
209
100
AcDbEntity
  8
51
100
AcDbLine
 10
-31.443553
 20
131.224708
 30
0.0
 11
-27.027353
 21
131.224708
 31
0.0
  0
ARC
  5
20A
100
AcDbEntity
  8
51
100
AcDbCircle
 10
-27.027353
 20
135.224708
 30
0.0
 40
4.0
100
AcDbArc
 50
270.0
 51
0.0
  0
LINE
  5
20B
100
AcDbEntity
  8
52
100
AcDbLine
 10
-22.688993
 20
135.224708
 30
0.0
 11
-22.688993
 21
283.224708
 31
0.0
  0
LINE
  5
20C
100
AcDbEntity
  8
52
100
AcDbLine
 10
-265.027353
 20
130.886349
 30
0.0
 11
-27.027353
 21
130.886349
 31
0.0
  0
LINE
  5
20D
100
AcDbEntity
  8
52
100
AcDbLine
 10
-269.365713
 20
135.224708
 30
0.0
 11
-269.365713
 21
283.224708
 31
0.0
  0
LINE
  5
20E
100
AcDbEntity
  8
52
100
AcDbLine
 10
-265.027353
 20
287.563068
 30
0.0
 11
-27.027353
 21
287.563068
 31
0.0
  0
ARC
  5
20F
100
AcDbEntity
  8
52
100
AcDbCircle
 10
-27.027353
 20
135.224708
 30
0.0
 40
4.33836
100
AcDbArc
 50
270.0
 51
360.0
  0
CIRCLE
  5
210
100
AcDbEntity
  8
61
100
AcDbCircle
 10
334.471991
 20
209.398794
 30
0.0
 40
2.0
  0
CIRCLE
  5
211
100
AcDbEntity
  8
61
100
AcDbCircle
 10
334.471991
 20
209.398794
 30
0.0
 40
2.25
  0
CIRCLE
  5
212
100
AcDbEntity
  8
61
100
AcDbCircle
 10
334.471991
 20
209.398794
 30
0.0
 40
4.0
  0
CIRCLE
  5
213
100
AcDbEntity
  8
61
100
AcDbCircle
 10
443.471991
 20
189.398794
 30
0.0
 40
4.0
  0
CIRCLE
  5
214
100
AcDbEntity
  8
61
100
AcDbCircle
 10
443.471991
 20
189.398794
 30
0.0
 40
2.25
  0
CIRCLE
  5
215
100
AcDbEntity
  8
61
100
AcDbCircle
 10
443.471991
 20
189.398794
 30
0.0
 40
2.0
  0
CIRCLE
  5
216
100
AcDbEntity
  8
61
100
AcDbCircle
 10
443.471991
 20
229.398794
 30
0.0
 40
4.0
  0
CIRCLE
  5
217
100
AcDbEntity
  8
61
100
AcDbCircle
 10
443.471991
 20
229.398794
 30
0.0
 40
2.25
  0
CIRCLE
  5
218
100
AcDbEntity
  8
61
100
AcDbCircle
 10
443.471991
 20
229.398794
 30
0.0
 40
2.0
  0
CIRCLE
  5
21F
100
AcDbEntity
  8
61
100
AcDbCircle
 10
225.471991
 20
189.398794
 30
0.0
 40
4.0
  0
CIRCLE
  5
220
100
AcDbEntity
  8
61
100
AcDbCircle
 10
225.471991
 20
189.398794
 30
0.0
 40
2.25
  0
CIRCLE
  5
221
100
AcDbEntity
  8
61
100
AcDbCircle
 10
225.471991
 20
189.398794
 30
0.0
 40
2.0
  0
CIRCLE
  5
222
100
AcDbEntity
  8
61
100
AcDbCircle
 10
225.471991
 20
229.398794
 30
0.0
 40
4.0
  0
CIRCLE
  5
223
100
AcDbEntity
  8
61
100
AcDbCircle
 10
225.471991
 20
229.398794
 30
0.0
 40
2.25
  0
CIRCLE
  5
224
100
AcDbEntity
  8
61
100
AcDbCircle
 10
225.471991
 20
229.398794
 30
0.0
 40
2.0
  0
CIRCLE
  5
282
100
AcDbEntity
  8
61
100
AcDbCircle
 10
442.471991
 20
171.898794
 30
0.0
 40
2.0
  0
CIRCLE
  5
283
100
AcDbEntity
  8
61
100
AcDbCircle
 10
442.471991
 20
171.898794
 30
0.0
 40
2.25
  0
CIRCLE
  5
284
100
AcDbEntity
  8
61
100
AcDbCircle
 10
442.471991
 20
171.898794
 30
0.0
 40
4.0
  0
CIRCLE
  5
285
100
AcDbEntity
  8
61
100
AcDbCircle
 10
442.471991
 20
246.898794
 30
0.0
 40
2.0
  0
CIRCLE
  5
286
100
AcDbEntity
  8
61
100
AcDbCircle
 10
442.471991
 20
246.898794
 30
0.0
 40
2.25
  0
CIRCLE
  5
287
100
AcDbEntity
  8
61
100
AcDbCircle
 10
442.471991
 20
246.898794
 30
0.0
 40
4.0
  0
CIRCLE
  5
288
100
AcDbEntity
  8
61
100
AcDbCircle
 10
334.471991
 20
171.898794
 30
0.0
 40
2.0
  0
CIRCLE
  5
289
100
AcDbEntity
  8
61
100
AcDbCircle
 10
334.471991
 20
171.898794
 30
0.0
 40
2.25
  0
CIRCLE
  5
28A
100
AcDbEntity
  8
61
100
AcDbCircle
 10
334.471991
 20
171.898794
 30
0.0
 40
4.0
  0
CIRCLE
  5
28B
100
AcDbEntity
  8
61
100
AcDbCircle
 10
334.471991
 20
246.898794
 30
0.0
 40
2.0
  0
CIRCLE
  5
28C
100
AcDbEntity
  8
61
100
AcDbCircle
 10
334.471991
 20
246.898794
 30
0.0
 40
2.25
  0
CIRCLE
  5
28D
100
AcDbEntity
  8
61
100
AcDbCircle
 10
334.471991
 20
246.898794
 30
0.0
 40
4.0
  0
CIRCLE
  5
28E
100
AcDbEntity
  8
61
100
AcDbCircle
 10
226.471991
 20
171.898794
 30
0.0
 40
2.0
  0
CIRCLE
  5
28F
100
AcDbEntity
  8
61
100
AcDbCircle
 10
226.471991
 20
171.898794
 30
0.0
 40
2.25
  0
CIRCLE
  5
290
100
AcDbEntity
  8
61
100
AcDbCircle
 10
226.471991
 20
171.898794
 30
0.0
 40
4.0
  0
CIRCLE
  5
291
100
AcDbEntity
  8
61
100
AcDbCircle
 10
226.471991
 20
246.898794
 30
0.0
 40
2.0
  0
CIRCLE
  5
292
100
AcDbEntity
  8
61
100
AcDbCircle
 10
226.471991
 20
246.898794
 30
0.0
 40
2.25
  0
CIRCLE
  5
293
100
AcDbEntity
  8
61
100
AcDbCircle
 10
226.471991
 20
246.898794
 30
0.0
 40
4.0
  0
CIRCLE
  5
294
100
AcDbEntity
  8
61
100
AcDbCircle
 10
442.471991
 20
209.398794
 30
0.0
 40
2.0
  0
CIRCLE
  5
295
100
AcDbEntity
  8
61
100
AcDbCircle
 10
442.471991
 20
209.398794
 30
0.0
 40
2.25
  0
CIRCLE
  5
296
100
AcDbEntity
  8
61
100
AcDbCircle
 10
442.471991
 20
209.398794
 30
0.0
 40
4.0
  0
CIRCLE
  5
297
100
AcDbEntity
  8
61
100
AcDbCircle
 10
226.471991
 20
209.398794
 30
0.0
 40
2.0
  0
CIRCLE
  5
298
100
AcDbEntity
  8
61
100
AcDbCircle
 10
226.471991
 20
209.398794
 30
0.0
 40
2.25
  0
CIRCLE
  5
299
100
AcDbEntity
  8
61
100
AcDbCircle
 10
226.471991
 20
209.398794
 30
0.0
 40
4.0
  0
CIRCLE
  5
29A
100
AcDbEntity
  8
61
100
AcDbCircle
 10
257.471991
 20
141.398794
 30
0.0
 40
2.0
  0
CIRCLE
  5
29B
100
AcDbEntity
  8
61
100
AcDbCircle
 10
257.471991
 20
141.398794
 30
0.0
 40
2.25
  0
CIRCLE
  5
29C
100
AcDbEntity
  8
61
100
AcDbCircle
 10
257.471991
 20
141.398794
 30
0.0
 40
4.0
  0
CIRCLE
  5
29D
100
AcDbEntity
  8
61
100
AcDbCircle
 10
277.471991
 20
141.398794
 30
0.0
 40
2.0
  0
CIRCLE
  5
29E
100
AcDbEntity
  8
61
100
AcDbCircle
 10
277.471991
 20
141.398794
 30
0.0
 40
2.25
  0
CIRCLE
  5
29F
100
AcDbEntity
  8
61
100
AcDbCircle
 10
277.471991
 20
141.398794
 30
0.0
 40
4.0
  0
CIRCLE
  5
2A0
100
AcDbEntity
  8
61
100
AcDbCircle
 10
297.471991
 20
141.398794
 30
0.0
 40
2.0
  0
CIRCLE
  5
2A1
100
AcDbEntity
  8
61
100
AcDbCircle
 10
297.471991
 20
141.398794
 30
0.0
 40
2.25
  0
CIRCLE
  5
2A2
100
AcDbEntity
  8
61
100
AcDbCircle
 10
297.471991
 20
141.398794
 30
0.0
 40
4.0
  0
CIRCLE
  5
2A3
100
AcDbEntity
  8
61
100
AcDbCircle
 10
297.471991
 20
277.398794
 30
0.0
 40
2.0
  0
CIRCLE
  5
2A4
100
AcDbEntity
  8
61
100
AcDbCircle
 10
297.471991
 20
277.398794
 30
0.0
 40
2.25
  0
CIRCLE
  5
2A5
100
AcDbEntity
  8
61
100
AcDbCircle
 10
297.471991
 20
277.398794
 30
0.0
 40
4.0
  0
CIRCLE
  5
2A6
100
AcDbEntity
  8
61
100
AcDbCircle
 10
277.471991
 20
277.398794
 30
0.0
 40
2.0
  0
CIRCLE
  5
2A7
100
AcDbEntity
  8
61
100
AcDbCircle
 10
277.471991
 20
277.398794
 30
0.0
 40
2.25
  0
CIRCLE
  5
2A8
100
AcDbEntity
  8
61
100
AcDbCircle
 10
277.471991
 20
277.398794
 30
0.0
 40
4.0
  0
CIRCLE
  5
2A9
100
AcDbEntity
  8
61
100
AcDbCircle
 10
257.471991
 20
277.398794
 30
0.0
 40
2.0
  0
CIRCLE
  5
2AA
100
AcDbEntity
  8
61
100
AcDbCircle
 10
257.471991
 20
277.398794
 30
0.0
 40
2.25
  0
CIRCLE
  5
2AB
100
AcDbEntity
  8
61
100
AcDbCircle
 10
257.471991
 20
277.398794
 30
0.0
 40
4.0
  0
CIRCLE
  5
2AC
100
AcDbEntity
  8
61
100
AcDbCircle
 10
371.471991
 20
277.398794
 30
0.0
 40
2.0
  0
CIRCLE
  5
2AD
100
AcDbEntity
  8
61
100
AcDbCircle
 10
371.471991
 20
277.398794
 30
0.0
 40
2.25
  0
CIRCLE
  5
2AE
100
AcDbEntity
  8
61
100
AcDbCircle
 10
371.471991
 20
277.398794
 30
0.0
 40
4.0
  0
CIRCLE
  5
2AF
100
AcDbEntity
  8
61
100
AcDbCircle
 10
391.471991
 20
277.398794
 30
0.0
 40
2.0
  0
CIRCLE
  5
2B0
100
AcDbEntity
  8
61
100
AcDbCircle
 10
391.471991
 20
277.398794
 30
0.0
 40
2.25
  0
CIRCLE
  5
2B1
100
AcDbEntity
  8
61
100
AcDbCircle
 10
391.471991
 20
277.398794
 30
0.0
 40
4.0
  0
CIRCLE
  5
2B2
100
AcDbEntity
  8
61
100
AcDbCircle
 10
411.471991
 20
277.398794
 30
0.0
 40
2.0
  0
CIRCLE
  5
2B3
100
AcDbEntity
  8
61
100
AcDbCircle
 10
411.471991
 20
277.398794
 30
0.0
 40
2.25
  0
CIRCLE
  5
2B4
100
AcDbEntity
  8
61
100
AcDbCircle
 10
411.471991
 20
277.398794
 30
0.0
 40
4.0
  0
CIRCLE
  5
2B5
100
AcDbEntity
  8
61
100
AcDbCircle
 10
411.471991
 20
141.398794
 30
0.0
 40
2.0
  0
CIRCLE
  5
2B6
100
AcDbEntity
  8
61
100
AcDbCircle
 10
411.471991
 20
141.398794
 30
0.0
 40
2.25
  0
CIRCLE
  5
2B7
100
AcDbEntity
  8
61
100
AcDbCircle
 10
411.471991
 20
141.398794
 30
0.0
 40
4.0
  0
CIRCLE
  5
2B8
100
AcDbEntity
  8
61
100
AcDbCircle
 10
391.471991
 20
141.398794
 30
0.0
 40
2.0
  0
CIRCLE
  5
2B9
100
AcDbEntity
  8
61
100
AcDbCircle
 10
391.471991
 20
141.398794
 30
0.0
 40
2.25
  0
CIRCLE
  5
2BA
100
AcDbEntity
  8
61
100
AcDbCircle
 10
391.471991
 20
141.398794
 30
0.0
 40
4.0
  0
CIRCLE
  5
2BB
100
AcDbEntity
  8
61
100
AcDbCircle
 10
371.471991
 20
141.398794
 30
0.0
 40
2.0
  0
CIRCLE
  5
2BC
100
AcDbEntity
  8
61
100
AcDbCircle
 10
371.471991
 20
141.398794
 30
0.0
 40
2.25
  0
CIRCLE
  5
2BD
100
AcDbEntity
  8
61
100
AcDbCircle
 10
371.471991
 20
141.398794
 30
0.0
 40
4.0
  0
CIRCLE
  5
2BE
100
AcDbEntity
  8
61
100
AcDbCircle
 10
233.771991
 20
140.148794
 30
0.0
 40
2.0
  0
CIRCLE
  5
2BF
100
AcDbEntity
  8
61
100
AcDbCircle
 10
233.771991
 20
140.148794
 30
0.0
 40
2.25
  0
ARC
  5
2C0
100
AcDbEntity
  8
61
100
AcDbCircle
 10
233.671991
 20
140.148794
 30
0.0
 40
4.0
100
AcDbArc
 50
70.743836
 51
103.955738
  0
CIRCLE
  5
2C1
100
AcDbEntity
  8
61
100
AcDbCircle
 10
435.271991
 20
140.148794
 30
0.0
 40
2.0
  0
CIRCLE
  5
2C2
100
AcDbEntity
  8
61
100
AcDbCircle
 10
435.271991
 20
140.148794
 30
0.0
 40
2.25
  0
ARC
  5
2C3
100
AcDbEntity
  8
61
100
AcDbCircle
 10
435.271991
 20
140.148794
 30
0.0
 40
4.0
100
AcDbArc
 50
76.044262
 51
109.256164
  0
CIRCLE
  5
2C4
100
AcDbEntity
  8
61
100
AcDbCircle
 10
435.271991
 20
278.648794
 30
0.0
 40
2.0
  0
CIRCLE
  5
2C5
100
AcDbEntity
  8
61
100
AcDbCircle
 10
435.271991
 20
278.648794
 30
0.0
 40
2.25
  0
ARC
  5
2C6
100
AcDbEntity
  8
61
100
AcDbCircle
 10
435.271991
 20
278.648794
 30
0.0
 40
4.0
100
AcDbArc
 50
250.743836
 51
283.955738
  0
CIRCLE
  5
2C7
100
AcDbEntity
  8
61
100
AcDbCircle
 10
233.671991
 20
278.648794
 30
0.0
 40
2.0
  0
CIRCLE
  5
2C8
100
AcDbEntity
  8
61
100
AcDbCircle
 10
233.671991
 20
278.648794
 30
0.0
 40
2.25
  0
ARC
  5
2C9
100
AcDbEntity
  8
61
100
AcDbCircle
 10
233.671991
 20
278.648794
 30
0.0
 40
4.0
100
AcDbArc
 50
256.044262
 51
289.256164
  0
ARC
  5
2CA
100
AcDbEntity
  8
61
100
AcDbCircle
 10
228.471991
 20
145.398794
 30
0.0
 40
4.0
100
AcDbArc
 50
345.495981
 51
283.955738
  0
CIRCLE
  5
2CB
100
AcDbEntity
  8
61
100
AcDbCircle
 10
228.471991
 20
145.398794
 30
0.0
 40
2.25
  0
CIRCLE
  5
2CC
100
AcDbEntity
  8
61
100
AcDbCircle
 10
228.471991
 20
145.398794
 30
0.0
 40
2.0
  0
ARC
  5
2CD
100
AcDbEntity
  8
61
100
AcDbCircle
 10
239.221991
 20
145.398794
 30
0.0
 40
4.0
100
AcDbArc
 50
250.743836
 51
196.073884
  0
CIRCLE
  5
2CE
100
AcDbEntity
  8
61
100
AcDbCircle
 10
239.221991
 20
145.398794
 30
0.0
 40
2.25
  0
CIRCLE
  5
2CF
100
AcDbEntity
  8
61
100
AcDbCircle
 10
239.221991
 20
145.398794
 30
0.0
 40
2.0
  0
ARC
  5
2D0
100
AcDbEntity
  8
61
100
AcDbCircle
 10
429.721991
 20
145.398794
 30
0.0
 40
4.0
100
AcDbArc
 50
343.926116
 51
289.256164
  0
CIRCLE
  5
2D1
100
AcDbEntity
  8
61
100
AcDbCircle
 10
429.721991
 20
145.398794
 30
0.0
 40
2.25
  0
CIRCLE
  5
2D2
100
AcDbEntity
  8
61
100
AcDbCircle
 10
429.721991
 20
145.398794
 30
0.0
 40
2.0
  0
ARC
  5
2D3
100
AcDbEntity
  8
61
100
AcDbCircle
 10
440.471991
 20
145.398794
 30
0.0
 40
4.0
100
AcDbArc
 50
256.044262
 51
194.504019
  0
CIRCLE
  5
2D4
100
AcDbEntity
  8
61
100
AcDbCircle
 10
440.471991
 20
145.398794
 30
0.0
 40
2.25
  0
CIRCLE
  5
2D5
100
AcDbEntity
  8
61
100
AcDbCircle
 10
440.471991
 20
145.398794
 30
0.0
 40
2.0
  0
ARC
  5
2D6
100
AcDbEntity
  8
61
100
AcDbCircle
 10
440.471991
 20
273.398794
 30
0.0
 40
4.0
100
AcDbArc
 50
165.495981
 51
103.955738
  0
CIRCLE
  5
2D7
100
AcDbEntity
  8
61
100
AcDbCircle
 10
440.471991
 20
273.398794
 30
0.0
 40
2.25
  0
CIRCLE
  5
2D8
100
AcDbEntity
  8
61
100
AcDbCircle
 10
440.471991
 20
273.398794
 30
0.0
 40
2.0
  0
ARC
  5
2D9
100
AcDbEntity
  8
61
100
AcDbCircle
 10
429.721991
 20
273.398794
 30
0.0
 40
4.0
100
AcDbArc
 50
70.743836
 51
16.073884
  0
CIRCLE
  5
2DA
100
AcDbEntity
  8
61
100
AcDbCircle
 10
429.721991
 20
273.398794
 30
0.0
 40
2.25
  0
CIRCLE
  5
2DB
100
AcDbEntity
  8
61
100
AcDbCircle
 10
429.721991
 20
273.398794
 30
0.0
 40
2.0
  0
ARC
  5
2DC
100
AcDbEntity
  8
61
100
AcDbCircle
 10
239.221991
 20
273.398794
 30
0.0
 40
4.0
100
AcDbArc
 50
163.926116
 51
109.256164
  0
CIRCLE
  5
2DD
100
AcDbEntity
  8
61
100
AcDbCircle
 10
239.221991
 20
273.398794
 30
0.0
 40
2.25
  0
CIRCLE
  5
2DE
100
AcDbEntity
  8
61
100
AcDbCircle
 10
239.221991
 20
273.398794
 30
0.0
 40
2.0
  0
ARC
  5
2DF
100
AcDbEntity
  8
61
100
AcDbCircle
 10
228.471991
 20
273.398794
 30
0.0
 40
4.0
100
AcDbArc
 50
76.044262
 51
14.504019
  0
CIRCLE
  5
2E0
100
AcDbEntity
  8
61
100
AcDbCircle
 10
228.471991
 20
273.398794
 30
0.0
 40
2.25
  0
CIRCLE
  5
2E1
100
AcDbEntity
  8
61
100
AcDbCircle
 10
228.471991
 20
273.398794
 30
0.0
 40
2.0
  0
CIRCLE
  5
2E8
100
AcDbEntity
  8
62
100
AcDbCircle
 10
453.471991
 20
144.398794
 30
0.0
 40
2.25
  0
CIRCLE
  5
2E9
100
AcDbEntity
  8
51
100
AcDbCircle
 10
-27.027353
 20
144.224708
 30
0.0
 40
2.25
  0
CIRCLE
  5
2EA
100
AcDbEntity
  8
51
100
AcDbCircle
 10
-27.027353
 20
274.224708
 30
0.0
 40
2.25
  0
CIRCLE
  5
2EB
100
AcDbEntity
  8
51
100
AcDbCircle
 10
-265.027353
 20
144.224708
 30
0.0
 40
2.25
  0
CIRCLE
  5
2EC
100
AcDbEntity
  8
51
100
AcDbCircle
 10
-265.027353
 20
274.224708
 30
0.0
 40
2.25
  0
LINE
  5
2ED
100
AcDbEntity
  8
62
100
AcDbLine
 10
456.289444
 20
152.551936
 30
0.0
 11
456.289444
 21
266.245652
 31
0.0
  0
ARC
  5
2EE
100
AcDbEntity
  8
62
100
AcDbCircle
 10
453.771991
 20
152.551936
 30
0.0
 40
2.517454
100
AcDbArc
 50
270.0
 51
0.0
  0
ARC
  5
2EF
100
AcDbEntity
  8
62
100
AcDbCircle
 10
453.771991
 20
266.245652
 30
0.0
 40
2.517454
100
AcDbArc
 50
0.0
 51
90.0
  0
LINE
  5
2F0
100
AcDbEntity
  8
62
100
AcDbLine
 10
342.438901
 20
132.58134
 30
0.0
 11
445.318849
 21
132.58134
 31
0.0
  0
ARC
  5
2F1
100
AcDbEntity
  8
62
100
AcDbCircle
 10
445.318849
 20
135.098794
 30
0.0
 40
2.517454
100
AcDbArc
 50
270.0
 51
0.0
  0
ARC
  5
2F2
100
AcDbEntity
  8
62
100
AcDbCircle
 10
342.438901
 20
135.098794
 30
0.0
 40
2.517454
100
AcDbArc
 50
180.0
 51
270.0
  0
ARC
  5
2F3
100
AcDbEntity
  8
62
100
AcDbCircle
 10
445.318849
 20
283.698794
 30
0.0
 40
2.517454
100
AcDbArc
 50
360.0
 51
90.0
  0
LINE
  5
2F4
100
AcDbEntity
  8
62
100
AcDbLine
 10
342.438901
 20
286.216248
 30
0.0
 11
445.318849
 21
286.216248
 31
0.0
  0
ARC
  5
2F5
100
AcDbEntity
  8
62
100
AcDbCircle
 10
342.438901
 20
283.698794
 30
0.0
 40
2.517454
100
AcDbArc
 50
90.0
 51
180.0
  0
ARC
  5
2F6
100
AcDbEntity
  8
62
100
AcDbCircle
 10
326.50508
 20
135.098794
 30
0.0
 40
2.517454
100
AcDbArc
 50
270.0
 51
0.0
  0
LINE
  5
2F7
100
AcDbEntity
  8
62
100
AcDbLine
 10
223.625132
 20
132.58134
 30
0.0
 11
326.50508
 21
132.58134
 31
0.0
  0
ARC
  5
2F8
100
AcDbEntity
  8
62
100
AcDbCircle
 10
223.625132
 20
135.098794
 30
0.0
 40
2.517454
100
AcDbArc
 50
180.0
 51
270.0
  0
ARC
  5
2F9
100
AcDbEntity
  8
62
100
AcDbCircle
 10
326.50508
 20
283.698794
 30
0.0
 40
2.517454
100
AcDbArc
 50
0.0
 51
90.0
  0
LINE
  5
2FA
100
AcDbEntity
  8
62
100
AcDbLine
 10
223.625132
 20
286.216248
 30
0.0
 11
326.50508
 21
286.216248
 31
0.0
  0
ARC
  5
2FB
100
AcDbEntity
  8
62
100
AcDbCircle
 10
223.625132
 20
283.698794
 30
0.0
 40
2.517454
100
AcDbArc
 50
90.0
 51
180.0
  0
ARC
  5
2FC
100
AcDbEntity
  8
62
100
AcDbCircle
 10
215.171991
 20
152.551936
 30
0.0
 40
2.517454
100
AcDbArc
 50
180.0
 51
270.0
  0
LINE
  5
2FD
100
AcDbEntity
  8
62
100
AcDbLine
 10
212.654537
 20
152.551936
 30
0.0
 11
212.654537
 21
266.245652
 31
0.0
  0
ARC
  5
2FE
100
AcDbEntity
  8
62
100
AcDbCircle
 10
215.171991
 20
266.245652
 30
0.0
 40
2.517454
100
AcDbArc
 50
90.0
 51
180.0
  0
CIRCLE
  5
2FF
100
AcDbEntity
  8
62
100
AcDbCircle
 10
453.471991
 20
135.398794
 30
0.0
 40
3.0
  0
CIRCLE
  5
300
100
AcDbEntity
  8
62
100
AcDbCircle
 10
453.471991
 20
283.398794
 30
0.0
 40
3.0
  0
CIRCLE
  5
301
100
AcDbEntity
  8
62
100
AcDbCircle
 10
215.471991
 20
135.398794
 30
0.0
 40
3.0
  0
CIRCLE
  5
302
100
AcDbEntity
  8
62
100
AcDbCircle
 10
215.471991
 20
283.398794
 30
0.0
 40
3.0
  0
ARC
  5
303
100
AcDbEntity
  8
11
100
AcDbCircle
 10
220.529516
 20
-7.501538
 30
0.0
 40
0.3
100
AcDbArc
 50
189.999596
 51
270.000267
  0
LINE
  5
304
100
AcDbEntity
  8
11
100
AcDbLine
 10
219.925132
 20
-5.801538
 30
0.0
 11
220.234074
 21
-7.55363
 31
0.0
  0
LINE
  5
305
100
AcDbEntity
  8
13
100
AcDbLine
 10
334.471991
 20
-11.542947
 30
0.0
 11
334.471991
 21
69.198462
 31
0.0
  0
LINE
  5
306
100
AcDbEntity
  8
11
100
AcDbLine
 10
338.738901
 20
-5.801538
 30
0.0
 11
339.047842
 21
-7.55363
 31
0.0
  0
ARC
  5
307
100
AcDbEntity
  8
11
100
AcDbCircle
 10
339.343285
 20
-7.501538
 30
0.0
 40
0.3
100
AcDbArc
 50
189.999596
 51
270.000267
  0
ARC
  5
308
100
AcDbEntity
  8
11
100
AcDbCircle
 10
329.600696
 20
-7.501538
 30
0.0
 40
0.3
100
AcDbArc
 50
269.999733
 51
350.000404
  0
LINE
  5
309
100
AcDbEntity
  8
11
100
AcDbLine
 10
330.20508
 20
-5.801538
 30
0.0
 11
329.896139
 21
-7.55363
 31
0.0
  0
LINE
  5
30A
100
AcDbEntity
  8
11
100
AcDbLine
 10
459.471991
 20
-5.801538
 30
0.0
 11
458.86976
 21
68.207189
 31
0.0
  0
LINE
  5
30B
100
AcDbEntity
  8
11
100
AcDbLine
 10
209.471991
 20
-5.801538
 30
0.0
 11
459.471991
 21
-5.801538
 31
0.0
  0
LINE
  5
30C
100
AcDbEntity
  8
11
100
AcDbLine
 10
457.671991
 20
-5.801538
 30
0.0
 11
457.37762
 21
-7.470997
 31
0.0
  0
ARC
  5
30D
100
AcDbEntity
  8
11
100
AcDbCircle
 10
456.983697
 20
-7.401538
 30
0.0
 40
0.4
100
AcDbArc
 50
270.0
 51
350.0
  0
ARC
  5
30E
100
AcDbEntity
  8
11
100
AcDbCircle
 10
211.960284
 20
-7.401538
 30
0.0
 40
0.4
100
AcDbArc
 50
190.0
 51
270.0
  0
LINE
  5
30F
100
AcDbEntity
  8
11
100
AcDbLine
 10
211.271991
 20
-5.801538
 30
0.0
 11
211.566361
 21
-7.470997
 31
0.0
  0
LINE
  5
310
100
AcDbEntity
  8
11
100
AcDbLine
 10
456.983697
 20
-7.801538
 30
0.0
 11
211.960284
 21
-7.801538
 31
0.0
  0
LINE
  5
311
100
AcDbEntity
  8
11
100
AcDbLine
 10
209.471991
 20
-5.801538
 30
0.0
 11
210.074221
 21
68.207189
 31
0.0
  0
LINE
  5
312
100
AcDbEntity
  8
11
100
AcDbLine
 10
457.869799
 20
69.198462
 30
0.0
 11
211.074182
 21
69.198462
 31
0.0
  0
ARC
  5
313
100
AcDbEntity
  8
11
100
AcDbCircle
 10
211.074182
 20
68.198462
 30
0.0
 40
1.0
100
AcDbArc
 50
90.0
 51
179.5
  0
ARC
  5
314
100
AcDbEntity
  8
11
100
AcDbCircle
 10
457.869799
 20
68.198462
 30
0.0
 40
1.0
100
AcDbArc
 50
0.5
 51
90.0
  0
LINE
  5
315
100
AcDbEntity
  8
11
100
AcDbLine
 10
449.018849
 20
-5.801538
 30
0.0
 11
448.709907
 21
-7.55363
 31
0.0
  0
ARC
  5
316
100
AcDbEntity
  8
11
100
AcDbCircle
 10
448.414465
 20
-7.501538
 30
0.0
 40
0.3
100
AcDbArc
 50
269.999733
 51
350.000404
  0
LINE
  5
317
100
AcDbEntity
  8
13
  6
DASHED
100
AcDbLine
 10
328.46155
 20
65.202826
 30
0.0
 11
329.022534
 21
-3.805901
 31
0.0
  0
LINE
  5
318
100
AcDbEntity
  8
13
  6
DASHED
100
AcDbLine
 10
340.482431
 20
65.202826
 30
0.0
 11
339.921447
 21
-3.805901
 31
0.0
  0
LINE
  5
319
100
AcDbEntity
  8
13
  6
DASHED
100
AcDbLine
 10
221.701144
 20
65.202826
 30
0.0
 11
221.107679
 21
-7.801538
 31
0.0
  0
LINE
  5
31A
100
AcDbEntity
  8
13
  6
DASHED
100
AcDbLine
 10
447.242837
 20
65.202826
 30
0.0
 11
447.820044
 21
-5.801538
 31
0.0
  0
LINE
  5
31B
100
AcDbEntity
  8
13
  6
DASHED
100
AcDbLine
 10
221.701144
 20
65.202826
 30
0.0
 11
328.46155
 21
65.202826
 31
0.0
  0
LINE
  5
31C
100
AcDbEntity
  8
13
  6
DASHED
100
AcDbLine
 10
340.482431
 20
65.202826
 30
0.0
 11
447.242837
 21
65.202826
 31
0.0
  0
LINE
  5
31D
100
AcDbEntity
  8
31
100
AcDbLine
 10
617.551305
 20
131.01316
 30
0.0
 11
617.551305
 21
209.398794
 31
0.0
  0
LINE
  5
31E
100
AcDbEntity
  8
31
100
AcDbLine
 10
617.551305
 20
287.784428
 30
0.0
 11
617.551305
 21
209.398794
 31
0.0
  0
LINE
  5
31F
100
AcDbEntity
  8
33
  6
DASHED
100
AcDbLine
 10
546.051305
 20
268.168296
 30
0.0
 11
617.551305
 21
268.746921
 31
0.0
  0
LINE
  5
320
100
AcDbEntity
  8
33
  6
DASHED
100
AcDbLine
 10
546.051305
 20
268.168296
 30
0.0
 11
546.051305
 21
209.398794
 31
0.0
  0
LINE
  5
321
100
AcDbEntity
  8
53
100
AcDbLine
 10
-146.027353
 20
126.224708
 30
0.0
 11
-146.027353
 21
292.224708
 31
0.0
  0
LINE
  5
322
100
AcDbEntity
  8
53
100
AcDbLine
 10
-18.027353
 20
209.224708
 30
0.0
 11
-274.027353
 21
209.224708
 31
0.0
  0
LINE
  5
323
100
AcDbEntity
  8
63
100
AcDbLine
 10
462.471991
 20
209.398794
 30
0.0
 11
206.471991
 21
209.398794
 31
0.0
  0
LINE
  5
324
100
AcDbEntity
  8
63
100
AcDbLine
 10
334.471991
 20
292.398794
 30
0.0
 11
334.471991
 21
126.398794
 31
0.0
  0
LINE
  5
325
100
AcDbEntity
  8
23
  6
DASHED
100
AcDbLine
 10
221.701144
 20
353.594762
 30
0.0
 11
328.46155
 21
353.594762
 31
0.0
  0
LINE
  5
326
100
AcDbEntity
  8
21
100
AcDbLine
 10
457.869799
 20
349.599126
 30
0.0
 11
211.074182
 21
349.599126
 31
0.0
  0
LINE
  5
327
100
AcDbEntity
  8
21
100
AcDbLine
 10
456.983697
 20
426.599126
 30
0.0
 11
211.960284
 21
426.599126
 31
0.0
  0
LINE
  5
328
100
AcDbEntity
  8
21
100
AcDbLine
 10
209.471991
 20
424.599126
 30
0.0
 11
459.471991
 21
424.599126
 31
0.0
  0
LINE
  5
329
100
AcDbEntity
  8
23
  6
DASHED
100
AcDbLine
 10
221.701144
 20
353.594762
 30
0.0
 11
221.107679
 21
426.599126
 31
0.0
  0
LINE
  5
32A
100
AcDbEntity
  8
21
100
AcDbLine
 10
209.471991
 20
424.599126
 30
0.0
 11
210.074221
 21
350.590399
 31
0.0
  0
ARC
  5
32B
100
AcDbEntity
  8
21
100
AcDbCircle
 10
211.960284
 20
426.199126
 30
0.0
 40
0.4
100
AcDbArc
 50
90.0
 51
170.0
  0
ARC
  5
32C
100
AcDbEntity
  8
21
100
AcDbCircle
 10
220.529516
 20
426.299126
 30
0.0
 40
0.3
100
AcDbArc
 50
89.999733
 51
170.000404
  0
LINE
  5
32D
100
AcDbEntity
  8
21
100
AcDbLine
 10
211.271991
 20
424.599126
 30
0.0
 11
211.566361
 21
426.268585
 31
0.0
  0
LINE
  5
32E
100
AcDbEntity
  8
21
100
AcDbLine
 10
219.925132
 20
424.599126
 30
0.0
 11
220.234074
 21
426.351218
 31
0.0
  0
ARC
  5
32F
100
AcDbEntity
  8
21
100
AcDbCircle
 10
211.074182
 20
350.599126
 30
0.0
 40
1.0
100
AcDbArc
 50
180.5
 51
270.0
  0
LINE
  5
330
100
AcDbEntity
  8
23
  6
DASHED
100
AcDbLine
 10
340.482431
 20
353.594762
 30
0.0
 11
447.242837
 21
353.594762
 31
0.0
  0
LINE
  5
331
100
AcDbEntity
  8
23
100
AcDbLine
 10
334.471991
 20
430.340535
 30
0.0
 11
334.471991
 21
349.599126
 31
0.0
  0
LINE
  5
332
100
AcDbEntity
  8
23
  6
DASHED
100
AcDbLine
 10
328.46155
 20
353.594762
 30
0.0
 11
329.022534
 21
422.603489
 31
0.0
  0
LINE
  5
333
100
AcDbEntity
  8
23
  6
DASHED
100
AcDbLine
 10
340.482431
 20
353.594762
 30
0.0
 11
339.921447
 21
422.603489
 31
0.0
  0
ARC
  5
334
100
AcDbEntity
  8
21
100
AcDbCircle
 10
329.600696
 20
426.299126
 30
0.0
 40
0.3
100
AcDbArc
 50
9.999596
 51
90.000267
  0
LINE
  5
335
100
AcDbEntity
  8
21
100
AcDbLine
 10
330.20508
 20
424.599126
 30
0.0
 11
329.896139
 21
426.351218
 31
0.0
  0
ARC
  5
336
100
AcDbEntity
  8
21
100
AcDbCircle
 10
339.343285
 20
426.299126
 30
0.0
 40
0.3
100
AcDbArc
 50
89.999733
 51
170.000404
  0
LINE
  5
337
100
AcDbEntity
  8
21
100
AcDbLine
 10
338.738901
 20
424.599126
 30
0.0
 11
339.047842
 21
426.351218
 31
0.0
  0
LINE
  5
338
100
AcDbEntity
  8
23
  6
DASHED
100
AcDbLine
 10
447.242837
 20
353.594762
 30
0.0
 11
447.820044
 21
424.599126
 31
0.0
  0
LINE
  5
339
100
AcDbEntity
  8
21
100
AcDbLine
 10
459.471991
 20
424.599126
 30
0.0
 11
458.86976
 21
350.590399
 31
0.0
  0
LINE
  5
33A
100
AcDbEntity
  8
21
100
AcDbLine
 10
457.671991
 20
424.599126
 30
0.0
 11
457.37762
 21
426.268585
 31
0.0
  0
ARC
  5
33B
100
AcDbEntity
  8
21
100
AcDbCircle
 10
456.983697
 20
426.199126
 30
0.0
 40
0.4
100
AcDbArc
 50
10.0
 51
90.0
  0
ARC
  5
33C
100
AcDbEntity
  8
21
100
AcDbCircle
 10
448.414465
 20
426.299126
 30
0.0
 40
0.3
100
AcDbArc
 50
9.999596
 51
90.000267
  0
LINE
  5
33D
100
AcDbEntity
  8
21
100
AcDbLine
 10
449.018849
 20
424.599126
 30
0.0
 11
448.709907
 21
426.351218
 31
0.0
  0
ARC
  5
33E
100
AcDbEntity
  8
21
100
AcDbCircle
 10
457.869799
 20
350.599126
 30
0.0
 40
1.0
100
AcDbArc
 50
270.0
 51
359.5
  0
LINE
  5
33F
100
AcDbEntity
  8
43
  6
DASHED
100
AcDbLine
 10
122.892676
 20
150.629292
 30
0.0
 11
51.392676
 21
150.050667
 31
0.0
  0
LINE
  5
340
100
AcDbEntity
  8
43
  6
DASHED
100
AcDbLine
 10
122.892676
 20
268.168296
 30
0.0
 11
51.392676
 21
268.746921
 31
0.0
  0
LINE
  5
341
100
AcDbEntity
  8
41
100
AcDbLine
 10
51.392676
 20
289.398794
 30
0.0
 11
125.401403
 21
288.796564
 31
0.0
  0
LINE
  5
342
100
AcDbEntity
  8
41
100
AcDbLine
 10
51.392676
 20
129.398794
 30
0.0
 11
125.401403
 21
130.001024
 31
0.0
  0
LINE
  5
343
100
AcDbEntity
  8
41
100
AcDbLine
 10
126.392676
 20
131.000986
 30
0.0
 11
126.392676
 21
287.796602
 31
0.0
  0
LINE
  5
344
100
AcDbEntity
  8
43
  6
DASHED
100
AcDbLine
 10
122.892676
 20
150.629292
 30
0.0
 11
122.892676
 21
209.398794
 31
0.0
  0
ARC
  5
345
100
AcDbEntity
  8
41
100
AcDbCircle
 10
125.392676
 20
131.000986
 30
0.0
 40
1.0
100
AcDbArc
 50
270.5
 51
0.0
  0
LINE
  5
346
100
AcDbEntity
  8
43
  6
DASHED
100
AcDbLine
 10
122.892676
 20
268.168296
 30
0.0
 11
122.892676
 21
209.398794
 31
0.0
  0
ARC
  5
347
100
AcDbEntity
  8
41
100
AcDbCircle
 10
125.392676
 20
287.796602
 30
0.0
 40
1.0
100
AcDbArc
 50
0.0
 51
89.5
  0
LINE
  5
348
100
AcDbEntity
  8
41
100
AcDbLine
 10
49.392676
 20
131.701454
 30
0.0
 11
49.392676
 21
286.9105
 31
0.0
  0
LINE
  5
349
100
AcDbEntity
  8
41
100
AcDbLine
 10
51.392676
 20
287.784428
 30
0.0
 11
51.392676
 21
209.398794
 31
0.0
  0
LINE
  5
34A
100
AcDbEntity
  8
41
100
AcDbLine
 10
51.392676
 20
131.01316
 30
0.0
 11
51.392676
 21
209.398794
 31
0.0
  0
LINE
  5
34B
100
AcDbEntity
  8
41
100
AcDbLine
 10
51.392676
 20
131.01316
 30
0.0
 11
51.392676
 21
129.398794
 31
0.0
  0
ARC
  5
34C
100
AcDbEntity
  8
41
100
AcDbCircle
 10
49.792676
 20
131.701454
 30
0.0
 40
0.4
100
AcDbArc
 50
180.0
 51
260.0
  0
LINE
  5
34D
100
AcDbEntity
  8
41
100
AcDbLine
 10
51.392676
 20
131.01316
 30
0.0
 11
49.723217
 21
131.307531
 31
0.0
  0
ARC
  5
34E
100
AcDbEntity
  8
41
100
AcDbCircle
 10
49.792676
 20
286.9105
 30
0.0
 40
0.4
100
AcDbArc
 50
100.0
 51
180.0
  0
LINE
  5
34F
100
AcDbEntity
  8
41
100
AcDbLine
 10
51.392676
 20
287.598794
 30
0.0
 11
51.392676
 21
289.398794
 31
0.0
  0
LINE
  5
350
100
AcDbEntity
  8
41
100
AcDbLine
 10
51.392676
 20
287.598794
 30
0.0
 11
49.723217
 21
287.304423
 31
0.0
  0
LINE
  5
351
100
AcDbEntity
  8
43
100
AcDbLine
 10
46.392679
 20
209.302361
 30
0.0
 11
129.392674
 21
209.40241
 31
0.0
  0
LINE
  5
352
100
AcDbEntity
  8
33
100
AcDbLine
 10
539.551307
 20
209.40241
 30
0.0
 11
622.551302
 21
209.302361
 31
0.0
  0
TEXT
  5
353
100
AcDbEntity
  8
L20
100
AcDbText
 10
-243.667177
 20
325.694487
 30
0.0
 40
15.248541
  1
FIBOX EURONORM II PLASTIC 160x250x75 BASE
  7
TKKISO
100
AcDbText
  0
LINE
  5
355
100
AcDbEntity
  8
43
100
AcDbLine
 10
118.192676
 20
205.398794
 30
0.0
 11
122.401403
 21
205.32533
 31
0.0
  0
LINE
  5
356
100
AcDbEntity
  8
43
100
AcDbLine
 10
118.192676
 20
205.398794
 30
0.0
 11
118.192676
 21
213.398794
 31
0.0
  0
LINE
  5
357
100
AcDbEntity
  8
43
100
AcDbLine
 10
118.192676
 20
213.398794
 30
0.0
 11
122.401403
 21
213.472258
 31
0.0
  0
ARC
  5
358
100
AcDbEntity
  8
43
100
AcDbCircle
 10
122.392676
 20
213.972181
 30
0.0
 40
0.5
100
AcDbArc
 50
271.0
 51
0.0
  0
ARC
  5
359
100
AcDbEntity
  8
43
100
AcDbCircle
 10
122.392676
 20
204.825407
 30
0.0
 40
0.5
100
AcDbArc
 50
0.0
 51
89.0
  0
ARC
  5
35A
100
AcDbEntity
  8
34
100
AcDbCircle
 10
546.551305
 20
204.825407
 30
0.0
 40
0.5
100
AcDbArc
 50
91.0
 51
180.0
  0
ARC
  5
35B
100
AcDbEntity
  8
34
100
AcDbCircle
 10
546.551305
 20
213.972181
 30
0.0
 40
0.5
100
AcDbArc
 50
180.0
 51
269.0
  0
LINE
  5
35C
100
AcDbEntity
  8
34
100
AcDbLine
 10
550.751305
 20
205.398794
 30
0.0
 11
546.542578
 21
205.32533
 31
0.0
  0
LINE
  5
35D
100
AcDbEntity
  8
34
100
AcDbLine
 10
550.751305
 20
205.398794
 30
0.0
 11
550.751305
 21
213.398794
 31
0.0
  0
LINE
  5
35E
100
AcDbEntity
  8
34
100
AcDbLine
 10
550.751305
 20
213.398794
 30
0.0
 11
546.542578
 21
213.472258
 31
0.0
  0
ARC
  5
35F
100
AcDbEntity
  8
24
100
AcDbCircle
 10
292.902822
 20
354.094762
 30
0.0
 40
0.5
100
AcDbArc
 50
270.0
 51
359.0
  0
ARC
  5
360
100
AcDbEntity
  8
24
100
AcDbCircle
 10
302.049597
 20
354.094762
 30
0.0
 40
0.5
100
AcDbArc
 50
181.0
 51
270.0
  0
LINE
  5
361
100
AcDbEntity
  8
24
100
AcDbLine
 10
293.476209
 20
358.294762
 30
0.0
 11
293.402746
 21
354.086036
 31
0.0
  0
LINE
  5
362
100
AcDbEntity
  8
24
100
AcDbLine
 10
293.476209
 20
358.294762
 30
0.0
 11
301.476209
 21
358.294762
 31
0.0
  0
LINE
  5
363
100
AcDbEntity
  8
24
100
AcDbLine
 10
301.476209
 20
358.294762
 30
0.0
 11
301.549673
 21
354.086036
 31
0.0
  0
LINE
  5
364
100
AcDbEntity
  8
14
100
AcDbLine
 10
293.476209
 20
60.502826
 30
0.0
 11
293.402746
 21
64.711552
 31
0.0
  0
LINE
  5
365
100
AcDbEntity
  8
14
100
AcDbLine
 10
301.476209
 20
60.502826
 30
0.0
 11
301.549673
 21
64.711552
 31
0.0
  0
ARC
  5
366
100
AcDbEntity
  8
14
100
AcDbCircle
 10
292.902822
 20
64.702826
 30
0.0
 40
0.5
100
AcDbArc
 50
1.0
 51
90.0
  0
ARC
  5
367
100
AcDbEntity
  8
14
100
AcDbCircle
 10
302.049597
 20
64.702826
 30
0.0
 40
0.5
100
AcDbArc
 50
90.0
 51
179.0
  0
LINE
  5
368
100
AcDbEntity
  8
14
100
AcDbLine
 10
293.476209
 20
60.502826
 30
0.0
 11
301.476209
 21
60.502826
 31
0.0
  0
ENDSEC
  0
SECTION
  2
OBJECTS
  0
DICTIONARY
  5
C
100
AcDbDictionary
  3
ACAD_GROUP
350
D
  3
ACAD_MLINESTYLE
350
1A
  0
DICTIONARY
  5
D
102
{ACAD_REACTORS
330
C
102
}
100
AcDbDictionary
  0
DICTIONARY
  5
1A
102
{ACAD_REACTORS
330
C
102
}
100
AcDbDictionary
  3
STANDARD
350
1B
  0
MLINESTYLE
  5
1B
102
{ACAD_REACTORS
330
1A
102
}
100
AcDbMlineStyle
  2
STANDARD
 70
     0
  3

 62
   256
 51
90.0
 52
90.0
 71
     2
 49
0.5
 62
   256
  6
BYLAYER
 49
-0.5
 62
   256
  6
BYLAYER
  0
ENDSEC
  0
EOF
