  0
SECTION
  2
HEADER
  9
$ACADVER
  1
AC1009
  9
$INSBASE
 10
0.0
 20
0.0
 30
0.0
  9
$EXTMIN
 10
496.378922
 20
97.587489
 30
0.0
  9
$EXTMAX
 10
1285.782541
 20
501.725273
 30
0.0
  9
$LIMMIN
 10
0.0
 20
0.0
  9
$LIMMAX
 10
420.0
 20
297.0
  9
$ORTHOMODE
 70
     0
  9
$REGENMODE
 70
     1
  9
$FILLMODE
 70
     1
  9
$QTEXTMODE
 70
     0
  9
$MIRRTEXT
 70
     1
  9
$DRAGMODE
 70
     2
  9
$LTSCALE
 40
7.0
  9
$OSMODE
 70
     0
  9
$ATTMODE
 70
     1
  9
$TEXTSIZE
 40
3.5
  9
$TRACEWID
 40
0.05
  9
$TEXTSTYLE
  7
STANDARD
  9
$CLAYER
  8
L1
  9
$CELTYPE
  6
BYLAYER
  9
$CECOLOR
 62
   256
  9
$DIMSCALE
 40
1.0
  9
$DIMASZ
 40
3.5
  9
$DIMEXO
 40
0.0
  9
$DIMDLI
 40
10.0
  9
$DIMRND
 40
0.0
  9
$DIMDLE
 40
0.0
  9
$DIMEXE
 40
2.0
  9
$DIMTP
 40
0.0
  9
$DIMTM
 40
0.0
  9
$DIMTXT
 40
3.5
  9
$DIMCEN
 40
2.5
  9
$DIMTSZ
 40
0.0
  9
$DIMTOL
 70
     0
  9
$DIMLIM
 70
     0
  9
$DIMTIH
 70
     0
  9
$DIMTOH
 70
     0
  9
$DIMSE1
 70
     0
  9
$DIMSE2
 70
     0
  9
$DIMTAD
 70
     1
  9
$DIMZIN
 70
     8
  9
$DIMBLK
  1

  9
$DIMASO
 70
     1
  9
$DIMSHO
 70
     1
  9
$DIMPOST
  1

  9
$DIMAPOST
  1

  9
$DIMALT
 70
     0
  9
$DIMALTD
 70
     2
  9
$DIMALTF
 40
25.4
  9
$DIMLFAC
 40
1.0
  9
$DIMTOFL
 70
     1
  9
$DIMTVP
 40
0.0
  9
$DIMTIX
 70
     0
  9
$DIMSOXD
 70
     0
  9
$DIMSAH
 70
     0
  9
$DIMBLK1
  1

  9
$DIMBLK2
  1

  9
$DIMSTYLE
  2
*UNNAMED
  9
$DIMCLRD
 70
   256
  9
$DIMCLRE
 70
   256
  9
$DIMCLRT
 70
     3
  9
$DIMTFAC
 40
1.0
  9
$DIMGAP
 40
2.0
  9
$LUNITS
 70
     2
  9
$LUPREC
 70
     2
  9
$SKETCHINC
 40
1.0
  9
$FILLETRAD
 40
0.0
  9
$AUNITS
 70
     0
  9
$AUPREC
 70
     2
  9
$MENU
  1
CAESAR
  9
$ELEVATION
 40
0.0
  9
$PELEVATION
 40
0.0
  9
$THICKNESS
 40
0.0
  9
$LIMCHECK
 70
     0
  9
$BLIPMODE
 70
     1
  9
$CHAMFERA
 40
5.0
  9
$CHAMFERB
 40
5.0
  9
$SKPOLY
 70
     0
  9
$TDCREATE
 40
2449682.489977314
  9
$TDUPDATE
 40
2449682.489977314
  9
$TDINDWG
 40
0.0000000000
  9
$TDUSRTIMER
 40
0.0000000000
  9
$USRTIMER
 70
     1
  9
$ANGBASE
 50
0.0
  9
$ANGDIR
 70
     0
  9
$PDMODE
 70
     0
  9
$PDSIZE
 40
0.0
  9
$PLINEWID
 40
0.0
  9
$COORDS
 70
     2
  9
$SPLFRAME
 70
     0
  9
$SPLINETYPE
 70
     6
  9
$SPLINESEGS
 70
     8
  9
$ATTDIA
 70
     0
  9
$ATTREQ
 70
     1
  9
$HANDLING
 70
     1
  9
$HANDSEED
  5
2631
  9
$SURFTAB1
 70
     6
  9
$SURFTAB2
 70
     6
  9
$SURFTYPE
 70
     6
  9
$SURFU
 70
     6
  9
$SURFV
 70
     6
  9
$UCSNAME
  2

  9
$UCSORG
 10
0.0
 20
0.0
 30
0.0
  9
$UCSXDIR
 10
1.0
 20
0.0
 30
0.0
  9
$UCSYDIR
 10
0.0
 20
1.0
 30
0.0
  9
$PUCSNAME
  2

  9
$PUCSORG
 10
0.0
 20
0.0
 30
0.0
  9
$PUCSXDIR
 10
1.0
 20
0.0
 30
0.0
  9
$PUCSYDIR
 10
0.0
 20
1.0
 30
0.0
  9
$USERI1
 70
     0
  9
$USERI2
 70
     0
  9
$USERI3
 70
     0
  9
$USERI4
 70
     0
  9
$USERI5
 70
     0
  9
$USERR1
 40
1.0
  9
$USERR2
 40
0.0
  9
$USERR3
 40
3.5
  9
$USERR4
 40
0.0
  9
$USERR5
 40
0.0
  9
$WORLDVIEW
 70
     1
  9
$SHADEDGE
 70
     3
  9
$SHADEDIF
 70
    70
  9
$TILEMODE
 70
     1
  9
$MAXACTVP
 70
    16
  9
$PINSBASE
 10
0.0
 20
0.0
 30
0.0
  9
$PLIMCHECK
 70
     0
  9
$PEXTMIN
 10
1.000000E+20
 20
1.000000E+20
 30
1.000000E+20
  9
$PEXTMAX
 10
-1.000000E+20
 20
-1.000000E+20
 30
-1.000000E+20
  9
$PLIMMIN
 10
0.0
 20
0.0
  9
$PLIMMAX
 10
420.0
 20
297.0
  9
$UNITMODE
 70
     0
  9
$VISRETAIN
 70
     0
  9
$PLINEGEN
 70
     0
  9
$PSLTSCALE
 70
     0
  9
$TREEDEPTH
 70
  3020
  9
$DWGCODEPAGE
  3
dos850
  0
ENDSEC
  0
SECTION
  2
TABLES
  0
TABLE
  2
VPORT
 70
     2
  0
VPORT
  2
*ACTIVE
 70
     0
 10
0.0
 20
0.0
 11
1.0
 21
1.0
 12
287.564723
 22
225.231556
 13
0.0
 23
0.0
 14
1.0
 24
1.0
 15
10.0
 25
10.0
 16
0.0
 26
0.0
 36
1.0
 17
0.0
 27
0.0
 37
0.0
 40
456.463112
 41
1.273114
 42
50.0
 43
0.0
 44
0.0
 50
0.0
 51
0.0
 71
     0
 72
  1000
 73
     1
 74
     1
 75
     1
 76
     0
 77
     0
 78
     0
  0
ENDTAB
  0
TABLE
  2
LTYPE
 70
    10
  0
LTYPE
  2
CONTINUOUS
 70
    64
  3
Solid line
 72
    65
 73
     0
 40
0.0
  0
LTYPE
  2
BORDER
 70
     0
  3
__ __ . __ __ . __ __ . __ __ . __ __ . __ __ .
 72
    65
 73
     6
 40
1.75
 49
0.5
 49
-0.25
 49
0.5
 49
-0.25
 49
0.0
 49
-0.25
  0
LTYPE
  2
CENTER
 70
    64
  3
____ _ ____ _ ____ _ ____ _ ____ _ ____ _ ____ 
 72
    65
 73
     4
 40
2.0
 49
1.25
 49
-0.25
 49
0.25
 49
-0.25
  0
LTYPE
  2
DASHDOT
 70
     0
  3
__ . __ . __ . __ . __ . __ . __ . __ . __ . __
 72
    65
 73
     4
 40
1.0
 49
0.5
 49
-0.25
 49
0.0
 49
-0.25
  0
LTYPE
  2
DASHED
 70
    64
  3
__ __ __ __ __ __ __ __ __ __ __ __ __ __ __ __
 72
    65
 73
     2
 40
0.75
 49
0.5
 49
-0.25
  0
LTYPE
  2
DIVIDE
 70
     0
  3
____ . . ____ . . ____ . . ____ . . ____ . . __
 72
    65
 73
     6
 40
1.25
 49
0.5
 49
-0.25
 49
0.0
 49
-0.25
 49
0.0
 49
-0.25
  0
LTYPE
  2
DOT
 70
     0
  3
. . . . . . . . . . . . . . . . . . . . . . . .
 72
    65
 73
     2
 40
0.25
 49
0.0
 49
-0.25
  0
LTYPE
  2
HIDDEN
 70
    64
  3
__ __ __ __ __ __ __ __ __ __ __ __ __ __ __ __
 72
    65
 73
     2
 40
0.375
 49
0.25
 49
-0.125
  0
LTYPE
  2
PHANTOM
 70
    64
  3
______  __  __  ______  __  __  ______  __  __ 
 72
    65
 73
     6
 40
2.5
 49
1.25
 49
-0.25
 49
0.25
 49
-0.25
 49
0.25
 49
-0.25
  0
LTYPE
  2
DOTX2
 70
    64
  3
.  .  .  .  .  .  .  .  .  .  .  .  .  .  .  . 
 72
    65
 73
     2
 40
0.5
 49
0.0
 49
-0.5
  0
ENDTAB
  0
TABLE
  2
LAYER
 70
    75
  0
LAYER
  2
0
 70
    64
 62
     7
  6
CONTINUOUS
  0
LAYER
  2
L1
 70
     0
 62
     3
  6
CONTINUOUS
  0
LAYER
  2
L2
 70
     0
 62
     1
  6
CONTINUOUS
  0
LAYER
  2
L3
 70
     0
 62
     7
  6
DASHED
  0
LAYER
  2
L4
 70
     0
 62
     1
  6
DASHED
  0
LAYER
  2
L5
 70
     0
 62
     6
  6
CENTER
  0
LAYER
  2
L6
 70
     0
 62
     1
  6
CENTER
  0
LAYER
  2
L7
 70
     0
 62
     1
  6
PHANTOM
  0
LAYER
  2
VPORT
 70
     0
 62
     7
  6
CONTINUOUS
  0
LAYER
  2
L8
 70
     0
 62
     1
  6
CONTINUOUS
  0
LAYER
  2
L20
 70
     0
 62
     3
  6
CONTINUOUS
  0
LAYER
  2
L21
 70
     0
 62
     1
  6
CONTINUOUS
  0
LAYER
  2
L22
 70
     0
 62
     1
  6
CONTINUOUS
  0
LAYER
  2
L23
 70
     0
 62
     1
  6
CONTINUOUS
  0
LAYER
  2
L30
 70
     0
 62
     3
  6
CONTINUOUS
  0
LAYER
  2
L31
 70
     0
 62
     1
  6
CONTINUOUS
  0
LAYER
  2
L32
 70
     0
 62
     3
  6
CONTINUOUS
  0
LAYER
  2
L33
 70
     0
 62
     1
  6
CONTINUOUS
  0
LAYER
  2
L34
 70
     0
 62
     3
  6
CONTINUOUS
  0
LAYER
  2
L35
 70
     0
 62
     1
  6
CONTINUOUS
  0
LAYER
  2
L40
 70
     0
 62
     7
  6
CONTINUOUS
  0
LAYER
  2
L41
 70
     0
 62
     1
  6
CONTINUOUS
  0
LAYER
  2
L42
 70
     0
 62
     1
  6
CONTINUOUS
  0
LAYER
  2
L43
 70
     0
 62
     7
  6
CONTINUOUS
  0
LAYER
  2
L44
 70
     0
 62
     1
  6
CONTINUOUS
  0
LAYER
  2
L45
 70
     0
 62
     1
  6
CONTINUOUS
  0
LAYER
  2
L46
 70
     0
 62
     3
  6
CONTINUOUS
  0
LAYER
  2
L50
 70
     0
 62
     7
  6
CONTINUOUS
  0
LAYER
  2
L51
 70
     0
 62
     1
  6
CONTINUOUS
  0
LAYER
  2
L52
 70
     0
 62
     7
  6
CONTINUOUS
  0
LAYER
  2
L53
 70
     0
 62
     1
  6
CONTINUOUS
  0
LAYER
  2
L54
 70
     0
 62
     3
  6
CONTINUOUS
  0
LAYER
  2
L55
 70
     0
 62
     3
  6
CONTINUOUS
  0
LAYER
  2
L56
 70
     0
 62
     3
  6
CONTINUOUS
  0
LAYER
  2
L57
 70
     0
 62
     1
  6
CONTINUOUS
  0
LAYER
  2
L9
 70
     0
 62
     7
  6
HIDDEN
  0
LAYER
  2
L15
 70
     0
 62
     2
  6
CONTINUOUS
  0
LAYER
  2
L16
 70
     0
 62
     5
  6
DOTX2
  0
LAYER
  2
L24
 70
     0
 62
     1
  6
CONTINUOUS
  0
LAYER
  2
DEFPOINTS
 70
     0
 62
    -7
  6
CONTINUOUS
  0
LAYER
  2
L38
 70
     0
 62
     1
  6
CENTER
  0
LAYER
  2
L37
 70
     0
 62
     1
  6
CONTINUOUS
  0
LAYER
  2
L36
 70
     0
 62
     7
  6
CONTINUOUS
  0
LAYER
  2
L54-1
 70
     0
 62
     3
  6
CONTINUOUS
  0
LAYER
  2
1
 70
     0
 62
     7
  6
CONTINUOUS
  0
LAYER
  2
11
 70
    64
 62
     7
  6
CONTINUOUS
  0
LAYER
  2
12
 70
     0
 62
     1
  6
CONTINUOUS
  0
LAYER
  2
13
 70
    64
 62
     1
  6
CENTER
  0
LAYER
  2
14
 70
     0
 62
     1
  6
DASHED
  0
LAYER
  2
15
 70
     0
 62
     2
  6
DASHED
  0
LAYER
  2
21
 70
    64
 62
     7
  6
CONTINUOUS
  0
LAYER
  2
22
 70
     0
 62
     1
  6
CONTINUOUS
  0
LAYER
  2
23
 70
    64
 62
     1
  6
CENTER
  0
LAYER
  2
24
 70
     0
 62
     1
  6
DASHED
  0
LAYER
  2
25
 70
     0
 62
     2
  6
DASHED
  0
LAYER
  2
31
 70
    64
 62
     7
  6
CONTINUOUS
  0
LAYER
  2
32
 70
     0
 62
     1
  6
CONTINUOUS
  0
LAYER
  2
33
 70
    64
 62
     1
  6
CENTER
  0
LAYER
  2
34
 70
     0
 62
     1
  6
DASHED
  0
LAYER
  2
35
 70
     0
 62
     2
  6
DASHED
  0
LAYER
  2
41
 70
    64
 62
     7
  6
CONTINUOUS
  0
LAYER
  2
42
 70
     0
 62
     1
  6
CONTINUOUS
  0
LAYER
  2
43
 70
    64
 62
     1
  6
CENTER
  0
LAYER
  2
44
 70
     0
 62
     1
  6
DASHED
  0
LAYER
  2
45
 70
     0
 62
     2
  6
DASHED
  0
LAYER
  2
51
 70
    64
 62
     7
  6
CONTINUOUS
  0
LAYER
  2
52
 70
    64
 62
     1
  6
CONTINUOUS
  0
LAYER
  2
53
 70
    64
 62
     1
  6
CENTER
  0
LAYER
  2
54
 70
     0
 62
     1
  6
DASHED
  0
LAYER
  2
55
 70
     0
 62
     2
  6
DASHED
  0
LAYER
  2
61
 70
    64
 62
     7
  6
CONTINUOUS
  0
LAYER
  2
62
 70
     0
 62
     1
  6
CONTINUOUS
  0
LAYER
  2
63
 70
    64
 62
     1
  6
CENTER
  0
LAYER
  2
64
 70
     0
 62
     1
  6
DASHED
  0
LAYER
  2
65
 70
     0
 62
     2
  6
DASHED
  0
ENDTAB
  0
TABLE
  2
STYLE
 70
    12
  0
STYLE
  2
STANDARD
 70
     0
 40
0.0
 41
1.0
 50
0.0
 71
     0
 42
3.5
  3
CAEISO
  4

  0
STYLE
  2
FISO
 70
     0
 40
0.0
 41
1.0
 50
0.0
 71
     0
 42
0.2
  3
FISO
  4

  0
STYLE
  2
ISO
 70
     0
 40
0.0
 41
1.0
 50
0.0
 71
     0
 42
3.5
  3
ISO
  4

  0
STYLE
  2
ROMANS
 70
     0
 40
0.0
 41
1.0
 50
0.0
 71
     0
 42
3.5
  3
ISO
  4

  0
STYLE
  2
SIMPLEX
 70
     0
 40
0.0
 41
1.0
 50
0.0
 71
     0
 42
2.0
  3
simplex
  4

  0
STYLE
  2
PIENI
 70
     0
 40
0.0
 41
1.0
 50
0.0
 71
     0
 42
3.0
  3
SIMPLEX
  4

  0
STYLE
  2
COMPLEX
 70
     0
 40
5.0
 41
1.0
 50
0.0
 71
     0
 42
5.0
  3
complex
  4

  0
STYLE
  2
TXT
 70
     0
 40
0.0
 41
1.0
 50
0.0
 71
     0
 42
0.2
  3
txt
  4

  0
STYLE
  2
USER
 70
     0
 40
0.0
 41
1.0
 50
0.0
 71
     0
 42
0.2
  3
KIRJAIN
  4

  0
STYLE
  2
ITALIC
 70
     0
 40
0.0
 41
1.0
 50
0.0
 71
     0
 42
0.2
  3
ITALIC
  4

  0
STYLE
  2
MONO
 70
     0
 40
0.0
 41
1.0
 50
0.0
 71
     0
 42
9.5
  3
monotxt
  4

  0
STYLE
  2
TKKISO
 70
    64
 40
0.0
 41
1.0
 50
0.0
 71
     0
 42
17.5
  3
caeiso
  4

  0
ENDTAB
  0
TABLE
  2
VIEW
 70
     0
  0
ENDTAB
  0
TABLE
  2
UCS
 70
     0
  0
ENDTAB
  0
TABLE
  2
APPID
 70
     1
  0
APPID
  2
ACAD
 70
    64
  0
ENDTAB
  0
TABLE
  2
DIMSTYLE
 70
     6
  0
DIMSTYLE
  2
ACADUS
 70
     0
  3

  4

  5

  6

  7

 40
1.0
 41
0.18
 42
0.0625
 43
0.38
 44
0.18
 45
0.0
 46
0.0
 47
0.0
 48
0.0
140
0.18
141
0.09
142
0.0
143
25.4
144
1.0
145
0.0
146
1.0
147
0.09
 71
     0
 72
     0
 73
     1
 74
     1
 75
     0
 76
     0
 77
     0
 78
     0
170
     0
171
     2
172
     0
173
     0
174
     0
175
     0
176
     0
177
     0
178
     0
  0
DIMSTYLE
  2
NORDIC
 70
     0
  3

  4

  5

  6

  7

 40
1.0
 41
3.5
 42
1.0
 43
10.0
 44
2.0
 45
0.0
 46
0.0
 47
0.0
 48
0.0
140
3.5
141
2.5
142
0.0
143
25.4
144
1.0
145
0.0
146
1.0
147
2.0
 71
     0
 72
     0
 73
     0
 74
     0
 75
     0
 76
     0
 77
     1
 78
     8
170
     0
171
     2
172
     1
173
     0
174
     0
175
     0
176
     0
177
     0
178
     0
  0
DIMSTYLE
  2
RADIAL
 70
     0
  3

  4

  5

  6

  7

 40
1.0
 41
3.5
 42
1.0
 43
10.0
 44
2.0
 45
0.0
 46
0.0
 47
0.0
 48
0.0
140
3.5
141
2.5
142
0.0
143
25.4
144
1.0
145
0.0
146
1.0
147
2.0
 71
     0
 72
     0
 73
     0
 74
     1
 75
     0
 76
     0
 77
     1
 78
     8
170
     0
171
     2
172
     0
173
     0
174
     0
175
     0
176
     0
177
     0
178
     0
  0
DIMSTYLE
  2
NORTOL
 70
     0
  3

  4

  5

  6

  7

 40
1.0
 41
3.5
 42
1.0
 43
10.0
 44
2.0
 45
0.0
 46
0.0
 47
0.2
 48
0.1
140
3.5
141
2.5
142
0.0
143
25.4
144
1.0
145
0.7
146
0.71
147
2.0
 71
     1
 72
     0
 73
     0
 74
     0
 75
     0
 76
     0
 77
     0
 78
     8
170
     0
171
     2
172
     1
173
     0
174
     0
175
     0
176
     0
177
     0
178
     0
  0
DIMSTYLE
  2
RADTOL
 70
     0
  3

  4

  5

  6

  7

 40
1.0
 41
3.5
 42
1.0
 43
10.0
 44
2.0
 45
0.0
 46
0.0
 47
0.2
 48
0.1
140
3.5
141
2.5
142
0.0
143
25.4
144
1.0
145
0.7
146
0.7
147
2.0
 71
     1
 72
     0
 73
     0
 74
     1
 75
     0
 76
     0
 77
     0
 78
     8
170
     0
171
     2
172
     0
173
     0
174
     0
175
     0
176
     0
177
     0
178
     0
  0
DIMSTYLE
  2
HANSU
 70
     0
  3

  4

  5

  6

  7

 40
1.0
 41
3.5
 42
0.0
 43
10.0
 44
2.0
 45
0.0
 46
0.0
 47
0.0
 48
0.0
140
3.5
141
2.5
142
0.0
143
25.4
144
0.8
145
0.0
146
1.0
147
2.0
 71
     0
 72
     0
 73
     0
 74
     0
 75
     0
 76
     0
 77
     1
 78
     8
170
     0
171
     2
172
     1
173
     0
174
     0
175
     0
176
   256
177
   256
178
     3
  0
ENDTAB
  0
ENDSEC
  0
SECTION
  2
BLOCKS
  0
BLOCK
  8
0
  5
2329
  2
AME_NIL
 70
     0
 10
0.0
 20
0.0
 30
0.0
  1
AME_NIL
  3
AME_NIL
  0
ENDBLK
  8
0
  5
232A
  0
BLOCK
  8
0
  5
232C
  2
AME_SOL
 70
     0
 10
0.0
 20
0.0
 30
0.0
  1
AME_SOL
  3
AME_SOL
  0
ENDBLK
  8
0
  5
232D
  0
BLOCK
  8
0
  5
233F
  2
SOLAXES
 70
     0
 10
0.0
 20
0.0
 30
0.0
  1
SOLAXES
  3
SOLAXES
  0
LINE
  8
0
 62
     0
  5
2340
 10
0.0
 20
0.0
 30
0.0
 11
63.851158
 21
0.0
 31
0.0
  0
LINE
  8
0
 62
     0
  5
2341
 10
0.0
 20
0.0
 30
0.0
 11
0.0
 21
63.851158
 31
0.0
  0
LINE
  8
0
 62
     0
  5
2342
 10
0.0
 20
0.0
 30
0.0
 11
0.0
 21
0.0
 31
63.851158
  0
CIRCLE
  8
0
 62
     0
  5
2343
 10
0.0
 20
0.0
 30
57.466042
 40
3.192558
210
1.0
220
0.0
230
0.0
  0
LINE
  8
0
 62
     0
  5
2344
 10
57.466042
 20
3.192558
 30
0.0
 11
63.851158
 21
0.0
 31
0.0
  0
LINE
  8
0
 62
     0
  5
2345
 10
57.466042
 20
0.0
 30
3.192558
 11
63.851158
 21
0.0
 31
0.0
  0
LINE
  8
0
 62
     0
  5
2346
 10
57.466042
 20
-3.192558
 30
0.0
 11
63.851158
 21
0.0
 31
0.0
  0
LINE
  8
0
 62
     0
  5
2347
 10
57.466042
 20
0.0
 30
-3.192558
 11
63.851158
 21
0.0
 31
0.0
  0
CIRCLE
  8
0
 62
     0
  5
2348
 10
0.0
 20
0.0
 30
57.466042
 40
3.192558
210
0.0
220
1.0
230
0.0
  0
LINE
  8
0
 62
     0
  5
2349
 10
3.192558
 20
57.466042
 30
0.0
 11
0.0
 21
63.851158
 31
0.0
  0
LINE
  8
0
 62
     0
  5
234A
 10
0.0
 20
57.466042
 30
3.192558
 11
0.0
 21
63.851158
 31
0.0
  0
LINE
  8
0
 62
     0
  5
234B
 10
-3.192558
 20
57.466042
 30
0.0
 11
0.0
 21
63.851158
 31
0.0
  0
LINE
  8
0
 62
     0
  5
234C
 10
0.0
 20
57.466042
 30
-3.192558
 11
0.0
 21
63.851158
 31
0.0
  0
CIRCLE
  8
0
 62
     0
  5
234D
 10
0.0
 20
0.0
 30
51.080927
 40
3.192558
210
0.0
220
1.0
230
0.0
  0
LINE
  8
0
 62
     0
  5
234E
 10
3.192558
 20
51.080927
 30
0.0
 11
0.0
 21
57.466042
 31
0.0
  0
LINE
  8
0
 62
     0
  5
234F
 10
0.0
 20
51.080927
 30
3.192558
 11
0.0
 21
57.466042
 31
0.0
  0
LINE
  8
0
 62
     0
  5
2350
 10
-3.192558
 20
51.080927
 30
0.0
 11
0.0
 21
57.466042
 31
0.0
  0
LINE
  8
0
 62
     0
  5
2351
 10
0.0
 20
51.080927
 30
-3.192558
 11
0.0
 21
57.466042
 31
0.0
  0
CIRCLE
  8
0
 62
     0
  5
2352
 10
0.0
 20
0.0
 30
57.466042
 40
3.192558
  0
LINE
  8
0
 62
     0
  5
2353
 10
3.192558
 20
0.0
 30
57.466042
 11
0.0
 21
0.0
 31
63.851158
  0
LINE
  8
0
 62
     0
  5
2354
 10
0.0
 20
3.192558
 30
57.466042
 11
0.0
 21
0.0
 31
63.851158
  0
LINE
  8
0
 62
     0
  5
2355
 10
-3.192558
 20
0.0
 30
57.466042
 11
0.0
 21
0.0
 31
63.851158
  0
LINE
  8
0
 62
     0
  5
2356
 10
0.0
 20
-3.192558
 30
57.466042
 11
0.0
 21
0.0
 31
63.851158
  0
CIRCLE
  8
0
 62
     0
  5
2357
 10
0.0
 20
0.0
 30
51.080927
 40
3.192558
  0
LINE
  8
0
 62
     0
  5
2358
 10
3.192558
 20
0.0
 30
51.080927
 11
0.0
 21
0.0
 31
57.466042
  0
LINE
  8
0
 62
     0
  5
2359
 10
0.0
 20
3.192558
 30
51.080927
 11
0.0
 21
0.0
 31
57.466042
  0
LINE
  8
0
 62
     0
  5
235A
 10
-3.192558
 20
0.0
 30
51.080927
 11
0.0
 21
0.0
 31
57.466042
  0
LINE
  8
0
 62
     0
  5
235B
 10
0.0
 20
-3.192558
 30
51.080927
 11
0.0
 21
0.0
 31
57.466042
  0
CIRCLE
  8
0
 62
     0
  5
235C
 10
0.0
 20
0.0
 30
44.695811
 40
3.192558
  0
LINE
  8
0
 62
     0
  5
235D
 10
3.192558
 20
0.0
 30
44.695811
 11
0.0
 21
0.0
 31
51.080927
  0
LINE
  8
0
 62
     0
  5
235E
 10
0.0
 20
3.192558
 30
44.695811
 11
0.0
 21
0.0
 31
51.080927
  0
LINE
  8
0
 62
     0
  5
235F
 10
-3.192558
 20
0.0
 30
44.695811
 11
0.0
 21
0.0
 31
51.080927
  0
LINE
  8
0
 62
     0
  5
2360
 10
0.0
 20
-3.192558
 30
44.695811
 11
0.0
 21
0.0
 31
51.080927
  0
ENDBLK
  8
0
  5
2361
  0
BLOCK
  8
0
  5
2460
  2
AME_MAT
 70
     0
 10
0.0
 20
0.0
 30
0.0
  1
AME_MAT
  3
AME_MAT
  0
ENDBLK
  8
0
  5
2461
  0
BLOCK
  8
0
  5
2465
  2
162505C
 70
    64
 10
0.0
 20
0.0
 30
0.0
  3
162505C
  0
LINE
  8
63
  5
2466
 10
928.191515
 20
299.656381
 30
0.0
 11
1184.476371
 21
299.656381
 31
0.0
  0
ARC
  8
23
  6
DASHED
  5
2467
 10
1167.41416
 20
492.070386
 30
0.0
 40
0.5
 50
0.5
 51
90.0
  0
ARC
  8
33
  6
DASHED
  5
2468
 10
1276.426608
 20
356.858005
 30
0.0
 40
0.5
 50
0.0
 51
89.5
  0
ARC
  8
52
  5
2469
 10
501.178922
 20
360.972923
 30
0.0
 40
0.3
 50
180.0
 51
309.637714
  0
ARC
  8
52
  5
246A
 10
504.878922
 20
356.506381
 30
0.0
 40
5.5
 50
90.0
 51
129.637714
  0
LINE
  8
52
  5
246B
 10
507.028922
 20
362.006381
 30
0.0
 11
504.878922
 21
362.006381
 31
0.0
  0
ARC
  8
52
  5
246C
 10
507.028922
 20
363.006381
 30
0.0
 40
1.0
 50
270.0
 51
360.0
  0
ARC
  8
51
  5
246D
 10
504.878922
 20
356.506381
 30
0.0
 40
1.0
 50
90.0
 51
180.0
  0
ARC
  8
51
  5
246E
 10
507.028922
 20
363.006381
 30
0.0
 40
5.5
 50
270.0
 51
360.0
  0
ARC
  8
51
  5
246F
 10
513.528922
 20
374.156381
 30
0.0
 40
1.0
 50
90.0
 51
180.0
  0
ARC
  8
52
  5
2470
 10
504.878922
 20
356.506381
 30
0.0
 40
1.983
 50
90.0
 51
180.0
  0
ARC
  8
52
  5
2471
 10
507.028922
 20
363.006381
 30
0.0
 40
4.517
 50
270.0
 51
360.0
  0
ARC
  8
52
  5
2472
 10
513.528922
 20
374.156381
 30
0.0
 40
1.983
 50
90.0
 51
180.0
  0
ARC
  8
52
  5
2473
 10
504.878922
 20
356.506381
 30
0.0
 40
4.5
 50
90.0
 51
180.0
  0
ARC
  8
52
  5
2474
 10
507.028922
 20
363.006381
 30
0.0
 40
2.0
 50
270.0
 51
360.0
  0
ARC
  8
52
  5
2475
 10
513.528922
 20
374.156381
 30
0.0
 40
4.5
 50
90.0
 51
180.0
  0
ARC
  8
53
  5
2476
 10
504.878922
 20
356.506381
 30
0.0
 40
3.25
 50
90.0
 51
180.0
  0
ARC
  8
53
  5
2477
 10
507.028922
 20
363.006381
 30
0.0
 40
3.25
 50
270.0
 51
360.0
  0
ARC
  8
53
  5
2478
 10
513.528922
 20
374.156381
 30
0.0
 40
3.25
 50
90.0
 51
180.0
  0
LINE
  8
51
  5
2479
 10
512.528922
 20
374.156381
 30
0.0
 11
512.528922
 21
363.006381
 31
0.0
  0
LINE
  8
52
  5
247A
 10
511.545922
 20
374.156381
 30
0.0
 11
511.545922
 21
363.006381
 31
0.0
  0
LINE
  8
52
  5
247B
 10
509.028922
 20
374.156381
 30
0.0
 11
509.028922
 21
363.006381
 31
0.0
  0
LINE
  8
53
  5
247C
 10
510.278922
 20
374.156381
 30
0.0
 11
510.278922
 21
363.006381
 31
0.0
  0
ARC
  8
51
  5
247D
 10
505.378922
 20
373.656381
 30
0.0
 40
6.0
 50
90.0
 51
180.0
  0
LINE
  8
53
  5
247E
 10
507.028922
 20
359.756381
 30
0.0
 11
504.878922
 21
359.756381
 31
0.0
  0
LINE
  8
52
  5
247F
 10
507.028922
 20
361.006381
 30
0.0
 11
504.878922
 21
361.006381
 31
0.0
  0
LINE
  8
52
  5
2480
 10
507.028922
 20
358.489381
 30
0.0
 11
504.878922
 21
358.489381
 31
0.0
  0
LINE
  8
51
  5
2481
 10
507.028922
 20
357.506381
 30
0.0
 11
504.878922
 21
357.506381
 31
0.0
  0
ARC
  8
52
  5
2482
 10
505.378922
 20
373.656381
 30
0.0
 40
2.0
 50
135.572996
 51
164.427004
  0
LINE
  8
52
  5
2483
 10
503.950636
 20
375.056381
 30
0.0
 11
506.807208
 21
375.056381
 31
0.0
  0
LINE
  8
52
  5
2484
 10
507.3055
 20
374.193313
 30
0.0
 11
506.128922
 21
372.155419
 31
0.0
  0
LINE
  8
52
  5
2485
 10
504.628922
 20
372.155419
 30
0.0
 11
503.452344
 21
374.193313
 31
0.0
  0
ARC
  8
52
  5
2486
 10
505.378922
 20
373.656381
 30
0.0
 40
2.0
 50
15.572996
 51
44.427004
  0
ARC
  8
52
  5
2487
 10
505.378922
 20
373.656381
 30
0.0
 40
5.5
 50
223.602819
 51
293.901932
  0
ARC
  8
52
  5
2488
 10
501.178922
 20
369.656381
 30
0.0
 40
0.3
 50
43.602819
 51
180.0
  0
ARC
  8
52
  5
2489
 10
507.728922
 20
368.353787
 30
0.0
 40
0.3
 50
0.0
 51
113.901932
  0
ARC
  8
52
  5
248A
 10
507.728922
 20
230.958975
 30
0.0
 40
0.3
 50
246.098068
 51
360.0
  0
ARC
  8
52
  5
248B
 10
501.178922
 20
229.656381
 30
0.0
 40
0.3
 50
180.0
 51
316.397181
  0
ARC
  8
52
  5
248C
 10
505.378922
 20
225.656381
 30
0.0
 40
5.5
 50
66.098068
 51
136.397181
  0
ARC
  8
52
  5
248D
 10
505.378922
 20
225.656381
 30
0.0
 40
2.0
 50
135.572996
 51
164.427004
  0
LINE
  8
52
  5
248E
 10
506.128922
 20
224.155419
 30
0.0
 11
507.3055
 21
226.193313
 31
0.0
  0
LINE
  8
52
  5
248F
 10
503.452344
 20
226.193313
 30
0.0
 11
504.628922
 21
224.155419
 31
0.0
  0
LINE
  8
52
  5
2490
 10
506.807208
 20
227.056381
 30
0.0
 11
503.950636
 21
227.056381
 31
0.0
  0
ARC
  8
52
  5
2491
 10
505.378922
 20
225.656381
 30
0.0
 40
2.0
 50
15.572996
 51
44.427004
  0
LINE
  8
51
  5
2492
 10
507.028922
 20
241.806381
 30
0.0
 11
504.878922
 21
241.806381
 31
0.0
  0
LINE
  8
52
  5
2493
 10
507.028922
 20
240.823381
 30
0.0
 11
504.878922
 21
240.823381
 31
0.0
  0
LINE
  8
52
  5
2494
 10
507.028922
 20
238.306381
 30
0.0
 11
504.878922
 21
238.306381
 31
0.0
  0
LINE
  8
53
  5
2495
 10
507.028922
 20
239.556381
 30
0.0
 11
504.878922
 21
239.556381
 31
0.0
  0
ARC
  8
51
  5
2496
 10
505.378922
 20
225.656381
 30
0.0
 40
6.0
 50
180.0
 51
270.0
  0
LINE
  8
53
  5
2497
 10
510.278922
 20
225.156381
 30
0.0
 11
510.278922
 21
236.306381
 31
0.0
  0
LINE
  8
52
  5
2498
 10
509.028922
 20
225.156381
 30
0.0
 11
509.028922
 21
236.306381
 31
0.0
  0
LINE
  8
52
  5
2499
 10
511.545922
 20
225.156381
 30
0.0
 11
511.545922
 21
236.306381
 31
0.0
  0
LINE
  8
51
  5
249A
 10
512.528922
 20
225.156381
 30
0.0
 11
512.528922
 21
236.306381
 31
0.0
  0
ARC
  8
53
  5
249B
 10
513.528922
 20
225.156381
 30
0.0
 40
3.25
 50
180.0
 51
270.0
  0
ARC
  8
53
  5
249C
 10
507.028922
 20
236.306381
 30
0.0
 40
3.25
 50
0.0
 51
90.0
  0
ARC
  8
53
  5
249D
 10
504.878922
 20
242.806381
 30
0.0
 40
3.25
 50
180.0
 51
270.0
  0
ARC
  8
52
  5
249E
 10
513.528922
 20
225.156381
 30
0.0
 40
4.5
 50
180.0
 51
270.0
  0
ARC
  8
52
  5
249F
 10
507.028922
 20
236.306381
 30
0.0
 40
2.0
 50
0.0
 51
90.0
  0
ARC
  8
52
  5
24A0
 10
504.878922
 20
242.806381
 30
0.0
 40
4.5
 50
180.0
 51
270.0
  0
ARC
  8
52
  5
24A1
 10
513.528922
 20
225.156381
 30
0.0
 40
1.983
 50
180.0
 51
270.0
  0
ARC
  8
52
  5
24A2
 10
507.028922
 20
236.306381
 30
0.0
 40
4.517
 50
0.0
 51
90.0
  0
ARC
  8
52
  5
24A3
 10
504.878922
 20
242.806381
 30
0.0
 40
1.983
 50
180.0
 51
270.0
  0
ARC
  8
51
  5
24A4
 10
513.528922
 20
225.156381
 30
0.0
 40
1.0
 50
180.0
 51
270.0
  0
ARC
  8
51
  5
24A5
 10
507.028922
 20
236.306381
 30
0.0
 40
5.5
 50
0.0
 51
90.0
  0
ARC
  8
51
  5
24A6
 10
504.878922
 20
242.806381
 30
0.0
 40
1.0
 50
180.0
 51
270.0
  0
ARC
  8
52
  5
24A7
 10
507.028922
 20
236.306381
 30
0.0
 40
1.0
 50
0.0
 51
90.0
  0
LINE
  8
52
  5
24A8
 10
507.028922
 20
237.306381
 30
0.0
 11
504.878922
 21
237.306381
 31
0.0
  0
ARC
  8
52
  5
24A9
 10
504.878922
 20
242.806381
 30
0.0
 40
5.5
 50
230.362286
 51
270.0
  0
ARC
  8
52
  5
24AA
 10
501.178922
 20
238.339839
 30
0.0
 40
0.3
 50
50.362286
 51
180.0
  0
ARC
  8
52
  5
24AB
 10
747.578922
 20
238.339839
 30
0.0
 40
0.3
 50
0.0
 51
129.637714
  0
ARC
  8
52
  5
24AC
 10
743.878922
 20
242.806381
 30
0.0
 40
5.5
 50
270.0
 51
309.637714
  0
LINE
  8
52
  5
24AD
 10
741.728922
 20
237.306381
 30
0.0
 11
743.878922
 21
237.306381
 31
0.0
  0
ARC
  8
52
  5
24AE
 10
741.728922
 20
236.306381
 30
0.0
 40
1.0
 50
90.0
 51
180.0
  0
ARC
  8
51
  5
24AF
 10
743.878922
 20
242.806381
 30
0.0
 40
1.0
 50
270.0
 51
0.0
  0
ARC
  8
51
  5
24B0
 10
741.728922
 20
236.306381
 30
0.0
 40
5.5
 50
90.0
 51
180.0
  0
ARC
  8
51
  5
24B1
 10
735.228922
 20
225.156381
 30
0.0
 40
1.0
 50
270.0
 51
0.0
  0
ARC
  8
52
  5
24B2
 10
743.878922
 20
242.806381
 30
0.0
 40
1.983
 50
270.0
 51
0.0
  0
ARC
  8
52
  5
24B3
 10
741.728922
 20
236.306381
 30
0.0
 40
4.517
 50
90.0
 51
180.0
  0
ARC
  8
52
  5
24B4
 10
735.228922
 20
225.156381
 30
0.0
 40
1.983
 50
270.0
 51
0.0
  0
ARC
  8
52
  5
24B5
 10
743.878922
 20
242.806381
 30
0.0
 40
4.5
 50
270.0
 51
0.0
  0
ARC
  8
52
  5
24B6
 10
741.728922
 20
236.306381
 30
0.0
 40
2.0
 50
90.0
 51
180.0
  0
ARC
  8
52
  5
24B7
 10
735.228922
 20
225.156381
 30
0.0
 40
4.5
 50
270.0
 51
0.0
  0
ARC
  8
53
  5
24B8
 10
743.878922
 20
242.806381
 30
0.0
 40
3.25
 50
270.0
 51
0.0
  0
ARC
  8
53
  5
24B9
 10
741.728922
 20
236.306381
 30
0.0
 40
3.25
 50
90.0
 51
180.0
  0
ARC
  8
53
  5
24BA
 10
735.228922
 20
225.156381
 30
0.0
 40
3.25
 50
270.0
 51
0.0
  0
LINE
  8
51
  5
24BB
 10
736.228922
 20
225.156381
 30
0.0
 11
736.228922
 21
236.306381
 31
0.0
  0
LINE
  8
52
  5
24BC
 10
737.211922
 20
225.156381
 30
0.0
 11
737.211922
 21
236.306381
 31
0.0
  0
LINE
  8
52
  5
24BD
 10
739.728922
 20
225.156381
 30
0.0
 11
739.728922
 21
236.306381
 31
0.0
  0
LINE
  8
53
  5
24BE
 10
738.478922
 20
225.156381
 30
0.0
 11
738.478922
 21
236.306381
 31
0.0
  0
ARC
  8
51
  5
24BF
 10
743.378922
 20
225.656381
 30
0.0
 40
6.0
 50
270.0
 51
0.0
  0
LINE
  8
53
  5
24C0
 10
741.728922
 20
239.556381
 30
0.0
 11
743.878922
 21
239.556381
 31
0.0
  0
LINE
  8
52
  5
24C1
 10
741.728922
 20
238.306381
 30
0.0
 11
743.878922
 21
238.306381
 31
0.0
  0
LINE
  8
52
  5
24C2
 10
741.728922
 20
240.823381
 30
0.0
 11
743.878922
 21
240.823381
 31
0.0
  0
LINE
  8
51
  5
24C3
 10
741.728922
 20
241.806381
 30
0.0
 11
743.878922
 21
241.806381
 31
0.0
  0
ARC
  8
52
  5
24C4
 10
743.378922
 20
225.656381
 30
0.0
 40
2.0
 50
315.572996
 51
344.427004
  0
LINE
  8
52
  5
24C5
 10
744.807208
 20
224.256381
 30
0.0
 11
741.950636
 21
224.256381
 31
0.0
  0
LINE
  8
52
  5
24C6
 10
741.452344
 20
225.119449
 30
0.0
 11
742.628922
 21
227.157343
 31
0.0
  0
LINE
  8
52
  5
24C7
 10
744.128922
 20
227.157343
 30
0.0
 11
745.3055
 21
225.119449
 31
0.0
  0
ARC
  8
52
  5
24C8
 10
743.378922
 20
225.656381
 30
0.0
 40
2.0
 50
195.572996
 51
224.427004
  0
ARC
  8
52
  5
24C9
 10
743.378922
 20
225.656381
 30
0.0
 40
5.5
 50
43.602819
 51
113.901932
  0
ARC
  8
52
  5
24CA
 10
747.578922
 20
229.656381
 30
0.0
 40
0.3
 50
223.602819
 51
0.0
  0
ARC
  8
52
  5
24CB
 10
741.028922
 20
230.958975
 30
0.0
 40
0.3
 50
180.0
 51
293.901932
  0
ARC
  8
52
  5
24CC
 10
741.028922
 20
368.353787
 30
0.0
 40
0.3
 50
66.098068
 51
180.0
  0
ARC
  8
61
  5
24CD
 10
1175.212535
 20
373.656381
 30
0.0
 40
2.0
 50
15.572996
 51
44.427004
  0
LINE
  8
61
  5
24CE
 10
1174.462535
 20
372.155419
 30
0.0
 11
1173.285957
 21
374.193313
 31
0.0
  0
LINE
  8
61
  5
24CF
 10
1177.139114
 20
374.193313
 30
0.0
 11
1175.962535
 21
372.155419
 31
0.0
  0
LINE
  8
61
  5
24D0
 10
1173.78425
 20
375.056381
 30
0.0
 11
1176.640821
 21
375.056381
 31
0.0
  0
ARC
  8
61
  5
24D1
 10
1175.212535
 20
373.656381
 30
0.0
 40
2.0
 50
135.572996
 51
164.427004
  0
ARC
  8
61
  5
24D2
 10
1175.212535
 20
373.656381
 30
0.0
 40
2.1
 50
290.924832
 51
249.075168
  0
CIRCLE
  8
61
  5
24D3
 10
1175.212535
 20
373.656381
 30
0.0
 40
4.366528
  0
CIRCLE
  8
61
  5
24D4
 10
1175.212535
 20
225.656381
 30
0.0
 40
4.366528
  0
ARC
  8
61
  5
24D5
 10
1175.212535
 20
225.656381
 30
0.0
 40
2.1
 50
290.924832
 51
249.075168
  0
ARC
  8
61
  5
24D6
 10
1175.212535
 20
225.656381
 30
0.0
 40
2.0
 50
135.572996
 51
164.427004
  0
LINE
  8
61
  5
24D7
 10
1173.78425
 20
227.056381
 30
0.0
 11
1176.640821
 21
227.056381
 31
0.0
  0
LINE
  8
61
  5
24D8
 10
1177.139114
 20
226.193313
 30
0.0
 11
1175.962535
 21
224.155419
 31
0.0
  0
LINE
  8
61
  5
24D9
 10
1174.462535
 20
224.155419
 30
0.0
 11
1173.285957
 21
226.193313
 31
0.0
  0
ARC
  8
61
  5
24DA
 10
1175.212535
 20
225.656381
 30
0.0
 40
2.0
 50
15.572996
 51
44.427004
  0
ARC
  8
61
  5
24DB
 10
1056.212535
 20
225.656381
 30
0.0
 40
2.0
 50
15.572996
 51
44.427004
  0
LINE
  8
61
  5
24DC
 10
1055.462535
 20
224.155419
 30
0.0
 11
1054.285957
 21
226.193313
 31
0.0
  0
LINE
  8
61
  5
24DD
 10
1058.139114
 20
226.193313
 30
0.0
 11
1056.962535
 21
224.155419
 31
0.0
  0
LINE
  8
61
  5
24DE
 10
1054.78425
 20
227.056381
 30
0.0
 11
1057.640821
 21
227.056381
 31
0.0
  0
ARC
  8
61
  5
24DF
 10
1056.212535
 20
225.656381
 30
0.0
 40
2.0
 50
135.572996
 51
164.427004
  0
ARC
  8
61
  5
24E0
 10
1056.212535
 20
225.656381
 30
0.0
 40
2.1
 50
290.924832
 51
249.075168
  0
CIRCLE
  8
61
  5
24E1
 10
1056.212535
 20
225.656381
 30
0.0
 40
4.366528
  0
CIRCLE
  8
61
  5
24E2
 10
1056.212535
 20
373.656381
 30
0.0
 40
4.366528
  0
ARC
  8
61
  5
24E3
 10
1056.212535
 20
373.656381
 30
0.0
 40
2.1
 50
110.924832
 51
69.075168
  0
ARC
  8
61
  5
24E4
 10
1056.212535
 20
373.656381
 30
0.0
 40
2.0
 50
315.572996
 51
344.427004
  0
LINE
  8
61
  5
24E5
 10
1057.640821
 20
372.256381
 30
0.0
 11
1054.78425
 21
372.256381
 31
0.0
  0
LINE
  8
61
  5
24E6
 10
1054.285957
 20
373.119449
 30
0.0
 11
1055.462535
 21
375.157343
 31
0.0
  0
LINE
  8
61
  5
24E7
 10
1056.962535
 20
375.157343
 30
0.0
 11
1058.139114
 21
373.119449
 31
0.0
  0
ARC
  8
61
  5
24E8
 10
1056.212535
 20
373.656381
 30
0.0
 40
2.0
 50
195.572996
 51
224.427004
  0
CIRCLE
  8
61
  5
24E9
 10
937.212535
 20
225.656381
 30
0.0
 40
4.366528
  0
ARC
  8
61
  5
24EA
 10
937.212535
 20
225.656381
 30
0.0
 40
2.1
 50
110.924832
 51
69.075168
  0
ARC
  8
61
  5
24EB
 10
937.212535
 20
225.656381
 30
0.0
 40
2.0
 50
315.572996
 51
344.427004
  0
LINE
  8
61
  5
24EC
 10
938.640821
 20
224.256381
 30
0.0
 11
935.78425
 21
224.256381
 31
0.0
  0
LINE
  8
61
  5
24ED
 10
935.285957
 20
225.119449
 30
0.0
 11
936.462535
 21
227.157343
 31
0.0
  0
LINE
  8
61
  5
24EE
 10
937.962535
 20
227.157343
 30
0.0
 11
939.139114
 21
225.119449
 31
0.0
  0
ARC
  8
61
  5
24EF
 10
937.212535
 20
225.656381
 30
0.0
 40
2.0
 50
195.572996
 51
224.427004
  0
ARC
  8
61
  5
24F0
 10
937.212535
 20
373.656381
 30
0.0
 40
2.0
 50
195.572996
 51
224.427004
  0
LINE
  8
61
  5
24F1
 10
937.962535
 20
375.157343
 30
0.0
 11
939.139114
 21
373.119449
 31
0.0
  0
LINE
  8
61
  5
24F2
 10
935.285957
 20
373.119449
 30
0.0
 11
936.462535
 21
375.157343
 31
0.0
  0
LINE
  8
61
  5
24F3
 10
938.640821
 20
372.256381
 30
0.0
 11
935.78425
 21
372.256381
 31
0.0
  0
ARC
  8
61
  5
24F4
 10
937.212535
 20
373.656381
 30
0.0
 40
2.0
 50
315.572996
 51
344.427004
  0
ARC
  8
61
  5
24F5
 10
937.212535
 20
373.656381
 30
0.0
 40
2.1
 50
110.924832
 51
69.075168
  0
CIRCLE
  8
61
  5
24F6
 10
937.212535
 20
373.656381
 30
0.0
 40
4.366528
  0
LINE
  8
61
  5
24F7
 10
1181.212535
 20
373.656381
 30
0.0
 11
1181.212535
 21
225.656381
 31
0.0
  0
LINE
  8
61
  5
24F8
 10
931.212535
 20
373.656381
 30
0.0
 11
931.212535
 21
225.656381
 31
0.0
  0
LINE
  8
61
  5
24F9
 10
937.212535
 20
219.656381
 30
0.0
 11
1175.212535
 21
219.656381
 31
0.0
  0
LINE
  8
61
  5
24FA
 10
937.212535
 20
379.656381
 30
0.0
 11
1175.212535
 21
379.656381
 31
0.0
  0
ARC
  8
61
  5
24FB
 10
1175.212535
 20
225.656381
 30
0.0
 40
6.0
 50
270.0
 51
0.0
  0
ARC
  8
61
  5
24FC
 10
1175.212535
 20
373.656381
 30
0.0
 40
6.0
 50
0.0
 51
90.0
  0
ARC
  8
61
  5
24FD
 10
937.212535
 20
373.656381
 30
0.0
 40
6.0
 50
90.0
 51
180.0
  0
ARC
  8
61
  5
24FE
 10
937.212535
 20
225.656381
 30
0.0
 40
6.0
 50
180.0
 51
270.0
  0
LINE
  8
33
  6
DASHED
  5
24FF
 10
1227.723988
 20
357.503786
 30
0.0
 11
1276.430972
 21
357.357986
 31
0.0
  0
ARC
  8
52
  5
2500
 10
624.378922
 20
373.656381
 30
0.0
 40
2.0
 50
195.572996
 51
224.427004
  0
LINE
  8
52
  5
2501
 10
622.950636
 20
372.256381
 30
0.0
 11
625.807208
 21
372.256381
 31
0.0
  0
LINE
  8
52
  5
2502
 10
626.3055
 20
373.119449
 30
0.0
 11
625.128922
 21
375.157343
 31
0.0
  0
LINE
  8
52
  5
2503
 10
623.628922
 20
375.157343
 30
0.0
 11
622.452344
 21
373.119449
 31
0.0
  0
ARC
  8
52
  5
2504
 10
624.378922
 20
373.656381
 30
0.0
 40
2.0
 50
315.572996
 51
344.427004
  0
ARC
  8
52
  5
2505
 10
747.578922
 20
369.656381
 30
0.0
 40
0.3
 50
0.0
 51
136.397181
  0
LINE
  8
52
  5
2506
 10
740.728922
 20
374.156381
 30
0.0
 11
740.728922
 21
363.006381
 31
0.0
  0
ARC
  8
52
  5
2507
 10
743.378922
 20
373.656381
 30
0.0
 40
5.5
 50
246.098068
 51
316.397181
  0
LINE
  8
52
  5
2508
 10
747.878922
 20
373.656381
 30
0.0
 11
747.878922
 21
360.972923
 31
0.0
  0
ARC
  8
52
  5
2509
 10
743.378922
 20
373.656381
 30
0.0
 40
2.0
 50
315.572996
 51
344.427004
  0
LINE
  8
52
  5
250A
 10
742.628922
 20
375.157343
 30
0.0
 11
741.452344
 21
373.119449
 31
0.0
  0
LINE
  8
52
  5
250B
 10
745.3055
 20
373.119449
 30
0.0
 11
744.128922
 21
375.157343
 31
0.0
  0
LINE
  8
52
  5
250C
 10
741.950636
 20
372.256381
 30
0.0
 11
744.807208
 21
372.256381
 31
0.0
  0
ARC
  8
52
  5
250D
 10
743.378922
 20
373.656381
 30
0.0
 40
2.0
 50
195.572996
 51
224.427004
  0
LINE
  8
51
  5
250E
 10
632.345832
 20
224.156381
 30
0.0
 11
735.228922
 21
224.156381
 31
0.0
  0
LINE
  8
52
  5
250F
 10
632.345832
 20
223.173381
 30
0.0
 11
735.228922
 21
223.173381
 31
0.0
  0
LINE
  8
53
  5
2510
 10
632.345832
 20
221.906381
 30
0.0
 11
735.228922
 21
221.906381
 31
0.0
  0
LINE
  8
52
  5
2511
 10
632.345832
 20
220.656381
 30
0.0
 11
735.228922
 21
220.656381
 31
0.0
  0
LINE
  8
52
  5
2512
 10
632.345832
 20
378.656381
 30
0.0
 11
735.228922
 21
378.656381
 31
0.0
  0
LINE
  8
53
  5
2513
 10
632.345832
 20
377.406381
 30
0.0
 11
735.228922
 21
377.406381
 31
0.0
  0
LINE
  8
52
  5
2514
 10
632.345832
 20
376.139381
 30
0.0
 11
735.228922
 21
376.139381
 31
0.0
  0
LINE
  8
51
  5
2515
 10
632.345832
 20
375.156381
 30
0.0
 11
735.228922
 21
375.156381
 31
0.0
  0
ARC
  8
53
  5
2516
 10
624.378922
 20
373.656381
 30
0.0
 40
4.71691
 50
180.0
 51
0.0
  0
ARC
  8
51
  5
2517
 10
624.378922
 20
373.656381
 30
0.0
 40
7.0
 50
180.0
 51
360.0
  0
ARC
  8
52
  5
2518
 10
624.378922
 20
373.656381
 30
0.0
 40
6.017
 50
180.0
 51
360.0
  0
ARC
  8
52
  5
2519
 10
624.378922
 20
373.656381
 30
0.0
 40
3.5
 50
180.0
 51
360.0
  0
LINE
  8
23
  5
251A
 10
1056.212535
 20
501.725273
 30
0.0
 11
1056.212535
 21
439.493651
 31
0.0
  0
LINE
  8
23
  6
DASHED
  5
251B
 10
1168.05994
 20
443.367768
 30
0.0
 11
1167.914141
 21
492.074749
 31
0.0
  0
LINE
  8
51
  5
251C
 10
741.728922
 20
357.506381
 30
0.0
 11
743.878922
 21
357.506381
 31
0.0
  0
LINE
  8
51
  5
251D
 10
513.528922
 20
224.156381
 30
0.0
 11
616.412012
 21
224.156381
 31
0.0
  0
LINE
  8
51
  5
251E
 10
513.528922
 20
375.156381
 30
0.0
 11
616.412012
 21
375.156381
 31
0.0
  0
LINE
  8
51
  5
251F
 10
503.878922
 20
356.506381
 30
0.0
 11
503.878922
 21
242.806381
 31
0.0
  0
LINE
  8
51
  5
2520
 10
744.878922
 20
356.506381
 30
0.0
 11
744.878922
 21
242.806381
 31
0.0
  0
LINE
  8
21
  5
2521
 10
1177.712535
 20
446.070386
 30
0.0
 11
1180.507345
 21
446.070386
 31
0.0
  0
LINE
  8
21
  5
2522
 10
932.387073
 20
496.070386
 30
0.0
 11
1180.037998
 21
496.070386
 31
0.0
  0
LINE
  8
21
  5
2523
 10
1181.212535
 20
446.070386
 30
0.0
 11
1181.046725
 21
495.070424
 31
0.0
  0
LINE
  8
21
  5
2524
 10
1177.700225
 20
443.36515
 30
0.0
 11
1177.733018
 21
446.070386
 31
0.0
  0
LINE
  8
23
  6
DASHED
  5
2525
 10
945.010911
 20
492.570386
 30
0.0
 11
1167.41416
 21
492.570386
 31
0.0
  0
ARC
  8
21
  5
2526
 10
1177.400271
 20
443.370386
 30
0.0
 40
0.3
 50
270.0
 51
359.0
  0
LINE
  8
52
  5
2527
 10
513.528922
 20
223.173381
 30
0.0
 11
616.412012
 21
223.173381
 31
0.0
  0
LINE
  8
52
  5
2528
 10
502.895922
 20
356.506381
 30
0.0
 11
502.895922
 21
242.806381
 31
0.0
  0
LINE
  8
52
  5
2529
 10
513.528922
 20
376.139381
 30
0.0
 11
616.412012
 21
376.139381
 31
0.0
  0
LINE
  8
52
  5
252A
 10
741.728922
 20
358.489381
 30
0.0
 11
743.878922
 21
358.489381
 31
0.0
  0
LINE
  8
52
  5
252B
 10
745.861922
 20
356.506381
 30
0.0
 11
745.861922
 21
242.806381
 31
0.0
  0
LINE
  8
52
  5
252C
 10
513.528922
 20
220.656381
 30
0.0
 11
616.412012
 21
220.656381
 31
0.0
  0
LINE
  8
52
  5
252D
 10
500.378922
 20
356.506381
 30
0.0
 11
500.378922
 21
242.806381
 31
0.0
  0
LINE
  8
52
  5
252E
 10
513.528922
 20
378.656381
 30
0.0
 11
616.412012
 21
378.656381
 31
0.0
  0
LINE
  8
52
  5
252F
 10
741.728922
 20
361.006381
 30
0.0
 11
743.878922
 21
361.006381
 31
0.0
  0
LINE
  8
52
  5
2530
 10
748.378922
 20
356.506381
 30
0.0
 11
748.378922
 21
242.806381
 31
0.0
  0
LINE
  8
53
  5
2531
 10
741.728922
 20
359.756381
 30
0.0
 11
743.878922
 21
359.756381
 31
0.0
  0
LINE
  8
53
  5
2532
 10
747.128922
 20
356.506381
 30
0.0
 11
747.128922
 21
242.806381
 31
0.0
  0
LINE
  8
53
  5
2533
 10
501.628922
 20
356.506381
 30
0.0
 11
501.628922
 21
242.806381
 31
0.0
  0
LINE
  8
53
  5
2534
 10
513.528922
 20
377.406381
 30
0.0
 11
616.412012
 21
377.406381
 31
0.0
  0
LINE
  8
53
  5
2535
 10
513.528922
 20
221.906381
 30
0.0
 11
616.412012
 21
221.906381
 31
0.0
  0
ARC
  8
51
  5
2536
 10
743.378922
 20
373.656381
 30
0.0
 40
6.0
 50
0.0
 51
90.0
  0
LINE
  8
51
  5
2537
 10
505.378922
 20
379.656381
 30
0.0
 11
743.378922
 21
379.656381
 31
0.0
  0
LINE
  8
51
  5
2538
 10
505.378922
 20
219.656381
 30
0.0
 11
743.378922
 21
219.656381
 31
0.0
  0
LINE
  8
51
  5
2539
 10
499.378922
 20
373.656381
 30
0.0
 11
499.378922
 21
225.656381
 31
0.0
  0
LINE
  8
51
  5
253A
 10
749.378922
 20
373.656381
 30
0.0
 11
749.378922
 21
225.656381
 31
0.0
  0
LINE
  8
33
  5
253B
 10
1285.782541
 20
299.656381
 30
0.0
 11
1223.849873
 21
299.656381
 31
0.0
  0
LINE
  8
31
  5
253C
 10
1230.426608
 20
376.156381
 30
0.0
 11
1230.426608
 21
378.95119
 31
0.0
  0
LINE
  8
31
  5
253D
 10
1230.426608
 20
379.656381
 30
0.0
 11
1279.426647
 21
379.49057
 31
0.0
  0
LINE
  8
31
  5
253E
 10
1227.721373
 20
376.144071
 30
0.0
 11
1230.426608
 21
376.176863
 31
0.0
  0
ARC
  8
31
  5
253F
 10
1227.726608
 20
375.844117
 30
0.0
 40
0.3
 50
91.0
 51
180.0
  0
LINE
  8
33
  6
DASHED
  5
2540
 10
1276.926608
 20
356.858005
 30
0.0
 11
1276.926608
 21
242.454757
 31
0.0
  0
LINE
  8
31
  5
2541
 10
1227.426608
 20
375.844117
 30
0.0
 11
1227.426608
 21
375.453774
 31
0.0
  0
LINE
  8
31
  5
2542
 10
1280.426608
 20
378.481843
 30
0.0
 11
1280.426608
 21
220.830918
 31
0.0
  0
LINE
  8
21
  5
2543
 10
1181.046725
 20
495.070424
 30
0.0
 11
1180.037998
 21
496.070386
 31
0.0
  0
LINE
  8
31
  5
2544
 10
1280.426608
 20
378.481843
 30
0.0
 11
1279.426647
 21
379.49057
 31
0.0
  0
LINE
  8
61
  5
2545
 10
1180.046725
 20
373.656381
 30
0.0
 11
1180.046725
 21
225.656381
 31
0.0
  0
LINE
  8
61
  5
2546
 10
937.212535
 20
378.49057
 30
0.0
 11
1175.212535
 21
378.49057
 31
0.0
  0
ARC
  8
61
  5
2547
 10
1175.212535
 20
373.656381
 30
0.0
 40
4.834189
 50
0.0
 51
90.0
  0
ARC
  8
61
  5
2548
 10
1175.212535
 20
225.656381
 30
0.0
 40
4.834189
 50
270.0
 51
0.0
  0
LINE
  8
61
  5
2549
 10
937.212535
 20
220.822192
 30
0.0
 11
1175.212535
 21
220.822192
 31
0.0
  0
ARC
  8
61
  5
254A
 10
937.212535
 20
225.656381
 30
0.0
 40
4.834189
 50
180.0
 51
270.0
  0
LINE
  8
61
  5
254B
 10
932.378346
 20
373.656381
 30
0.0
 11
932.378346
 21
225.656381
 31
0.0
  0
ARC
  8
61
  5
254C
 10
937.212535
 20
373.656381
 30
0.0
 40
4.834189
 50
90.0
 51
180.0
  0
LINE
  8
23
  6
DASHED
  5
254D
 10
1063.215131
 20
443.367768
 30
0.0
 11
1063.36266
 21
492.273004
 31
0.0
  0
ARC
  8
23
  6
DASHED
  5
254E
 10
1063.662649
 20
492.270386
 30
0.0
 40
0.3
 50
90.0
 51
179.5
  0
ARC
  8
23
  6
DASHED
  5
254F
 10
1048.762422
 20
492.270386
 30
0.0
 40
0.3
 50
0.5
 51
90.0
  0
LINE
  8
23
  6
DASHED
  5
2550
 10
1049.20994
 20
443.367768
 30
0.0
 11
1049.06241
 21
492.273004
 31
0.0
  0
LINE
  8
53
  5
2551
 10
738.478922
 20
374.156381
 30
0.0
 11
738.478922
 21
363.006381
 31
0.0
  0
LINE
  8
52
  5
2552
 10
739.728922
 20
374.156381
 30
0.0
 11
739.728922
 21
363.006381
 31
0.0
  0
LINE
  8
52
  5
2553
 10
737.211922
 20
374.156381
 30
0.0
 11
737.211922
 21
363.006381
 31
0.0
  0
LINE
  8
51
  5
2554
 10
736.228922
 20
374.156381
 30
0.0
 11
736.228922
 21
363.006381
 31
0.0
  0
ARC
  8
53
  5
2555
 10
735.228922
 20
374.156381
 30
0.0
 40
3.25
 50
0.0
 51
90.0
  0
ARC
  8
53
  5
2556
 10
741.728922
 20
363.006381
 30
0.0
 40
3.25
 50
180.0
 51
270.0
  0
ARC
  8
53
  5
2557
 10
743.878922
 20
356.506381
 30
0.0
 40
3.25
 50
0.0
 51
90.0
  0
ARC
  8
52
  5
2558
 10
735.228922
 20
374.156381
 30
0.0
 40
4.5
 50
0.0
 51
90.0
  0
ARC
  8
52
  5
2559
 10
741.728922
 20
363.006381
 30
0.0
 40
2.0
 50
180.0
 51
270.0
  0
ARC
  8
52
  5
255A
 10
743.878922
 20
356.506381
 30
0.0
 40
4.5
 50
0.0
 51
90.0
  0
ARC
  8
52
  5
255B
 10
735.228922
 20
374.156381
 30
0.0
 40
1.983
 50
0.0
 51
90.0
  0
ARC
  8
52
  5
255C
 10
741.728922
 20
363.006381
 30
0.0
 40
4.517
 50
180.0
 51
270.0
  0
ARC
  8
52
  5
255D
 10
743.878922
 20
356.506381
 30
0.0
 40
1.983
 50
0.0
 51
90.0
  0
ARC
  8
51
  5
255E
 10
735.228922
 20
374.156381
 30
0.0
 40
1.0
 50
0.0
 51
90.0
  0
ARC
  8
51
  5
255F
 10
741.728922
 20
363.006381
 30
0.0
 40
5.5
 50
180.0
 51
270.0
  0
ARC
  8
51
  5
2560
 10
743.878922
 20
356.506381
 30
0.0
 40
1.0
 50
0.0
 51
90.0
  0
ARC
  8
52
  5
2561
 10
741.728922
 20
363.006381
 30
0.0
 40
1.0
 50
180.0
 51
270.0
  0
LINE
  8
52
  5
2562
 10
741.728922
 20
362.006381
 30
0.0
 11
743.878922
 21
362.006381
 31
0.0
  0
ARC
  8
52
  5
2563
 10
743.878922
 20
356.506381
 30
0.0
 40
5.5
 50
50.362286
 51
90.0
  0
ARC
  8
52
  5
2564
 10
747.578922
 20
360.972923
 30
0.0
 40
0.3
 50
230.362286
 51
0.0
  0
LINE
  8
53
  5
2565
 10
629.095832
 20
374.156381
 30
0.0
 11
629.095832
 21
373.656381
 31
0.0
  0
ARC
  8
53
  5
2566
 10
632.345832
 20
374.156381
 30
0.0
 40
3.25
 50
90.0
 51
180.0
  0
LINE
  8
52
  5
2567
 10
627.878922
 20
374.156381
 30
0.0
 11
627.878922
 21
373.656381
 31
0.0
  0
ARC
  8
52
  5
2568
 10
632.345832
 20
374.156381
 30
0.0
 40
4.46691
 50
90.0
 51
180.0
  0
ARC
  8
52
  5
2569
 10
632.345832
 20
374.156381
 30
0.0
 40
1.94991
 50
90.0
 51
180.0
  0
LINE
  8
52
  5
256A
 10
630.395922
 20
374.156381
 30
0.0
 11
630.395922
 21
373.656381
 31
0.0
  0
LINE
  8
51
  5
256B
 10
631.378922
 20
374.156381
 30
0.0
 11
631.378922
 21
373.656381
 31
0.0
  0
ARC
  8
51
  5
256C
 10
632.345832
 20
374.156381
 30
0.0
 40
0.96691
 50
90.0
 51
180.0
  0
ARC
  8
51
  5
256D
 10
616.412012
 20
374.156381
 30
0.0
 40
0.96691
 50
0.0
 51
90.0
  0
LINE
  8
51
  5
256E
 10
617.378922
 20
374.156381
 30
0.0
 11
617.378922
 21
373.656381
 31
0.0
  0
LINE
  8
52
  5
256F
 10
618.361922
 20
374.156381
 30
0.0
 11
618.361922
 21
373.656381
 31
0.0
  0
ARC
  8
52
  5
2570
 10
616.412012
 20
374.156381
 30
0.0
 40
1.94991
 50
0.0
 51
90.0
  0
ARC
  8
52
  5
2571
 10
616.412012
 20
374.156381
 30
0.0
 40
4.46691
 50
0.0
 51
90.0
  0
LINE
  8
52
  5
2572
 10
620.878922
 20
374.156381
 30
0.0
 11
620.878922
 21
373.656381
 31
0.0
  0
ARC
  8
53
  5
2573
 10
616.412012
 20
374.156381
 30
0.0
 40
3.25
 50
0.0
 51
90.0
  0
LINE
  8
53
  5
2574
 10
619.662012
 20
374.156381
 30
0.0
 11
619.662012
 21
373.656381
 31
0.0
  0
LINE
  8
53
  5
2575
 10
619.662012
 20
225.156381
 30
0.0
 11
619.662012
 21
225.656381
 31
0.0
  0
ARC
  8
53
  5
2576
 10
616.412012
 20
225.156381
 30
0.0
 40
3.25
 50
270.0
 51
0.0
  0
LINE
  8
52
  5
2577
 10
620.878922
 20
225.156381
 30
0.0
 11
620.878922
 21
225.656381
 31
0.0
  0
ARC
  8
52
  5
2578
 10
616.412012
 20
225.156381
 30
0.0
 40
4.46691
 50
270.0
 51
0.0
  0
ARC
  8
52
  5
2579
 10
616.412012
 20
225.156381
 30
0.0
 40
1.94991
 50
270.0
 51
0.0
  0
LINE
  8
52
  5
257A
 10
618.361922
 20
225.156381
 30
0.0
 11
618.361922
 21
225.656381
 31
0.0
  0
LINE
  8
51
  5
257B
 10
617.378922
 20
225.156381
 30
0.0
 11
617.378922
 21
225.656381
 31
0.0
  0
ARC
  8
51
  5
257C
 10
616.412012
 20
225.156381
 30
0.0
 40
0.96691
 50
270.0
 51
0.0
  0
ARC
  8
51
  5
257D
 10
632.345832
 20
225.156381
 30
0.0
 40
0.96691
 50
180.0
 51
270.0
  0
LINE
  8
51
  5
257E
 10
631.378922
 20
225.156381
 30
0.0
 11
631.378922
 21
225.656381
 31
0.0
  0
LINE
  8
52
  5
257F
 10
630.395922
 20
225.156381
 30
0.0
 11
630.395922
 21
225.656381
 31
0.0
  0
ARC
  8
52
  5
2580
 10
632.345832
 20
225.156381
 30
0.0
 40
1.94991
 50
180.0
 51
270.0
  0
ARC
  8
52
  5
2581
 10
632.345832
 20
225.156381
 30
0.0
 40
4.46691
 50
180.0
 51
270.0
  0
LINE
  8
52
  5
2582
 10
627.878922
 20
225.156381
 30
0.0
 11
627.878922
 21
225.656381
 31
0.0
  0
ARC
  8
53
  5
2583
 10
632.345832
 20
225.156381
 30
0.0
 40
3.25
 50
180.0
 51
270.0
  0
LINE
  8
53
  5
2584
 10
629.095832
 20
225.156381
 30
0.0
 11
629.095832
 21
225.656381
 31
0.0
  0
ARC
  8
52
  5
2585
 10
624.378922
 20
225.656381
 30
0.0
 40
3.5
 50
0.0
 51
180.0
  0
ARC
  8
52
  5
2586
 10
624.378922
 20
225.656381
 30
0.0
 40
6.017
 50
0.0
 51
180.0
  0
ARC
  8
51
  5
2587
 10
624.378922
 20
225.656381
 30
0.0
 40
7.0
 50
0.0
 51
180.0
  0
ARC
  8
53
  5
2588
 10
624.378922
 20
225.656381
 30
0.0
 40
4.71691
 50
0.0
 51
180.0
  0
ARC
  8
52
  5
2589
 10
624.378922
 20
225.656381
 30
0.0
 40
2.0
 50
15.572996
 51
44.427004
  0
LINE
  8
52
  5
258A
 10
623.628922
 20
224.155419
 30
0.0
 11
622.452344
 21
226.193313
 31
0.0
  0
LINE
  8
52
  5
258B
 10
626.3055
 20
226.193313
 30
0.0
 11
625.128922
 21
224.155419
 31
0.0
  0
LINE
  8
52
  5
258C
 10
622.950636
 20
227.056381
 30
0.0
 11
625.807208
 21
227.056381
 31
0.0
  0
ARC
  8
52
  5
258D
 10
624.378922
 20
225.656381
 30
0.0
 40
2.0
 50
135.572996
 51
164.427004
  0
ARC
  8
52
  5
258E
 10
743.378922
 20
373.656381
 30
0.0
 40
4.5
 50
0.0
 51
90.0
  0
ARC
  8
52
  5
258F
 10
735.228922
 20
374.156381
 30
0.0
 40
5.5
 50
0.0
 51
39.637714
  0
LINE
  8
52
  5
2590
 10
739.695464
 20
378.156381
 30
0.0
 11
743.378922
 21
378.156381
 31
0.0
  0
ARC
  8
52
  5
2591
 10
739.695464
 20
377.856381
 30
0.0
 40
0.3
 50
90.0
 51
219.637714
  0
LINE
  8
52
  5
2592
 10
747.878922
 20
225.656381
 30
0.0
 11
747.878922
 21
238.339839
 31
0.0
  0
ARC
  8
52
  5
2593
 10
743.378922
 20
225.656381
 30
0.0
 40
4.5
 50
270.0
 51
0.0
  0
LINE
  8
52
  5
2594
 10
739.695464
 20
221.156381
 30
0.0
 11
743.378922
 21
221.156381
 31
0.0
  0
LINE
  8
52
  5
2595
 10
740.728922
 20
225.156381
 30
0.0
 11
740.728922
 21
236.306381
 31
0.0
  0
ARC
  8
52
  5
2596
 10
735.228922
 20
225.156381
 30
0.0
 40
5.5
 50
320.362286
 51
0.0
  0
ARC
  8
52
  5
2597
 10
739.695464
 20
221.456381
 30
0.0
 40
0.3
 50
140.362286
 51
270.0
  0
LINE
  8
52
  5
2598
 10
500.878922
 20
373.656381
 30
0.0
 11
500.878922
 21
360.972923
 31
0.0
  0
ARC
  8
52
  5
2599
 10
505.378922
 20
373.656381
 30
0.0
 40
4.5
 50
90.0
 51
180.0
  0
LINE
  8
52
  5
259A
 10
509.06238
 20
378.156381
 30
0.0
 11
505.378922
 21
378.156381
 31
0.0
  0
LINE
  8
52
  5
259B
 10
508.028922
 20
374.156381
 30
0.0
 11
508.028922
 21
363.006381
 31
0.0
  0
ARC
  8
52
  5
259C
 10
513.528922
 20
374.156381
 30
0.0
 40
5.5
 50
140.362286
 51
180.0
  0
ARC
  8
52
  5
259D
 10
509.06238
 20
377.856381
 30
0.0
 40
0.3
 50
320.362286
 51
90.0
  0
LINE
  8
52
  5
259E
 10
500.878922
 20
225.656381
 30
0.0
 11
500.878922
 21
238.339839
 31
0.0
  0
LINE
  8
52
  5
259F
 10
508.028922
 20
225.156381
 30
0.0
 11
508.028922
 21
236.306381
 31
0.0
  0
ARC
  8
52
  5
25A0
 10
513.528922
 20
225.156381
 30
0.0
 40
5.5
 50
180.0
 51
219.637714
  0
LINE
  8
52
  5
25A1
 10
509.06238
 20
221.156381
 30
0.0
 11
505.378922
 21
221.156381
 31
0.0
  0
ARC
  8
52
  5
25A2
 10
505.378922
 20
225.656381
 30
0.0
 40
4.5
 50
180.0
 51
270.0
  0
ARC
  8
52
  5
25A3
 10
509.06238
 20
221.456381
 30
0.0
 40
0.3
 50
270.0
 51
39.637714
  0
LINE
  8
52
  5
25A4
 10
620.835501
 20
378.156381
 30
0.0
 11
627.922343
 21
378.156381
 31
0.0
  0
LINE
  8
52
  5
25A5
 10
620.835501
 20
221.156381
 30
0.0
 11
627.922343
 21
221.156381
 31
0.0
  0
ARC
  8
52
  5
25A6
 10
616.412012
 20
374.156381
 30
0.0
 40
5.46691
 50
0.0
 51
39.910587
  0
ARC
  8
52
  5
25A7
 10
624.378922
 20
373.656381
 30
0.0
 40
2.5
 50
180.0
 51
360.0
  0
ARC
  8
52
  5
25A8
 10
632.345832
 20
374.156381
 30
0.0
 40
5.46691
 50
140.089413
 51
180.0
  0
LINE
  8
52
  5
25A9
 10
626.878922
 20
374.156381
 30
0.0
 11
626.878922
 21
373.656381
 31
0.0
  0
LINE
  8
52
  5
25AA
 10
621.878922
 20
374.156381
 30
0.0
 11
621.878922
 21
373.656381
 31
0.0
  0
ARC
  8
52
  5
25AB
 10
627.922343
 20
377.856381
 30
0.0
 40
0.3
 50
320.089413
 51
90.0
  0
ARC
  8
52
  5
25AC
 10
620.835501
 20
377.856381
 30
0.0
 40
0.3
 50
90.0
 51
219.910587
  0
ARC
  8
52
  5
25AD
 10
632.345832
 20
225.156381
 30
0.0
 40
5.46691
 50
180.0
 51
219.910587
  0
LINE
  8
52
  5
25AE
 10
626.878922
 20
225.156381
 30
0.0
 11
626.878922
 21
225.656381
 31
0.0
  0
ARC
  8
52
  5
25AF
 10
624.378922
 20
225.656381
 30
0.0
 40
2.5
 50
0.0
 51
180.0
  0
LINE
  8
52
  5
25B0
 10
621.878922
 20
225.156381
 30
0.0
 11
621.878922
 21
225.656381
 31
0.0
  0
ARC
  8
52
  5
25B1
 10
616.412012
 20
225.156381
 30
0.0
 40
5.46691
 50
320.089413
 51
0.0
  0
ARC
  8
52
  5
25B2
 10
627.922343
 20
221.456381
 30
0.0
 40
0.3
 50
270.0
 51
39.910587
  0
ARC
  8
52
  5
25B3
 10
620.835501
 20
221.456381
 30
0.0
 40
0.3
 50
140.089413
 51
270.0
  0
LINE
  8
52
  5
25B4
 10
744.128922
 20
377.509058
 30
0.0
 11
744.128922
 21
375.157343
 31
0.0
  0
LINE
  8
52
  5
25B5
 10
742.628922
 20
377.509058
 30
0.0
 11
742.628922
 21
375.157343
 31
0.0
  0
ARC
  8
52
  5
25B6
 10
743.378922
 20
373.656381
 30
0.0
 40
3.925
 50
78.984018
 51
101.015982
  0
LINE
  8
52
  5
25B7
 10
744.128922
 20
229.509058
 30
0.0
 11
744.128922
 21
227.157343
 31
0.0
  0
ARC
  8
52
  5
25B8
 10
743.378922
 20
225.656381
 30
0.0
 40
3.925
 50
78.984018
 51
101.015982
  0
LINE
  8
52
  5
25B9
 10
742.628922
 20
229.509058
 30
0.0
 11
742.628922
 21
227.157343
 31
0.0
  0
LINE
  8
52
  5
25BA
 10
625.128922
 20
377.509058
 30
0.0
 11
625.128922
 21
375.157343
 31
0.0
  0
ARC
  8
52
  5
25BB
 10
624.378922
 20
373.656381
 30
0.0
 40
3.925
 50
78.984018
 51
101.015982
  0
LINE
  8
52
  5
25BC
 10
623.628922
 20
377.509058
 30
0.0
 11
623.628922
 21
375.157343
 31
0.0
  0
LINE
  8
52
  5
25BD
 10
623.628922
 20
221.803703
 30
0.0
 11
623.628922
 21
224.155419
 31
0.0
  0
LINE
  8
52
  5
25BE
 10
625.128922
 20
221.803703
 30
0.0
 11
625.128922
 21
224.155419
 31
0.0
  0
ARC
  8
52
  5
25BF
 10
624.378922
 20
225.656381
 30
0.0
 40
3.925
 50
258.984018
 51
281.015982
  0
LINE
  8
52
  5
25C0
 10
506.128922
 20
221.803703
 30
0.0
 11
506.128922
 21
224.155419
 31
0.0
  0
LINE
  8
52
  5
25C1
 10
504.628922
 20
221.803703
 30
0.0
 11
504.628922
 21
224.155419
 31
0.0
  0
ARC
  8
52
  5
25C2
 10
505.378922
 20
225.656381
 30
0.0
 40
3.925
 50
258.984018
 51
281.015982
  0
LINE
  8
52
  5
25C3
 10
506.128922
 20
369.803703
 30
0.0
 11
506.128922
 21
372.155419
 31
0.0
  0
LINE
  8
52
  5
25C4
 10
504.628922
 20
369.803703
 30
0.0
 11
504.628922
 21
372.155419
 31
0.0
  0
ARC
  8
52
  5
25C5
 10
505.378922
 20
373.656381
 30
0.0
 40
3.925
 50
258.984018
 51
281.015982
  0
LINE
  8
61
  5
25C6
 10
937.962535
 20
377.509058
 30
0.0
 11
937.962535
 21
375.157343
 31
0.0
  0
LINE
  8
61
  5
25C7
 10
936.462535
 20
377.509058
 30
0.0
 11
936.462535
 21
375.157343
 31
0.0
  0
ARC
  8
61
  5
25C8
 10
937.212535
 20
373.656381
 30
0.0
 40
3.925
 50
78.984018
 51
101.015982
  0
LINE
  8
61
  5
25C9
 10
937.962535
 20
229.509058
 30
0.0
 11
937.962535
 21
227.157343
 31
0.0
  0
LINE
  8
61
  5
25CA
 10
936.462535
 20
229.509058
 30
0.0
 11
936.462535
 21
227.157343
 31
0.0
  0
ARC
  8
61
  5
25CB
 10
937.212535
 20
225.656381
 30
0.0
 40
3.925
 50
78.984018
 51
101.015982
  0
LINE
  8
61
  5
25CC
 10
1056.962535
 20
377.509058
 30
0.0
 11
1056.962535
 21
375.157343
 31
0.0
  0
LINE
  8
61
  5
25CD
 10
1055.462535
 20
377.509058
 30
0.0
 11
1055.462535
 21
375.157343
 31
0.0
  0
ARC
  8
61
  5
25CE
 10
1056.212535
 20
373.656381
 30
0.0
 40
3.925
 50
78.984018
 51
101.015982
  0
LINE
  8
61
  5
25CF
 10
1056.962535
 20
221.803703
 30
0.0
 11
1056.962535
 21
224.155419
 31
0.0
  0
ARC
  8
61
  5
25D0
 10
1056.212535
 20
225.656381
 30
0.0
 40
3.925
 50
258.984018
 51
281.015982
  0
LINE
  8
61
  5
25D1
 10
1055.462535
 20
221.803703
 30
0.0
 11
1055.462535
 21
224.155419
 31
0.0
  0
LINE
  8
61
  5
25D2
 10
1175.962535
 20
221.803703
 30
0.0
 11
1175.962535
 21
224.155419
 31
0.0
  0
LINE
  8
61
  5
25D3
 10
1174.462535
 20
221.803703
 30
0.0
 11
1174.462535
 21
224.155419
 31
0.0
  0
ARC
  8
61
  5
25D4
 10
1175.212535
 20
225.656381
 30
0.0
 40
3.925
 50
258.984018
 51
281.015982
  0
LINE
  8
61
  5
25D5
 10
1175.962535
 20
369.803703
 30
0.0
 11
1175.962535
 21
372.155419
 31
0.0
  0
LINE
  8
61
  5
25D6
 10
1174.462535
 20
369.803703
 30
0.0
 11
1174.462535
 21
372.155419
 31
0.0
  0
ARC
  8
61
  5
25D7
 10
1175.212535
 20
373.656381
 30
0.0
 40
3.925
 50
258.984018
 51
281.015982
  0
LINE
  8
31
  5
25D8
 10
1227.426608
 20
375.453774
 30
0.0
 11
1227.426608
 21
223.858987
 31
0.0
  0
LINE
  8
31
  5
25D9
 10
1230.426608
 20
378.95119
 30
0.0
 11
1230.426608
 21
379.656381
 31
0.0
  0
LINE
  8
21
  5
25DA
 10
935.415142
 20
443.070386
 30
0.0
 11
1177.009929
 21
443.070386
 31
0.0
  0
LINE
  8
21
  5
25DB
 10
1180.507345
 20
446.070386
 30
0.0
 11
1181.212535
 21
446.070386
 31
0.0
  0
LINE
  8
21
  5
25DC
 10
1177.009929
 20
443.070386
 30
0.0
 11
1177.400271
 21
443.070386
 31
0.0
  0
LINE
  8
21
  5
25DD
 10
1177.733018
 20
446.070386
 30
0.0
 11
1056.212535
 21
446.070386
 31
0.0
  0
LINE
  8
23
  6
DASHED
  5
25DE
 10
944.365131
 20
443.367768
 30
0.0
 11
944.51093
 21
492.074749
 31
0.0
  0
ARC
  8
23
  6
DASHED
  5
25DF
 10
945.010911
 20
492.070386
 30
0.0
 40
0.5
 50
90.0
 51
179.5
  0
LINE
  8
21
  5
25E0
 10
934.724845
 20
443.36515
 30
0.0
 11
934.692053
 21
446.070386
 31
0.0
  0
LINE
  8
21
  5
25E1
 10
931.212535
 20
446.070386
 30
0.0
 11
931.378346
 21
495.070424
 31
0.0
  0
LINE
  8
21
  5
25E2
 10
931.378346
 20
495.070424
 30
0.0
 11
932.387073
 21
496.070386
 31
0.0
  0
LINE
  8
21
  5
25E3
 10
931.917726
 20
446.070386
 30
0.0
 11
931.212535
 21
446.070386
 31
0.0
  0
LINE
  8
21
  5
25E4
 10
934.712535
 20
446.070386
 30
0.0
 11
931.917726
 21
446.070386
 31
0.0
  0
LINE
  8
21
  5
25E5
 10
935.415142
 20
443.070386
 30
0.0
 11
935.0248
 21
443.070386
 31
0.0
  0
ARC
  8
21
  5
25E6
 10
935.0248
 20
443.370386
 30
0.0
 40
0.3
 50
181.0
 51
270.0
  0
LINE
  8
21
  5
25E7
 10
934.692053
 20
446.070386
 30
0.0
 11
1056.212535
 21
446.070386
 31
0.0
  0
LINE
  8
31
  5
25E8
 10
1230.426608
 20
376.176863
 30
0.0
 11
1230.426608
 21
299.656381
 31
0.0
  0
LINE
  8
31
  5
25E9
 10
1230.426608
 20
219.656381
 30
0.0
 11
1279.426647
 21
219.822192
 31
0.0
  0
LINE
  8
33
  6
DASHED
  5
25EA
 10
1227.723988
 20
241.808976
 30
0.0
 11
1276.430972
 21
241.954776
 31
0.0
  0
LINE
  8
31
  5
25EB
 10
1227.721373
 20
223.168691
 30
0.0
 11
1230.426608
 21
223.135898
 31
0.0
  0
LINE
  8
31
  5
25EC
 10
1227.426608
 20
223.468645
 30
0.0
 11
1227.426608
 21
223.858987
 31
0.0
  0
ARC
  8
31
  5
25ED
 10
1227.726608
 20
223.468645
 30
0.0
 40
0.3
 50
180.0
 51
269.0
  0
LINE
  8
31
  5
25EE
 10
1230.426608
 20
220.361572
 30
0.0
 11
1230.426608
 21
219.656381
 31
0.0
  0
LINE
  8
31
  5
25EF
 10
1230.426608
 20
223.156381
 30
0.0
 11
1230.426608
 21
220.361572
 31
0.0
  0
LINE
  8
31
  5
25F0
 10
1280.426608
 20
220.830918
 30
0.0
 11
1279.426647
 21
219.822192
 31
0.0
  0
ARC
  8
33
  6
DASHED
  5
25F1
 10
1276.426608
 20
242.454757
 30
0.0
 40
0.5
 50
270.5
 51
0.0
  0
LINE
  8
31
  5
25F2
 10
1230.426608
 20
223.135898
 30
0.0
 11
1230.426608
 21
299.656381
 31
0.0
  0
LINE
  8
53
  5
25F3
 10
496.378922
 20
299.656381
 30
0.0
 11
747.878922
 21
299.656381
 31
0.0
  0
LINE
  8
53
  5
25F4
 10
624.378922
 20
382.656381
 30
0.0
 11
624.378922
 21
216.656381
 31
0.0
  0
LINE
  8
21
  5
25F5
 10
931.378346
 20
495.070424
 30
0.0
 11
1181.046725
 21
495.070424
 31
0.0
  0
LINE
  8
11
  5
25F6
 10
931.378346
 20
104.242338
 30
0.0
 11
1181.046725
 21
104.242338
 31
0.0
  0
LINE
  8
13
  6
DASHED
  5
25F7
 10
945.010911
 20
106.742376
 30
0.0
 11
1167.41416
 21
106.742376
 31
0.0
  0
LINE
  8
11
  5
25F8
 10
934.692053
 20
153.242376
 30
0.0
 11
1056.212535
 21
153.242376
 31
0.0
  0
LINE
  8
11
  5
25F9
 10
935.415142
 20
156.242376
 30
0.0
 11
1177.009929
 21
156.242376
 31
0.0
  0
LINE
  8
11
  5
25FA
 10
932.387073
 20
103.242376
 30
0.0
 11
1180.037998
 21
103.242376
 31
0.0
  0
LINE
  8
11
  5
25FB
 10
931.212535
 20
153.242376
 30
0.0
 11
931.378346
 21
104.242338
 31
0.0
  0
LINE
  8
13
  6
DASHED
  5
25FC
 10
944.365131
 20
155.944994
 30
0.0
 11
944.51093
 21
107.238012
 31
0.0
  0
ARC
  8
11
  5
25FD
 10
935.0248
 20
155.942376
 30
0.0
 40
0.3
 50
90.0
 51
179.0
  0
LINE
  8
11
  5
25FE
 10
935.415142
 20
156.242376
 30
0.0
 11
935.0248
 21
156.242376
 31
0.0
  0
LINE
  8
11
  5
25FF
 10
934.712535
 20
153.242376
 30
0.0
 11
931.917726
 21
153.242376
 31
0.0
  0
LINE
  8
11
  5
2600
 10
931.917726
 20
153.242376
 30
0.0
 11
931.212535
 21
153.242376
 31
0.0
  0
LINE
  8
11
  5
2601
 10
934.724845
 20
155.947611
 30
0.0
 11
934.692053
 21
153.242376
 31
0.0
  0
ARC
  8
13
  6
DASHED
  5
2602
 10
945.010911
 20
107.242376
 30
0.0
 40
0.5
 50
180.5
 51
270.0
  0
LINE
  8
11
  5
2603
 10
931.378346
 20
104.242338
 30
0.0
 11
932.387073
 21
103.242376
 31
0.0
  0
LINE
  8
11
  5
2604
 10
1177.733018
 20
153.242376
 30
0.0
 11
1056.212535
 21
153.242376
 31
0.0
  0
LINE
  8
13
  5
2605
 10
1056.212535
 20
97.587489
 30
0.0
 11
1056.212535
 21
159.819111
 31
0.0
  0
LINE
  8
13
  6
DASHED
  5
2606
 10
1049.20994
 20
155.944994
 30
0.0
 11
1049.06241
 21
107.039758
 31
0.0
  0
ARC
  8
13
  6
DASHED
  5
2607
 10
1048.762422
 20
107.042376
 30
0.0
 40
0.3
 50
270.0
 51
359.5
  0
LINE
  8
13
  6
DASHED
  5
2608
 10
1063.215131
 20
155.944994
 30
0.0
 11
1063.36266
 21
107.039758
 31
0.0
  0
ARC
  8
13
  6
DASHED
  5
2609
 10
1063.662649
 20
107.042376
 30
0.0
 40
0.3
 50
180.5
 51
270.0
  0
LINE
  8
13
  6
DASHED
  5
260A
 10
1168.05994
 20
155.944994
 30
0.0
 11
1167.914141
 21
107.238012
 31
0.0
  0
ARC
  8
13
  6
DASHED
  5
260B
 10
1167.41416
 20
107.242376
 30
0.0
 40
0.5
 50
270.0
 51
359.5
  0
LINE
  8
11
  5
260C
 10
1181.212535
 20
153.242376
 30
0.0
 11
1181.046725
 21
104.242338
 31
0.0
  0
LINE
  8
11
  5
260D
 10
1177.009929
 20
156.242376
 30
0.0
 11
1177.400271
 21
156.242376
 31
0.0
  0
ARC
  8
11
  5
260E
 10
1177.400271
 20
155.942376
 30
0.0
 40
0.3
 50
1.0
 51
90.0
  0
LINE
  8
11
  5
260F
 10
1180.507345
 20
153.242376
 30
0.0
 11
1181.212535
 21
153.242376
 31
0.0
  0
LINE
  8
11
  5
2610
 10
1177.712535
 20
153.242376
 30
0.0
 11
1180.507345
 21
153.242376
 31
0.0
  0
LINE
  8
11
  5
2611
 10
1177.700225
 20
155.947611
 30
0.0
 11
1177.733018
 21
153.242376
 31
0.0
  0
LINE
  8
11
  5
2612
 10
1181.046725
 20
104.242338
 30
0.0
 11
1180.037998
 21
103.242376
 31
0.0
  0
LINE
  8
31
  5
2613
 10
1279.426647
 20
379.49057
 30
0.0
 11
1279.426647
 21
219.822192
 31
0.0
  0
LINE
  8
41
  5
2614
 10
832.998424
 20
379.49057
 30
0.0
 11
832.998424
 21
219.822192
 31
0.0
  0
LINE
  8
41
  5
2615
 10
881.998462
 20
223.135898
 30
0.0
 11
881.998462
 21
299.656381
 31
0.0
  0
LINE
  8
43
  6
DASHED
  5
2616
 10
835.498462
 20
356.858005
 30
0.0
 11
835.498462
 21
242.454757
 31
0.0
  0
LINE
  8
41
  5
2617
 10
884.998462
 20
375.453774
 30
0.0
 11
884.998462
 21
223.858987
 31
0.0
  0
LINE
  8
41
  5
2618
 10
831.998462
 20
378.481843
 30
0.0
 11
831.998462
 21
220.830918
 31
0.0
  0
LINE
  8
41
  5
2619
 10
881.998462
 20
219.656381
 30
0.0
 11
832.998424
 21
219.822192
 31
0.0
  0
ARC
  8
43
  6
DASHED
  5
261A
 10
835.998462
 20
242.454757
 30
0.0
 40
0.5
 50
180.0
 51
269.5
  0
LINE
  8
41
  5
261B
 10
881.998462
 20
223.156381
 30
0.0
 11
881.998462
 21
220.361572
 31
0.0
  0
LINE
  8
41
  5
261C
 10
881.998462
 20
220.361572
 30
0.0
 11
881.998462
 21
219.656381
 31
0.0
  0
LINE
  8
41
  5
261D
 10
884.703698
 20
223.168691
 30
0.0
 11
881.998462
 21
223.135898
 31
0.0
  0
LINE
  8
41
  5
261E
 10
884.998462
 20
223.468645
 30
0.0
 11
884.998462
 21
223.858987
 31
0.0
  0
ARC
  8
41
  5
261F
 10
884.698462
 20
223.468645
 30
0.0
 40
0.3
 50
271.0
 51
0.0
  0
LINE
  8
43
  6
DASHED
  5
2620
 10
884.701082
 20
241.808976
 30
0.0
 11
835.994099
 21
241.954776
 31
0.0
  0
LINE
  8
41
  5
2621
 10
831.998462
 20
220.830918
 30
0.0
 11
832.998424
 21
219.822192
 31
0.0
  0
LINE
  8
41
  5
2622
 10
881.998462
 20
376.176863
 30
0.0
 11
881.998462
 21
299.656381
 31
0.0
  0
LINE
  8
43
  5
2623
 10
826.64253
 20
299.656381
 30
0.0
 11
888.575197
 21
299.656381
 31
0.0
  0
ARC
  8
43
  6
DASHED
  5
2624
 10
835.998462
 20
356.858005
 30
0.0
 40
0.5
 50
90.5
 51
180.0
  0
LINE
  8
41
  5
2625
 10
881.998462
 20
379.656381
 30
0.0
 11
832.998424
 21
379.49057
 31
0.0
  0
LINE
  8
43
  6
DASHED
  5
2626
 10
884.701082
 20
357.503786
 30
0.0
 11
835.994099
 21
357.357986
 31
0.0
  0
LINE
  8
41
  5
2627
 10
881.998462
 20
376.156381
 30
0.0
 11
881.998462
 21
378.95119
 31
0.0
  0
ARC
  8
41
  5
2628
 10
884.698462
 20
375.844117
 30
0.0
 40
0.3
 50
0.0
 51
89.0
  0
LINE
  8
41
  5
2629
 10
884.998462
 20
375.844117
 30
0.0
 11
884.998462
 21
375.453774
 31
0.0
  0
LINE
  8
41
  5
262A
 10
884.703698
 20
376.144071
 30
0.0
 11
881.998462
 21
376.176863
 31
0.0
  0
LINE
  8
41
  5
262B
 10
881.998462
 20
378.95119
 30
0.0
 11
881.998462
 21
379.656381
 31
0.0
  0
LINE
  8
41
  5
262C
 10
831.998462
 20
378.481843
 30
0.0
 11
832.998424
 21
379.49057
 31
0.0
  0
LINE
  8
63
  5
262D
 10
1056.212535
 20
382.656381
 30
0.0
 11
1056.212535
 21
216.656381
 31
0.0
  0
TEXT
  8
L20
  5
262E
 10
528.53978
 20
452.956206
 30
0.0
 40
9.451763
  1
FIBOX EURONORM II PLASTIC 160x250x50 COVER
  7
TKKISO
  0
ENDBLK
  8
0
  5
262F
  0
ENDSEC
  0
SECTION
  2
ENTITIES
  0
VIEWPORT
  8
0
  5
1
 67
     1
 68
     1
 10
210.0
 20
152.094241
 30
0.0
 40
420.0
 41
304.188482
 69
     1
1001
ACAD
1000
MVIEW
1002
{
1070
    16
1010
0.0
1020
0.0
1030
0.0
1010
0.0
1020
0.0
1030
1.0
1040
0.0
1040
304.188482
1040
210.0
1040
152.094241
1040
50.0
1040
0.0
1040
0.0
1070
     0
1070
   100
1070
     1
1070
     1
1070
     1
1070
     0
1070
     0
1070
     0
1040
0.0
1040
0.0
1040
0.0
1040
1.0
1040
1.0
1040
0.0
1040
0.0
1070
     0
1002
{
1002
}
1002
}
  0
INSERT
  8
L1
  5
2630
  2
162505C
 10
0.0
 20
0.0
 30
0.0
  0
ENDSEC
  0
EOF
