  0
SECTION
  2
HEADER
  9
$ACADVER
  1
AC1009
  9
$INSBASE
 10
0.0
 20
0.0
 30
0.0
  9
$EXTMIN
 10
210.5075092792803
 20
-2.1111111643283489
 30
0.0
  9
$EXTMAX
 10
900.40022310807626
 20
303.16317065350131
 30
0.0
  9
$LIMMIN
 10
0.0
 20
0.0
  9
$LIMMAX
 10
0.0
 20
0.0
  9
$ORTHOMODE
 70
     1
  9
$REGENMODE
 70
     1
  9
$FILLMODE
 70
     1
  9
$QTEXTMODE
 70
     0
  9
$MIRRTEXT
 70
     1
  9
$DRAGMODE
 70
     2
  9
$LTSCALE
 40
1.0
  9
$OSMODE
 70
    37
  9
$ATTMODE
 70
     1
  9
$TEXTSIZE
 40
0.0
  9
$TRACEWID
 40
0.05
  9
$TEXTSTYLE
  7
STANDARD
  9
$CLAYER
  8
0
  9
$CELTYPE
  6
CONTINUOUS
  9
$CECOLOR
 62
   256
  9
$DIMSCALE
 40
1.0
  9
$DIMASZ
 40
0.0
  9
$DIMEXO
 40
0.0
  9
$DIMDLI
 40
0.38
  9
$DIMRND
 40
0.0
  9
$DIMDLE
 40
0.0
  9
$DIMEXE
 40
0.18
  9
$DIMTP
 40
0.0
  9
$DIMTM
 40
0.0
  9
$DIMTXT
 40
3.5
  9
$DIMCEN
 40
0.09
  9
$DIMTSZ
 40
0.0
  9
$DIMTOL
 70
     0
  9
$DIMLIM
 70
     0
  9
$DIMTIH
 70
     1
  9
$DIMTOH
 70
     1
  9
$DIMSE1
 70
     0
  9
$DIMSE2
 70
     0
  9
$DIMTAD
 70
     1
  9
$DIMZIN
 70
     0
  9
$DIMBLK
  1

  9
$DIMASO
 70
     1
  9
$DIMSHO
 70
     1
  9
$DIMPOST
  1

  9
$DIMAPOST
  1

  9
$DIMALT
 70
     0
  9
$DIMALTD
 70
     2
  9
$DIMALTF
 40
0.0394
  9
$DIMLFAC
 40
1.0
  9
$DIMTOFL
 70
     0
  9
$DIMTVP
 40
0.0
  9
$DIMTIX
 70
     0
  9
$DIMSOXD
 70
     0
  9
$DIMSAH
 70
     0
  9
$DIMBLK1
  1

  9
$DIMBLK2
  1

  9
$DIMSTYLE
  2
STANDARD
  9
$DIMCLRD
 70
     0
  9
$DIMCLRE
 70
     0
  9
$DIMCLRT
 70
     0
  9
$DIMTFAC
 40
1.0
  9
$DIMGAP
 40
0.0
  9
$LUNITS
 70
     2
  9
$LUPREC
 70
     2
  9
$SKETCHINC
 40
0.1
  9
$FILLETRAD
 40
0.0
  9
$AUNITS
 70
     0
  9
$AUPREC
 70
     2
  9
$MENU
  1
acad
  9
$ELEVATION
 40
0.0
  9
$PELEVATION
 40
0.0
  9
$THICKNESS
 40
0.0
  9
$LIMCHECK
 70
     0
  9
$BLIPMODE
 70
     0
  9
$CHAMFERA
 40
0.0
  9
$CHAMFERB
 40
0.0
  9
$SKPOLY
 70
     0
  9
$TDCREATE
 40
2444972.125
  9
$TDUPDATE
 40
2453620.4611100578
  9
$TDINDWG
 40
0.0224393056
  9
$TDUSRTIMER
 40
0.0224393056
  9
$USRTIMER
 70
     1
  9
$ANGBASE
 50
0.0
  9
$ANGDIR
 70
     0
  9
$PDMODE
 70
     0
  9
$PDSIZE
 40
-1.0
  9
$PLINEWID
 40
0.0
  9
$COORDS
 70
     2
  9
$SPLFRAME
 70
     0
  9
$SPLINETYPE
 70
     6
  9
$SPLINESEGS
 70
     8
  9
$ATTDIA
 70
     0
  9
$ATTREQ
 70
     1
  9
$HANDLING
 70
-16383
  9
$HANDSEED
  5
1699
  9
$SURFTAB1
 70
     6
  9
$SURFTAB2
 70
     6
  9
$SURFTYPE
 70
     6
  9
$SURFU
 70
     6
  9
$SURFV
 70
     6
  9
$UCSNAME
  2

  9
$UCSORG
 10
0.0
 20
0.0
 30
0.0
  9
$UCSXDIR
 10
1.0
 20
0.0
 30
0.0
  9
$UCSYDIR
 10
0.0
 20
1.0
 30
0.0
  9
$PUCSNAME
  2

  9
$PUCSORG
 10
0.0
 20
0.0
 30
0.0
  9
$PUCSXDIR
 10
1.0
 20
0.0
 30
0.0
  9
$PUCSYDIR
 10
0.0
 20
1.0
 30
0.0
  9
$USERI1
 70
     0
  9
$USERI2
 70
     0
  9
$USERI3
 70
     0
  9
$USERI4
 70
     0
  9
$USERI5
 70
     0
  9
$USERR1
 40
0.0
  9
$USERR2
 40
0.0
  9
$USERR3
 40
0.0
  9
$USERR4
 40
0.0
  9
$USERR5
 40
0.0
  9
$WORLDVIEW
 70
     1
  9
$SHADEDGE
 70
     3
  9
$SHADEDIF
 70
    70
  9
$TILEMODE
 70
     1
  9
$MAXACTVP
 70
    16
  9
$PLIMCHECK
 70
     0
  9
$PEXTMIN
 10
1.0000000000000000E+020
 20
1.0000000000000000E+020
 30
1.0000000000000000E+020
  9
$PEXTMAX
 10
-1.0000000000000000E+020
 20
-1.0000000000000000E+020
 30
-1.0000000000000000E+020
  9
$PLIMMIN
 10
0.0
 20
0.0
  9
$PLIMMAX
 10
12.0
 20
9.0
  9
$UNITMODE
 70
     0
  9
$VISRETAIN
 70
     0
  9
$PLINEGEN
 70
     1
  9
$PSLTSCALE
 70
     1
  0
ENDSEC
  0
SECTION
  2
TABLES
  0
TABLE
  2
VPORT
 70
     2
  0
VPORT
  2
*ACTIVE
 70
     0
 10
0.0
 20
0.0
 11
1.0
 21
1.0
 12
555.50133448099666
 22
150.53189901853361
 13
0.0
 23
0.0
 14
1.0
 24
1.0
 15
0.0
 25
0.0
 16
0.0
 26
0.0
 36
1.0
 17
0.0
 27
0.0
 37
0.0
 40
445.5134913140555
 41
1.5552208835341359
 42
50.0
 43
0.0
 44
0.0
 50
0.0
 51
0.0
 71
     0
 72
  2000
 73
     1
 74
     1
 75
     0
 76
     0
 77
     0
 78
     0
  0
ENDTAB
  0
TABLE
  2
LTYPE
 70
     3
  0
LTYPE
  2
CONTINUOUS
 70
     0
  3
Solid line
 72
    65
 73
     0
 40
0.0
  0
LTYPE
  2
HIDDEN
 70
     0
  3
Hidden __ __ __ __ __ __ __ __ __ __ __ __ __ __
 72
    65
 73
     2
 40
1.905
 49
1.27
 49
-0.635
  0
LTYPE
  2
CENTER
 70
     0
  3
Center ____ _ ____ _ ____ _ ____ _ ____ _ ____
 72
    65
 73
     4
 40
10.16
 49
6.3499999999999988
 49
-1.27
 49
1.27
 49
-1.27
  0
ENDTAB
  0
TABLE
  2
LAYER
 70
     4
  0
LAYER
  2
0
 70
     0
 62
     7
  6
CONTINUOUS
  0
LAYER
  2
DEFPOINTS
 70
     0
 62
     7
  6
CONTINUOUS
  0
LAYER
  2
L1
 70
     0
 62
     7
  6
CONTINUOUS
  0
LAYER
  2
L6
 70
     0
 62
     1
  6
CENTER
  0
ENDTAB
  0
TABLE
  2
STYLE
 70
     2
  0
STYLE
  2
STANDARD
 70
     0
 40
0.0
 41
1.0
 50
0.0
 71
     0
 42
0.0
  3
txt
  4

  0
STYLE
  2
TKKISO
 70
     0
 40
0.0
 41
1.0
 50
0.0
 71
     0
 42
3.5
  3
caeiso
  4

  0
ENDTAB
  0
TABLE
  2
VIEW
 70
     0
  0
ENDTAB
  0
TABLE
  2
UCS
 70
     0
  0
ENDTAB
  0
TABLE
  2
APPID
 70
     2
  0
APPID
  2
ACAD
 70
     0
  0
APPID
  2
DCO15
 70
     0
  0
ENDTAB
  0
TABLE
  2
DIMSTYLE
 70
     1
  0
DIMSTYLE
  2
STANDARD
 70
     0
  3

  4

  5

  6

  7

 40
1.0
 41
0.18
 42
0.0625
 43
0.38
 44
0.18
 45
0.0
 46
0.0
 47
0.0
 48
0.0
140
0.18
141
0.09
142
0.0
143
25.399999999999999
144
1.0
145
0.0
146
1.0
147
0.09
 71
     0
 72
     0
 73
     1
 74
     1
 75
     0
 76
     0
 77
     0
 78
     0
170
     0
171
     2
172
     0
173
     0
174
     0
175
     0
176
     0
177
     0
178
     0
  0
ENDTAB
  0
ENDSEC
  0
SECTION
  2
BLOCKS
  0
BLOCK
  8
0
  2
$MODEL_SPACE
 70
     0
 10
0.0
 20
0.0
 30
0.0
  3
$MODEL_SPACE
  1

  0
ENDBLK
  5
E
  8
0
  0
BLOCK
 67
     1
  8
0
  2
$PAPER_SPACE
 70
     0
 10
0.0
 20
0.0
 30
0.0
  3
$PAPER_SPACE
  1

  0
ENDBLK
  5
10
 67
     1
  8
0
  0
ENDSEC
  0
SECTION
  2
ENTITIES
  0
ARC
  5
97
  8
0
  6
CONTINUOUS
 62
     7
 10
590.0070035045735
 20
223.43002442942799
 30
0.0
 40
4.1974156870927102
 50
258.2854041305385
 51
41.714595869448551
  0
ARC
  5
A8
  8
0
  6
CONTINUOUS
 62
     7
 10
588.98453563047588
 20
219.56704129856291
 30
0.0
 40
0.2999876349438618
 50
255.17446419985339
 51
304.5749830166331
  0
ARC
  5
B7
  8
0
  6
CONTINUOUS
 62
     7
 10
591.02947137867579
 20
227.29300756024969
 30
0.0
 40
0.2999876349823151
 50
75.174464204523218
 51
124.57498301269131
  0
ARC
  5
C5
  8
0
  6
CONTINUOUS
 62
     7
 10
590.0070035045735
 20
223.43002442942799
 30
0.0
 40
4.1974156870926418
 50
78.285404130539987
 51
221.71459586944749
  0
ARC
  5
F4
  8
0
  6
CONTINUOUS
 62
     7
 10
587.17279294073114
 20
220.6130486202473
 30
0.0
 40
0.2999847562220651
 50
175.4247640930331
 51
224.8257886902484
  0
ARC
  5
13B
  8
0
  6
CONTINUOUS
 62
     7
 10
592.84121406921645
 20
226.2470002389222
 30
0.0
 40
0.2999847554424658
 50
355.42476402105149
 51
44.825788753826139
  0
ARC
  5
1A7
  8
0
  6
CONTINUOUS
 62
     7
 10
704.5070035045735
 20
223.43002442942799
 30
0.0
 40
4.197415687092187
 50
18.697675649777189
 51
161.30232435022361
  0
ARC
  5
1AD
  8
0
  6
CONTINUOUS
 62
     7
 10
704.5070035045735
 20
223.43002442942799
 30
0.0
 40
4.1974156870921684
 50
198.69767564977559
 51
341.30232435022509
  0
ARC
  5
209
  8
0
  6
CONTINUOUS
 62
     7
 10
700.54680620201702
 20
224.47603455421799
 30
0.0
 40
0.2999853093519564
 50
92.998574904970909
 51
165.20480823299451
  0
ARC
  5
20F
  8
0
  6
CONTINUOUS
 62
     7
 10
708.46720080714465
 20
222.38401430464131
 30
0.0
 40
0.2999853093422153
 50
272.99857485741637
 51
345.20480823184153
  0
ARC
  5
213
  8
0
  6
CONTINUOUS
 62
     7
 10
708.46720075358724
 20
224.47603448833561
 30
0.0
 40
0.2999853779435309
 50
14.79520132155219
 51
87.001415546059889
  0
ARC
  5
219
  8
0
  6
CONTINUOUS
 62
     7
 10
700.54680625554363
 20
222.38401437051809
 30
0.0
 40
0.2999853779295209
 50
194.79520132180889
 51
267.0014155886322
  0
POLYLINE
  5
221
  8
0
  6
CONTINUOUS
 62
     7
 66
     1
 10
0.0
 20
0.0
 30
0.0
 70
   128
  0
VERTEX
  5
1679
  8
0
  6
CONTINUOUS
 62
     7
 10
592.78137052264776
 20
226.54245927600479
 30
0.0
  0
VERTEX
  5
167A
  8
0
  6
CONTINUOUS
 62
     7
 10
592.85511346305611
 20
226.4749031460349
 30
0.0
  0
VERTEX
  5
167B
  8
0
  6
CONTINUOUS
 62
     7
 10
592.88955301402564
 20
226.4420301964285
 30
0.0
  0
SEQEND
  5
167C
  8
0
  6
CONTINUOUS
 62
     7
  0
ARC
  5
226
  8
0
  6
CONTINUOUS
 62
     7
 10
590.0070035045735
 20
223.43002442942799
 30
0.0
 40
4.1694559627323464
 50
48.286777506715268
 51
73.746182586173617
  0
ARC
  5
227
  8
0
  6
CONTINUOUS
 62
     7
 10
590.0070035045735
 20
223.43002442942799
 30
0.0
 40
4.2959955456983669
 50
44.825299002545329
 51
75.174700997456384
  0
ARC
  5
238
  8
0
  6
CONTINUOUS
 62
     7
 10
590.0070035045735
 20
223.43002442942799
 30
0.0
 40
4.1694559627323446
 50
226.25381741382711
 51
253.74618258617289
  0
ARC
  5
239
  8
0
  6
CONTINUOUS
 62
     7
 10
590.0070035045735
 20
223.43002442942799
 30
0.0
 40
4.2959955456983669
 50
224.8252990025434
 51
255.17470099745549
  0
ARC
  5
247
  8
0
  6
CONTINUOUS
 62
     7
 10
704.5070035045735
 20
223.43002442942799
 30
0.0
 40
4.3959955456983559
 50
345.20434961923621
 51
14.795650380765441
  0
ARC
  5
24B
  8
0
  6
CONTINUOUS
 62
     7
 10
704.5070035045735
 20
223.43002442942799
 30
0.0
 40
4.3959955456983559
 50
165.2043496192353
 51
194.79565038076461
  0
LINE
  5
24D
  8
0
  6
CONTINUOUS
 62
     7
 10
584.29750178421
 20
225.0300244294279
 30
0.0
 11
584.29750178421
 21
72.830024429428079
 31
0.0
  0
LINE
  5
24E
  8
0
  6
CONTINUOUS
 62
     7
 10
582.64090562819706
 20
72.830024429428079
 30
0.0
 11
582.64090562819706
 21
225.0300244294279
 31
0.0
  0
ARC
  5
257
  8
0
  6
CONTINUOUS
 62
     7
 10
588.40700350457359
 20
225.0300244294279
 30
0.0
 40
4.1095017203635393
 50
90.0
 51
180.0
  0
ARC
  5
258
  8
0
  6
CONTINUOUS
 62
     7
 10
588.40700350457359
 20
225.0300244294279
 30
0.0
 40
5.7660978763764774
 50
90.0
 51
180.0
  0
LINE
  5
25C
  8
0
  6
CONTINUOUS
 62
     7
 10
820.60700350457353
 20
229.13952614979141
 30
0.0
 11
588.40700350457359
 21
229.13952614979141
 31
0.0
  0
LINE
  5
25D
  8
0
  6
CONTINUOUS
 62
     7
 10
588.40700350457359
 20
230.7961223058044
 30
0.0
 11
820.60700350457353
 21
230.79612230580429
 31
0.0
  0
LINE
  5
333
  8
0
  6
CONTINUOUS
 62
     7
 10
820.60700350457353
 20
231.03002442942801
 30
0.0
 11
588.40700350457359
 21
231.0300244294279
 31
0.0
  0
ARC
  5
335
  8
0
  6
CONTINUOUS
 62
     7
 10
588.40700350457359
 20
225.0300244294279
 30
0.0
 40
6.0
 50
90.0
 51
180.0
  0
LINE
  5
33A
  8
0
  6
CONTINUOUS
 62
     7
 10
582.40700350457348
 20
225.0300244294279
 30
0.0
 11
582.40700350457348
 21
72.830024429428079
 31
0.0
  0
ARC
  5
351
  8
0
  6
CONTINUOUS
 62
     7
 10
704.5070035045735
 20
223.43002442942799
 30
0.0
 40
4.165092528836972
 50
166.30457890820711
 51
180.2925192301706
  0
LINE
  5
3DB
  8
0
  6
CONTINUOUS
 62
     7
 10
708.67640512825631
 20
223.408737682474
 30
0.0
 11
708.6720417512289
 21
223.4087599597303
 31
0.0
  0
ARC
  5
3DC
  8
0
  6
CONTINUOUS
 62
     7
 10
704.5070035045735
 20
223.43002442942799
 30
0.0
 40
4.1650925288370013
 50
359.70748076983011
 51
13.69542109179354
  0
LINE
  5
40A
  8
0
  6
CONTINUOUS
 62
     7
 10
705.39865717299995
 20
224.89511695826491
 30
0.0
 11
703.61534983614695
 21
224.89511695826491
 31
0.0
  0
LINE
  5
411
  8
0
  6
CONTINUOUS
 62
     7
 10
590.83315157764753
 20
221.92204294110269
 30
0.0
 11
591.72602781843693
 21
223.4685499550209
 31
0.0
  0
ARC
  5
41C
  8
0
  6
CONTINUOUS
 62
     7
 10
704.5070035045735
 20
223.43002442942799
 30
0.0
 40
1.7150925288369749
 50
121.32464691459219
 51
144.9023606294368
  0
ARC
  5
430
  8
0
  6
CONTINUOUS
 62
     7
 10
590.0070035045735
 20
223.43002442942799
 30
0.0
 40
1.719455962732934
 50
1.283856519743702
 51
24.438300782421109
  0
LINE
  5
431
  8
0
  6
CONTINUOUS
 62
     7
 10
591.57386207920808
 20
224.14131516500001
 30
0.0
 11
591.57240877791685
 21
224.14138589729549
 31
0.0
  0
ARC
  5
44F
  8
0
  6
CONTINUOUS
 62
     7
 10
704.5070035045735
 20
223.43002442942799
 30
0.0
 40
1.715092528836994
 50
35.097639370563563
 51
58.675353085407536
  0
LINE
  5
452
  8
0
  6
CONTINUOUS
 62
     7
 10
705.91091863522365
 20
224.4174477893948
 30
0.0
 11
705.91024660286701
 21
224.4161538274098
 31
0.0
  0
LINE
  5
456
  8
0
  6
CONTINUOUS
 62
     7
 10
703.61534983614695
 20
221.96493190059101
 30
0.0
 11
703.6124184694354
 21
221.9544596592421
 31
0.0
  0
LINE
  5
457
  8
0
  6
CONTINUOUS
 62
     7
 10
703.61534983614695
 20
221.96493190059101
 30
0.0
 11
705.39865717299995
 21
221.96493190059101
 31
0.0
  0
ARC
  5
45A
  8
0
  6
CONTINUOUS
 62
     7
 10
704.5070035045735
 20
223.43002442942799
 30
0.0
 40
1.7150925288369601
 50
215.66597974870541
 51
238.67535308540849
  0
ARC
  5
45F
  8
0
  6
CONTINUOUS
 62
     7
 10
590.0070035045735
 20
223.43002442942799
 30
0.0
 40
1.7194559627323649
 50
95.561699217606517
 51
118.7161434802604
  0
LINE
  5
46F
  8
0
  6
CONTINUOUS
 62
     7
 10
589.18085543149937
 20
224.93800591775329
 30
0.0
 11
588.28797919070996
 21
223.3914989038349
 31
0.0
  0
ARC
  5
475
  8
0
  6
CONTINUOUS
 62
     7
 10
704.5070035045735
 20
223.43002442942799
 30
0.0
 40
1.7150925288369749
 50
301.32464691459302
 51
324.33402025129573
  0
LINE
  5
476
  8
0
  6
CONTINUOUS
 62
     7
 10
705.90105981174645
 20
222.4287304674429
 30
0.0
 11
705.90039590532513
 21
222.4300244294279
 31
0.0
  0
ARC
  5
47D
  8
0
  6
CONTINUOUS
 62
     7
 10
590.0070035045735
 20
223.43002442942799
 30
0.0
 40
1.7194559627323129
 50
275.56169921760909
 51
298.71614348025798
  0
LINE
  5
47E
  8
0
  6
CONTINUOUS
 62
     7
 10
590.17443694540918
 20
221.71743973187139
 30
0.0
 11
590.17364903879923
 21
221.71866296156139
 31
0.0
  0
ARC
  5
481
  8
0
  6
CONTINUOUS
 62
     7
 10
590.0070035045735
 20
223.43002442942799
 30
0.0
 40
1.719455962732354
 50
181.2838565197433
 51
204.43830078239159
  0
LINE
  5
482
  8
0
  6
CONTINUOUS
 62
     7
 10
588.44014492993915
 20
222.71873369385651
 30
0.0
 11
588.44159823123039
 21
222.71866296156139
 31
0.0
  0
LINE
  5
498
  8
0
  6
CONTINUOUS
 62
     7
 10
591.57386207920808
 20
224.14131516500001
 30
0.0
 11
592.89846454655822
 21
226.4355939382813
 31
0.0
  0
LINE
  5
49D
  8
0
  6
CONTINUOUS
 62
     7
 10
591.16417253108807
 20
227.4368879002663
 30
0.0
 11
589.83957006373771
 21
225.14260912698441
 31
0.0
  0
LINE
  5
4AA
  8
0
  6
CONTINUOUS
 62
     7
 10
590.17364903879923
 20
221.71866296156139
 30
0.0
 11
588.84922159420898
 21
219.42468733659251
 31
0.0
  0
LINE
  5
4AE
  8
0
  6
CONTINUOUS
 62
     7
 10
589.84035797034778
 20
225.1413858972945
 30
0.0
 11
591.16478541493791
 21
227.43536152226341
 31
0.0
  0
LINE
  5
4B0
  8
0
  6
CONTINUOUS
 62
     7
 10
587.11717078664014
 20
220.42468733659251
 30
0.0
 11
588.44159823123039
 21
222.71866296156139
 31
0.0
  0
LINE
  5
4B8
  8
0
  6
CONTINUOUS
 62
     7
 10
592.89683622250675
 20
226.43536152226341
 30
0.0
 11
591.57240877791685
 21
224.14138589729549
 31
0.0
  0
ARC
  5
4BE
  8
0
  6
CONTINUOUS
 62
     7
 10
707.47211540520493
 20
223.4148712505197
 30
0.0
 40
1.1999419084937699
 50
304.83524350304759
 51
359.70819197089412
  0
ARC
  5
4C4
  8
0
  6
CONTINUOUS
 62
     7
 10
701.54189160033843
 20
223.41487124827009
 30
0.0
 40
1.1999419048777169
 50
180.29180792257
 51
235.16244428095649
  0
LINE
  5
4C6
  8
0
  6
CONTINUOUS
 62
     7
 10
705.90105981174645
 20
222.4287304674429
 30
0.0
 11
708.15778959819033
 21
222.4287304674429
 31
0.0
  0
LINE
  5
4D4
  8
0
  6
CONTINUOUS
 62
     7
 10
703.113611103822
 20
222.4300244294279
 30
0.0
 11
700.85651295011553
 21
222.4300244294279
 31
0.0
  0
LINE
  5
4D5
  8
0
  6
CONTINUOUS
 62
     7
 10
708.15738390206832
 20
222.4300244294279
 30
0.0
 11
705.90039590532513
 21
222.4300244294279
 31
0.0
  0
LINE
  5
4D7
  8
0
  6
CONTINUOUS
 62
     7
 10
700.46033270202361
 20
224.4161538274098
 30
0.0
 11
703.10376040628
 21
224.4161538274098
 31
0.0
  0
LINE
  5
4D9
  8
0
  6
CONTINUOUS
 62
     7
 10
705.91024660286701
 20
224.4161538274098
 30
0.0
 11
708.5536743071234
 21
224.4161538274098
 31
0.0
  0
LINE
  5
4DB
  8
0
  6
CONTINUOUS
 62
     7
 10
582.1731013809499
 20
270.79973004132211
 30
0.0
 11
588.17310138095002
 21
270.79973004132211
 31
0.0
  0
LINE
  5
4DC
  8
0
  6
CONTINUOUS
 62
     7
 10
582.40700350457348
 20
284.19997372907193
 30
0.0
 11
582.1731013809499
 21
270.79973004132211
 31
0.0
  0
LINE
  5
4DD
  8
0
  6
CONTINUOUS
 62
     7
 10
588.17310138095002
 20
284.19997372907193
 30
0.0
 11
582.40700350457348
 21
284.19997372907193
 31
0.0
  0
LINE
  5
4DF
  8
0
  6
CONTINUOUS
 62
     7
 10
820.37310138094983
 20
284.19997372907193
 30
0.0
 11
588.17310138095002
 21
284.19997372907193
 31
0.0
  0
LINE
  5
4E1
  8
0
  6
CONTINUOUS
 62
     7
 10
588.17310138095002
 20
270.79973004132211
 30
0.0
 11
820.37310138094983
 21
270.79973004132211
 31
0.0
  0
LINE
  5
4E2
  8
0
  6
CONTINUOUS
 62
     7
 10
826.13919925732637
 20
284.19997372907193
 30
0.0
 11
820.37310138094983
 21
284.19997372907193
 31
0.0
  0
LINE
  5
4E3
  8
0
  6
CONTINUOUS
 62
     7
 10
826.13919925732637
 20
284.19997372907193
 30
0.0
 11
826.37310138094995
 21
270.79973004132211
 31
0.0
  0
LINE
  5
4E4
  8
0
  6
CONTINUOUS
 62
     7
 10
820.37310138094983
 20
270.79973004132211
 30
0.0
 11
826.37310138094995
 21
270.79973004132211
 31
0.0
  0
LINE
  5
4E5
  8
0
  6
CONTINUOUS
 62
     7
 10
582.40700350457348
 20
284.19997372907193
 30
0.0
 11
584.06359966058642
 21
285.79973004132199
 31
0.0
  0
LINE
  5
4E6
  8
0
  6
CONTINUOUS
 62
     7
 10
584.06359966058642
 20
285.79973004132199
 30
0.0
 11
588.17310138095002
 21
285.79973004132211
 31
0.0
  0
LINE
  5
4E8
  8
0
  6
CONTINUOUS
 62
     7
 10
588.17310138095002
 20
285.79973004132211
 30
0.0
 11
820.37310138094983
 21
285.79973004132211
 31
0.0
  0
LINE
  5
4EA
  8
0
  6
CONTINUOUS
 62
     7
 10
820.37310138094983
 20
285.79973004132211
 30
0.0
 11
824.48260310131343
 21
285.79973004132199
 31
0.0
  0
LINE
  5
4EB
  8
0
  6
CONTINUOUS
 62
     7
 10
826.13919925732637
 20
284.19997372907193
 30
0.0
 11
824.48260310131343
 21
285.79973004132199
 31
0.0
  0
LINE
  5
4ED
  8
0
  6
CONTINUOUS
 62
     7
 10
713.77299049106671
 20
268.79973004132211
 30
0.0
 11
712.20801151080695
 21
268.79973004132211
 31
0.0
  0
LINE
  5
4EE
  8
0
  6
CONTINUOUS
 62
     7
 10
712.20801151080695
 20
268.79973004132211
 30
0.0
 11
712.17310138095024
 21
270.79973004132211
 31
0.0
  0
LINE
  5
4F0
  8
0
  6
CONTINUOUS
 62
     7
 10
596.20801151080695
 20
268.79973004132211
 30
0.0
 11
596.17310138095024
 21
270.79973004132211
 31
0.0
  0
LINE
  5
4F1
  8
0
  6
CONTINUOUS
 62
     7
 10
597.77299049106557
 20
268.79973004132211
 30
0.0
 11
596.20801151080695
 21
268.79973004132211
 31
0.0
  0
LINE
  5
4F2
  8
0
  6
CONTINUOUS
 62
     7
 10
812.23819125109287
 20
268.79973004132211
 30
0.0
 11
812.2731013809497
 21
270.79973004132211
 31
0.0
  0
LINE
  5
4F4
  8
0
  6
CONTINUOUS
 62
     7
 10
812.23819125109287
 20
268.79973004132211
 30
0.0
 11
810.67322322482437
 21
268.79973004132211
 31
0.0
  0
LINE
  5
4F5
  8
0
  6
CONTINUOUS
 62
     7
 10
696.33819125109289
 20
268.79973004132211
 30
0.0
 11
696.37310138094972
 21
270.79973004132211
 31
0.0
  0
LINE
  5
4F7
  8
0
  6
CONTINUOUS
 62
     7
 10
696.33819125109289
 20
268.79973004132211
 30
0.0
 11
694.77322322482428
 21
268.79973004132211
 31
0.0
  0
LINE
  5
4F8
  8
0
  6
CONTINUOUS
 62
     7
 10
694.77322322482485
 20
268.79973004132211
 30
0.0
 11
597.77299049106455
 21
268.79973004132211
 31
0.0
  0
LINE
  5
4F9
  8
0
  6
CONTINUOUS
 62
     7
 10
810.77322322482485
 20
268.79973004132211
 30
0.0
 11
713.77299049106614
 21
268.79973004132211
 31
0.0
  0
LINE
  5
4FA
  8
0
  6
CONTINUOUS
 62
     7
 10
712.20801151080695
 20
268.79973004132211
 30
0.0
 11
696.33819125109289
 21
268.79973004132211
 31
0.0
  0
LINE
  5
4FC
  8
0
  6
CONTINUOUS
 62
     7
 10
596.20801151080695
 20
268.79973004132211
 30
0.0
 11
590.07310138095022
 21
268.79973004132211
 31
0.0
  0
LINE
  5
4FE
  8
0
  6
CONTINUOUS
 62
     7
 10
818.47310138094997
 20
268.79973004132211
 30
0.0
 11
812.33819125109312
 21
268.79973004132211
 31
0.0
  0
LINE
  5
500
  8
0
  6
CONTINUOUS
 62
     7
 10
586.00801151080657
 20
268.79973004132211
 30
0.0
 11
585.9731013809502
 21
270.79973004132211
 31
0.0
  0
LINE
  5
501
  8
0
  6
CONTINUOUS
 62
     7
 10
587.57299049106666
 20
268.79973004132211
 30
0.0
 11
586.0080115126492
 21
268.79973004132211
 31
0.0
  0
LINE
  5
502
  8
0
  6
CONTINUOUS
 62
     7
 10
822.53819125281188
 20
268.79973004132211
 30
0.0
 11
822.57310138094988
 21
270.79973004132211
 31
0.0
  0
LINE
  5
504
  8
0
  6
CONTINUOUS
 62
     7
 10
822.53819125281188
 20
268.79973004132211
 30
0.0
 11
820.97322322482421
 21
268.79973004132211
 31
0.0
  0
LINE
  5
505
  8
0
  6
CONTINUOUS
 62
     7
 10
820.97322322482489
 20
268.79973004132211
 30
0.0
 11
818.47310138094997
 21
268.79973004132211
 31
0.0
  0
LINE
  5
506
  8
0
  6
CONTINUOUS
 62
     7
 10
590.07310138095022
 20
268.79973004132211
 30
0.0
 11
587.57299049106643
 21
268.79973004132211
 31
0.0
  0
LINE
  5
507
  8
0
  6
CONTINUOUS
 62
     7
 10
520.60170875038455
 20
225.03002442942801
 30
0.0
 11
520.60170875038455
 21
72.830024429428079
 31
0.0
  0
LINE
  5
508
  8
0
  6
CONTINUOUS
 62
     7
 10
534.00195243813425
 20
72.830024429428079
 30
0.0
 11
534.00195243813425
 21
225.03002442942801
 31
0.0
  0
LINE
  5
509
  8
0
  6
CONTINUOUS
 62
     7
 10
520.60170875038455
 20
230.79612230580429
 30
0.0
 11
520.60170875038455
 21
225.03002442942801
 31
0.0
  0
LINE
  5
50A
  8
0
  6
CONTINUOUS
 62
     7
 10
520.60170875038455
 20
230.79612230580429
 30
0.0
 11
534.00195243813425
 21
231.03002442942801
 31
0.0
  0
LINE
  5
50B
  8
0
  6
CONTINUOUS
 62
     7
 10
534.00195243813425
 20
225.03002442942801
 30
0.0
 11
534.00195243813425
 21
231.03002442942801
 31
0.0
  0
LINE
  5
511
  8
0
  6
CONTINUOUS
 62
     7
 10
519.00195243813437
 20
72.830024429428079
 30
0.0
 11
519.00195243813437
 21
225.03002442942801
 31
0.0
  0
LINE
  5
512
  8
0
  6
CONTINUOUS
 62
     7
 10
519.00195243813437
 20
225.03002442942801
 30
0.0
 11
519.00195243813437
 21
229.13952614979141
 31
0.0
  0
LINE
  5
513
  8
0
  6
CONTINUOUS
 62
     7
 10
519.00195243813437
 20
229.13952614979141
 30
0.0
 11
520.60170875038455
 21
230.79612230580429
 31
0.0
  0
LINE
  5
517
  8
0
  6
CONTINUOUS
 62
     7
 10
536.00195243813425
 20
207.39511429957119
 30
0.0
 11
536.00195243813425
 21
205.83014627330229
 31
0.0
  0
LINE
  5
518
  8
0
  6
CONTINUOUS
 62
     7
 10
536.00195243813425
 20
205.83014627330289
 30
0.0
 11
536.00195243813425
 21
92.029913539543486
 31
0.0
  0
LINE
  5
51A
  8
0
  6
CONTINUOUS
 62
     7
 10
536.00195243813425
 20
213.53002442942801
 30
0.0
 11
536.00195243813425
 21
207.39511429957119
 31
0.0
  0
LINE
  5
51D
  8
0
  6
CONTINUOUS
 62
     7
 10
536.00195243813425
 20
227.19511430128989
 30
0.0
 11
534.00195243813425
 21
227.2300244294278
 31
0.0
  0
LINE
  5
51E
  8
0
  6
CONTINUOUS
 62
     7
 10
536.00195243813425
 20
227.19511430128989
 30
0.0
 11
536.00195243813425
 21
225.6301462733023
 31
0.0
  0
LINE
  5
520
  8
0
  6
CONTINUOUS
 62
     7
 10
536.00195243813425
 20
225.6301462733029
 30
0.0
 11
536.00195243813425
 21
213.53002442942801
 31
0.0
  0
LINE
  5
5CB
  8
L1
  6
HIDDEN
 62
     1
 10
534.00195243813425
 20
206.630024429428
 30
0.0
 11
522.89497147555949
 21
206.43615135556979
 31
0.0
  0
LINE
  5
5E2
  8
L1
  6
HIDDEN
 62
     1
 10
522.50195243813437
 20
205.6362731994447
 30
0.0
 11
522.50195243813437
 21
92.223775659411444
 31
0.0
  0
ARC
  5
5E3
  8
L1
  6
HIDDEN
 62
     1
 10
522.90195243813434
 20
206.03621227750719
 30
0.0
 40
0.3999999999999882
 50
90.999999999999901
 51
180.00000000000401
  0
LINE
  5
5E4
  8
L1
  6
HIDDEN
 62
     1
 10
522.50195243813437
 20
206.03621227750719
 30
0.0
 11
522.50195243813437
 21
205.63627319944459
 31
0.0
  0
LINE
  5
5E5
  8
L1
  6
HIDDEN
 62
     1
 10
536.00195243813425
 20
206.6649345592844
 30
0.0
 11
534.00195243813425
 21
206.630024429428
 31
0.0
  0
LINE
  5
652
  8
L1
  6
HIDDEN
 62
     1
 10
522.50195243813437
 20
213.5300244294281
 30
0.0
 11
522.50195243813437
 21
206.03621227750719
 31
0.0
  0
LINE
  5
699
  8
L1
  6
HIDDEN
 62
     1
 10
534.00195243813425
 20
226.43002442942799
 30
0.0
 11
522.89497147555949
 21
226.2361513555698
 31
0.0
  0
LINE
  5
69B
  8
L1
  6
HIDDEN
 62
     1
 10
522.50195243813437
 20
225.43627319944471
 30
0.0
 11
522.50195243813437
 21
213.5300244294281
 31
0.0
  0
ARC
  5
69E
  8
L1
  6
HIDDEN
 62
     1
 10
522.90195243813434
 20
225.83621227750729
 30
0.0
 40
0.3999999999999772
 50
91.000000000143501
 51
180.0
  0
LINE
  5
69F
  8
L1
  6
HIDDEN
 62
     1
 10
522.50195243813437
 20
225.8362122775072
 30
0.0
 11
522.50195243813437
 21
225.43627319944471
 31
0.0
  0
LINE
  5
6A1
  8
L1
  6
HIDDEN
 62
     1
 10
536.00195243813425
 20
226.46493455928439
 30
0.0
 11
534.00195243813425
 21
226.43002442942799
 31
0.0
  0
LINE
  5
6C0
  8
L1
  6
HIDDEN
 62
     1
 10
536.00195243813425
 20
207.39511429957119
 30
0.0
 11
534.00195243813425
 21
207.4300244294279
 31
0.0
  0
ARC
  5
717
  8
L1
  6
HIDDEN
 62
     1
 10
522.90195243813434
 20
215.73621227750721
 30
0.0
 40
0.4000000000000166
 50
90.999999999999901
 51
180.0
  0
LINE
  5
719
  8
L1
  6
HIDDEN
 62
     1
 10
522.89497147555949
 20
216.13615135556981
 30
0.0
 11
536.00195243813425
 21
216.36493455928439
 31
0.0
  0
LINE
  5
74A
  8
L6
  6
CONTINUOUS
 10
361.77065224981521
 20
70.664934559284688
 30
0.0
 11
458.77088498357551
 21
70.664934557566198
 31
0.0
  0
LINE
  5
74C
  8
0
  6
CONTINUOUS
 62
     7
 10
361.77065224979862
 20
71.39511429957156
 30
0.0
 11
458.770895937565
 21
71.395114299571674
 31
0.0
  0
ARC
  5
750
  8
0
  6
CONTINUOUS
 62
     7
 10
361.77073627905719
 20
72.229986614784195
 30
0.0
 40
0.8348723194522298
 50
180.0057667743815
 51
270.0000000000004
  0
ARC
  5
756
  8
L6
  6
CONTINUOUS
 10
361.76972544429702
 20
72.228975790128914
 30
0.0
 40
1.5640415036006989
 50
179.96564727543409
 51
270.03395181498519
  0
LINE
  5
758
  8
0
  6
CONTINUOUS
 62
     7
 10
360.9358639638337
 20
72.830024429428022
 30
0.0
 11
360.9358639638337
 21
72.229902585553134
 31
0.0
  0
LINE
  5
75A
  8
L6
  6
CONTINUOUS
 10
360.20568422354711
 20
72.830024429428136
 30
0.0
 11
360.20568422182822
 21
72.229913539544668
 31
0.0
  0
ARC
  5
760
  8
L6
  6
CONTINUOUS
 10
342.77182273299428
 20
72.228975780032613
 30
0.0
 40
1.5640415035955559
 50
269.96564685958361
 51
0.0339518150732143
  0
LINE
  5
762
  8
L6
  6
CONTINUOUS
 10
344.33586396383328
 20
72.229902585553134
 30
0.0
 11
344.33586396383311
 21
72.830024429427965
 31
0.0
  0
ARC
  5
768
  8
0
  6
CONTINUOUS
 62
     7
 10
342.77081190835622
 20
72.229986614755717
 30
0.0
 40
0.834872319419089
 50
270.0000000000004
 51
359.9942332264099
  0
LINE
  5
76A
  8
0
  6
CONTINUOUS
 62
     7
 10
343.60568422354658
 20
72.229902585536138
 30
0.0
 11
343.60568422354658
 21
72.830024429428022
 31
0.0
  0
LINE
  5
76F
  8
0
  6
CONTINUOUS
 62
     7
 10
245.7706522497985
 20
71.395114299571674
 30
0.0
 11
342.770895937565
 21
71.395114299571617
 31
0.0
  0
LINE
  5
770
  8
L6
  6
CONTINUOUS
 10
245.77065224981521
 20
70.664934559284802
 30
0.0
 11
342.77088498357398
 21
70.664934557566255
 31
0.0
  0
ARC
  5
772
  8
0
  6
CONTINUOUS
 62
     7
 10
245.7707362790473
 20
72.229986614774745
 30
0.0
 40
0.8348723194423381
 50
180.0057667737301
 51
270.0000000000004
  0
ARC
  5
774
  8
L6
  6
CONTINUOUS
 10
245.7697254442914
 20
72.22897579013636
 30
0.0
 40
1.5640415036080639
 50
179.96564727572269
 51
270.03395181519983
  0
LINE
  5
77B
  8
0
  6
CONTINUOUS
 62
     7
 10
244.9358639638337
 20
84.330024429428065
 30
0.0
 11
244.9358639638337
 21
72.229902585553191
 31
0.0
  0
LINE
  5
77C
  8
L6
  6
CONTINUOUS
 10
244.20568422354711
 20
84.330024429428136
 30
0.0
 11
244.20568422182839
 21
72.229913539543475
 31
0.0
  0
LINE
  5
780
  8
0
  6
CONTINUOUS
 62
     7
 10
235.570652249798
 20
91.195114299571685
 30
0.0
 11
238.0707740936902
 21
91.195114299571685
 31
0.0
  0
LINE
  5
781
  8
L6
  6
CONTINUOUS
 10
235.5706522498152
 20
90.464934559284757
 30
0.0
 11
238.07077409369009
 21
90.464934559284984
 31
0.0
  0
ARC
  5
786
  8
0
  6
CONTINUOUS
 62
     7
 10
235.5707362790728
 20
92.029986614781805
 30
0.0
 40
0.8348723194679184
 50
180.0057667742098
 51
270.0000000000004
  0
ARC
  5
788
  8
L6
  6
CONTINUOUS
 10
235.56972544428771
 20
92.028975790116192
 30
0.0
 40
1.5640415035879149
 50
179.96564727498091
 51
270.03395181532869
  0
LINE
  5
78E
  8
0
  6
CONTINUOUS
 62
     7
 10
234.73586396383371
 20
205.8301462733196
 30
0.0
 11
234.73586396383371
 21
92.029902585553259
 31
0.0
  0
LINE
  5
78F
  8
L6
  6
CONTINUOUS
 10
234.00568422354681
 20
205.83014627330289
 30
0.0
 11
234.00568422182809
 21
92.029913539543486
 31
0.0
  0
ARC
  5
795
  8
0
  6
CONTINUOUS
 62
     7
 10
238.0707740936902
 20
84.330024429428065
 30
0.0
 40
6.8650898701436063
 50
0.0000000000005596
 51
90.0
  0
ARC
  5
796
  8
0
  6
CONTINUOUS
 62
     7
 10
352.27077409369019
 20
72.830024429428022
 30
0.0
 40
8.6650898701436176
 50
0.0000000000007994
 51
180.0
  0
ARC
  5
797
  8
L6
  6
CONTINUOUS
 10
238.0707740936902
 20
84.330024429428065
 30
0.0
 40
6.1349101298569328
 50
0.000000000001199
 51
90.0
  0
ARC
  5
79C
  8
L6
  6
CONTINUOUS
 10
352.27077409369019
 20
72.830024429428022
 30
0.0
 40
7.9349101298570304
 50
0.0000000000013589
 51
180.00000000000051
  0
LINE
  5
7A3
  8
L6
  6
CONTINUOUS
 10
353.16242776211658
 20
75.895116958265021
 30
0.0
 11
351.37912042526358
 21
75.895116958265021
 31
0.0
  0
ARC
  5
7A4
  8
L6
  6
CONTINUOUS
 10
352.27077409369019
 20
74.430024429428045
 30
0.0
 40
1.715092528836978
 50
121.3246469145933
 51
144.3340202512949
  0
LINE
  5
7A5
  8
L6
  6
CONTINUOUS
 10
350.87738169293851
 20
75.430024429428045
 30
0.0
 11
348.62039369619538
 21
75.430024429428045
 31
0.0
  0
ARC
  5
7A6
  8
L6
  6
CONTINUOUS
 10
349.30566218789482
 20
74.445177611180952
 30
0.0
 40
1.199941903314526
 50
124.83598711122529
 51
179.7081921054631
  0
ARC
  5
7A7
  8
L6
  6
CONTINUOUS
 10
352.27077409369019
 20
74.430024429428045
 30
0.0
 40
4.1650925288370013
 50
179.7074807698292
 51
193.6954210917923
  0
LINE
  5
7A8
  8
L6
  6
CONTINUOUS
 10
348.2241032911403
 20
73.443895031446289
 30
0.0
 11
350.86753099539658
 21
73.443895031446289
 31
0.0
  0
ARC
  5
7A9
  8
L6
  6
CONTINUOUS
 10
352.27077409369019
 20
74.430024429428045
 30
0.0
 40
1.715092528836978
 50
215.0976393705613
 51
238.6753530854067
  0
LINE
  5
7AA
  8
L6
  6
CONTINUOUS
 10
351.37912042526358
 20
72.964931900591068
 30
0.0
 11
353.16242776211658
 21
72.964931900591068
 31
0.0
  0
ARC
  5
7AB
  8
L6
  6
CONTINUOUS
 10
352.27077409369019
 20
74.430024429428045
 30
0.0
 40
1.7150925288369481
 50
301.32464691459239
 51
324.90236062943751
  0
LINE
  5
7AC
  8
L6
  6
CONTINUOUS
 10
353.67401719198369
 20
73.443895031446232
 30
0.0
 11
356.31744489624009
 21
73.443895031446289
 31
0.0
  0
ARC
  5
7AD
  8
L6
  6
CONTINUOUS
 10
352.27077409369019
 20
74.430024429428045
 30
0.0
 40
4.1650925288369942
 50
346.30457890820838
 51
0.2925192301715729
  0
ARC
  5
7AE
  8
L6
  6
CONTINUOUS
 10
355.23588599217811
 20
74.445177607563153
 30
0.0
 40
1.199941910641537
 50
0.2918080655056165
 51
55.162444138203242
  0
LINE
  5
7AF
  8
L6
  6
CONTINUOUS
 10
355.92126464814771
 20
75.430024429428045
 30
0.0
 11
353.66416649444182
 21
75.430024429428045
 31
0.0
  0
ARC
  5
7B0
  8
L6
  6
CONTINUOUS
 10
352.27077409369019
 20
74.430024429428045
 30
0.0
 40
1.7150925288369629
 50
35.665979748706242
 51
58.675353085408332
  0
LINE
  5
7CD
  8
L6
  6
CONTINUOUS
 10
245.77065224981351
 20
67.930024429428613
 30
0.0
 11
342.7708959375633
 21
67.930024429428613
 31
0.0
  0
ARC
  5
7CE
  8
L6
  6
CONTINUOUS
 10
342.77068518788911
 20
72.230113335228282
 30
0.0
 40
4.3000889109652256
 50
270.0000000000004
 51
359.99719190294832
  0
LINE
  5
7CF
  8
L6
  6
CONTINUOUS
 10
347.07077409368958
 20
72.229902585551827
 30
0.0
 11
347.07077409368958
 21
72.830024429426715
 31
0.0
  0
ARC
  5
7D0
  8
L6
  6
CONTINUOUS
 10
352.27077409369019
 20
72.830024429428022
 30
0.0
 40
5.2000000000005571
 50
0.0000000000156675
 51
180.00000000001469
  0
LINE
  5
7D1
  8
L6
  6
CONTINUOUS
 10
357.47077409369069
 20
72.830024429429386
 30
0.0
 11
357.47077409369069
 21
72.229902585554498
 31
0.0
  0
ARC
  5
7D2
  8
L6
  6
CONTINUOUS
 10
361.77086299947939
 20
72.230113335220494
 30
0.0
 40
4.3000889109566574
 50
180.00280809691441
 51
270.0000000000004
  0
LINE
  5
7D3
  8
L6
  6
CONTINUOUS
 10
361.77065224981391
 20
67.930024429428556
 30
0.0
 11
458.77089593756369
 21
67.930024429428613
 31
0.0
  0
LINE
  5
7EB
  8
L6
  6
CONTINUOUS
 10
231.27077409369051
 20
205.8301462733036
 30
0.0
 11
231.27077409369051
 21
92.029902585553884
 31
0.0
  0
ARC
  5
7EC
  8
L6
  6
CONTINUOUS
 10
235.57086299949819
 20
92.030113335234816
 30
0.0
 40
4.3000889109723879
 50
180.00280809711339
 51
270.0000000000004
  0
LINE
  5
7ED
  8
L6
  6
CONTINUOUS
 10
235.57065224981361
 20
87.730024429428568
 30
0.0
 11
238.0707740936885
 21
87.730024429428568
 31
0.0
  0
ARC
  5
7EE
  8
L6
  6
CONTINUOUS
 10
238.0707740936902
 20
84.330024429428065
 30
0.0
 40
3.4000000000005031
 50
0.0000000000280576
 51
90.0
  0
LINE
  5
7EF
  8
L6
  6
CONTINUOUS
 10
241.47077409369061
 20
84.330024429429727
 30
0.0
 11
241.47077409369061
 21
72.229902585554825
 31
0.0
  0
ARC
  5
7F0
  8
L6
  6
CONTINUOUS
 10
245.7708629994749
 20
72.230113335215151
 30
0.0
 40
4.3000889109512981
 50
180.00280809683861
 51
270.0000000000004
  0
LINE
  5
7F1
  8
0
  6
CONTINUOUS
 62
     7
 10
468.37077409369022
 20
66.830024429428065
 30
0.0
 11
236.17077409369011
 21
66.830024429428136
 31
0.0
  0
ARC
  5
7F2
  8
0
  6
CONTINUOUS
 62
     7
 10
236.17077409369011
 20
72.830024429428079
 30
0.0
 40
6.0
 50
180.0
 51
270.0000000000004
  0
LINE
  5
7F3
  8
0
  6
CONTINUOUS
 62
     7
 10
230.17077409369011
 20
72.830024429428079
 30
0.0
 11
230.17077409369011
 21
225.03002442942801
 31
0.0
  0
ARC
  5
807
  8
L6
  6
CONTINUOUS
 10
238.0707740936902
 20
84.330024429428065
 30
0.0
 40
2.6000000000006191
 50
359.99999999998067
 51
90.000000000000796
  0
LINE
  5
808
  8
L6
  6
CONTINUOUS
 10
235.57065224981631
 20
86.930024429428386
 30
0.0
 11
238.07077409369151
 21
86.930024429428684
 31
0.0
  0
ARC
  5
809
  8
L6
  6
CONTINUOUS
 10
235.5700874839784
 20
92.028748217228724
 30
0.0
 40
5.0987238190788258
 50
217.57535954042001
 51
270.0000000000004
  0
ARC
  5
80A
  8
L6
  6
CONTINUOUS
 10
231.37068019973839
 20
88.79782297469427
 30
0.0
 40
0.1999061929476481
 50
37.535016249988011
 51
180.05342331780469
  0
LINE
  5
80B
  8
L6
  6
CONTINUOUS
 10
231.17077409369011
 20
72.830024429428079
 30
0.0
 11
231.17077409368929
 21
88.797636579629568
 31
0.0
  0
ARC
  5
80C
  8
L6
  6
CONTINUOUS
 10
236.17077409369011
 20
72.830024429428079
 30
0.0
 40
5.0000000000000142
 50
180.0
 51
270.0000000000004
  0
LINE
  5
80D
  8
L6
  6
CONTINUOUS
 10
242.53851870369601
 20
67.830024429428136
 30
0.0
 11
236.17077409369011
 21
67.830024429428079
 31
0.0
  0
ARC
  5
80E
  8
L6
  6
CONTINUOUS
 10
242.53870486935449
 20
68.029930579296717
 30
0.0
 40
0.1999062365954694
 50
269.94662950730083
 51
52.446087792286903
  0
ARC
  5
80F
  8
L6
  6
CONTINUOUS
 10
245.769597021013
 20
72.228542415026709
 30
0.0
 40
5.098126919619216
 50
188.28791688938111
 51
232.42022344473901
  0
ARC
  5
811
  8
L6
  6
CONTINUOUS
 10
240.44088795046369
 20
71.635467477902296
 30
0.0
 40
0.2999845736497452
 50
338.55601113869238
 51
30.0005258435637
  0
LINE
  5
812
  8
L6
  6
CONTINUOUS
 10
240.68853138120809
 20
71.806505620966732
 30
0.0
 11
240.70068083539249
 21
71.785462149035084
 31
0.0
  0
LINE
  5
813
  8
L6
  6
CONTINUOUS
 10
240.67077409369051
 20
72.229902585552281
 30
0.0
 11
240.68864528339279
 21
71.806308301129434
 31
0.0
  0
LINE
  5
814
  8
L6
  6
CONTINUOUS
 10
240.6707740936908
 20
84.330024429427169
 30
0.0
 11
240.6707740936908
 21
72.229902585552281
 31
0.0
  0
POLYLINE
  5
89F
  8
L6
  6
CONTINUOUS
 66
     1
 10
0.0
 20
0.0
 30
0.0
 70
   128
  0
VERTEX
  5
167D
  8
L6
  6
CONTINUOUS
 10
240.54514111176439
 20
71.317589582851241
 30
0.0
  0
VERTEX
  5
167E
  8
L6
  6
CONTINUOUS
 10
240.61888405217269
 20
71.385145712821085
 30
0.0
  0
VERTEX
  5
167F
  8
L6
  6
CONTINUOUS
 10
240.6533236031421
 20
71.418018662427585
 30
0.0
  0
SEQEND
  5
1680
  8
L6
  6
CONTINUOUS
  0
LINE
  5
8C9
  8
L6
  6
CONTINUOUS
 10
240.6606068116235
 20
71.424687336592626
 30
0.0
 11
239.33617936703411
 21
73.718662961560312
 31
0.0
  0
ARC
  5
8CA
  8
L6
  6
CONTINUOUS
 10
237.77077409368999
 20
74.430024429428045
 30
0.0
 40
1.719455962733649
 50
335.56169921758288
 51
358.71614348025793
  0
LINE
  5
8CB
  8
L6
  6
CONTINUOUS
 10
238.59692216676419
 20
75.938005917753401
 30
0.0
 11
239.48979840755359
 21
74.391498903835043
 31
0.0
  0
ARC
  5
8CC
  8
L6
  6
CONTINUOUS
 10
237.77077409368999
 20
74.430024429428045
 30
0.0
 40
1.719455962732392
 50
61.283856519740702
 51
84.438300782379969
  0
LINE
  5
8CD
  8
L6
  6
CONTINUOUS
 10
237.937419627916
 20
76.14138589729464
 30
0.0
 11
236.61299218332559
 21
78.43536152226352
 31
0.0
  0
ARC
  5
8CF
  8
L6
  6
CONTINUOUS
 10
237.77077409368999
 20
74.430024429428045
 30
0.0
 40
4.1694559627323313
 50
106.2538174138264
 51
133.7461825861723
  0
LINE
  5
8D0
  8
L6
  6
CONTINUOUS
 10
234.8808685659134
 20
77.435487632611512
 30
0.0
 11
234.88774153617589
 21
77.442081251182614
 31
0.0
  0
LINE
  5
8D1
  8
L6
  6
CONTINUOUS
 10
234.88094137575681
 20
77.43536152226352
 30
0.0
 11
236.20536882034691
 21
75.14138589729464
 31
0.0
  0
ARC
  5
8D2
  8
L6
  6
CONTINUOUS
 10
237.77077409368999
 20
74.430024429428045
 30
0.0
 40
1.719455962732316
 50
155.5616992176067
 51
178.7161434802571
  0
LINE
  5
8D3
  8
L6
  6
CONTINUOUS
 10
236.944626020616
 20
72.922042941102745
 30
0.0
 11
236.05174977982671
 21
74.468549955021047
 31
0.0
  0
ARC
  5
8D4
  8
L6
  6
CONTINUOUS
 10
237.77077409368999
 20
74.430024429428045
 30
0.0
 40
1.719455962732338
 50
241.2838565197431
 51
264.43830078239279
  0
LINE
  5
8D5
  8
L6
  6
CONTINUOUS
 10
237.6041285594643
 20
72.718662961561506
 30
0.0
 11
238.92855600405471
 21
70.424687336592626
 31
0.0
  0
LINE
  5
8D6
  8
L6
  6
CONTINUOUS
 10
238.93777554021469
 20
70.427216583805944
 30
0.0
 11
238.928628813898
 21
70.424561226244634
 31
0.0
  0
ARC
  5
8DA
  8
L6
  6
CONTINUOUS
 10
237.77077409368999
 20
74.430024429428045
 30
0.0
 40
4.1694559627323828
 50
286.25381741382972
 51
311.71322249328688
  0
LINE
  5
911
  8
L6
  6
CONTINUOUS
 10
356.31846127269699
 20
73.442601069461205
 30
0.0
 11
356.31744489624009
 21
73.443895031446289
 31
0.0
  0
LINE
  5
913
  8
L6
  6
CONTINUOUS
 10
353.67468922434023
 20
73.442601069461205
 30
0.0
 11
353.67401719198369
 21
73.443895031446232
 31
0.0
  0
LINE
  5
932
  8
L6
  6
CONTINUOUS
 10
356.31846127269699
 20
73.442601069461205
 30
0.0
 11
353.67468922434023
 21
73.442601069461205
 31
0.0
  0
LINE
  5
933
  8
L6
  6
CONTINUOUS
 10
356.31844348645598
 20
73.442523195919932
 30
0.0
 11
356.31846127269699
 21
73.442601069461205
 31
0.0
  0
LINE
  5
97D
  8
L6
  6
CONTINUOUS
 10
238.92855600405471
 20
70.424687336592626
 30
0.0
 11
238.9279431202047
 21
70.423160958589676
 31
0.0
  0
LINE
  5
982
  8
L6
  6
CONTINUOUS
 10
234.87931305170551
 20
77.435593938281443
 30
0.0
 11
234.88094137575681
 21
77.43536152226352
 31
0.0
  0
LINE
  5
A0D
  8
L6
  6
CONTINUOUS
 10
238.59692216676419
 20
75.938005917753401
 30
0.0
 11
238.60135815203139
 21
75.942540180795945
 31
0.0
  0
LINE
  5
F67
  8
L6
  6
CONTINUOUS
 10
361.77065224981391
 20
229.93002442942759
 30
0.0
 11
458.77089593756369
 21
229.93002442942739
 31
0.0
  0
LINE
  5
F68
  8
0
  6
CONTINUOUS
 62
     7
 10
361.77065224979862
 20
226.4649345592845
 30
0.0
 11
458.770895937565
 21
226.46493455928439
 31
0.0
  0
LINE
  5
F69
  8
L6
  6
CONTINUOUS
 10
361.77065224981521
 20
227.1951142995714
 30
0.0
 11
458.77088498357551
 21
227.19511430128989
 31
0.0
  0
LINE
  5
F6A
  8
0
  6
CONTINUOUS
 62
     7
 10
468.37077409369022
 20
231.03002442942801
 30
0.0
 11
236.17077409369011
 21
231.03002442942801
 31
0.0
  0
LINE
  5
F6B
  8
L6
  6
CONTINUOUS
 10
245.77065224981351
 20
229.9300244294275
 30
0.0
 11
342.7708959375633
 21
229.93002442942759
 31
0.0
  0
LINE
  5
F6C
  8
L6
  6
CONTINUOUS
 10
245.77065224981521
 20
227.19511429957129
 30
0.0
 11
342.77088498357398
 21
227.19511430128989
 31
0.0
  0
LINE
  5
F6D
  8
0
  6
CONTINUOUS
 62
     7
 10
245.7706522497985
 20
226.4649345592845
 30
0.0
 11
342.770895937565
 21
226.4649345592845
 31
0.0
  0
ARC
  5
F6E
  8
0
  6
CONTINUOUS
 62
     7
 10
342.77081190835622
 20
225.6300622441004
 30
0.0
 40
0.834872319419089
 50
0.0057667735900147
 51
89.999999999999602
  0
ARC
  5
F6F
  8
L6
  6
CONTINUOUS
 10
342.77182273299428
 20
225.6310730788235
 30
0.0
 40
1.5640415035955559
 50
359.96604818492682
 51
90.034353140416357
  0
ARC
  5
F70
  8
L6
  6
CONTINUOUS
 10
342.77068518788911
 20
225.62993552362781
 30
0.0
 40
4.3000889109652256
 50
0.0028080970516875
 51
89.999999999999602
  0
ARC
  5
F71
  8
0
  6
CONTINUOUS
 62
     7
 10
352.27077409369019
 20
225.03002442942801
 30
0.0
 40
8.6650898701436176
 50
180.0
 51
359.9999999999992
  0
ARC
  5
F72
  8
L6
  6
CONTINUOUS
 10
361.76972544429702
 20
225.6310730687272
 30
0.0
 40
1.5640415036006989
 50
89.966048185014785
 51
180.03435272456579
  0
ARC
  5
F73
  8
L6
  6
CONTINUOUS
 10
361.77086299947939
 20
225.62993552363571
 30
0.0
 40
4.3000889109566574
 50
89.999999999999602
 51
179.99719190308559
  0
ARC
  5
F74
  8
0
  6
CONTINUOUS
 62
     7
 10
361.77073627905719
 20
225.63006224407189
 30
0.0
 40
0.8348723194522298
 50
89.999999999999602
 51
179.99423322561839
  0
LINE
  5
F75
  8
0
  6
CONTINUOUS
 62
     7
 10
360.9358639638337
 20
225.0300244294281
 30
0.0
 11
360.9358639638337
 21
225.63014627330301
 31
0.0
  0
ARC
  5
F76
  8
L6
  6
CONTINUOUS
 10
352.27077409369019
 20
223.43002442942799
 30
0.0
 40
1.715092528836978
 50
121.3246469145932
 51
144.90236062943859
  0
LINE
  5
F77
  8
L6
  6
CONTINUOUS
 10
348.2241032911403
 20
224.41615382740989
 30
0.0
 11
350.86753099539658
 21
224.41615382740989
 31
0.0
  0
ARC
  5
F78
  8
L6
  6
CONTINUOUS
 10
352.27077409369019
 20
223.43002442942799
 30
0.0
 40
4.1650925288370013
 50
166.30457890820759
 51
180.29251923017071
  0
ARC
  5
F79
  8
L6
  6
CONTINUOUS
 10
349.30566218789482
 20
223.41487124767511
 30
0.0
 40
1.199941903314526
 50
180.29180789453679
 51
235.16401288877461
  0
LINE
  5
F7A
  8
L6
  6
CONTINUOUS
 10
350.87738169293851
 20
222.4300244294281
 30
0.0
 11
348.62039369619538
 21
222.4300244294281
 31
0.0
  0
ARC
  5
F7B
  8
L6
  6
CONTINUOUS
 10
352.27077409369019
 20
223.43002442942799
 30
0.0
 40
1.715092528836978
 50
215.66597974870501
 51
238.67535308540661
  0
LINE
  5
F7C
  8
L6
  6
CONTINUOUS
 10
356.31844348645598
 20
224.41752566293621
 30
0.0
 11
356.31846127269699
 21
224.41744778939491
 31
0.0
  0
LINE
  5
F7D
  8
L6
  6
CONTINUOUS
 10
356.31846127269699
 20
224.41744778939491
 30
0.0
 11
353.67468922434023
 21
224.41744778939491
 31
0.0
  0
LINE
  5
F7E
  8
L6
  6
CONTINUOUS
 10
353.67468922434023
 20
224.41744778939491
 30
0.0
 11
353.67401719198369
 21
224.41615382740989
 31
0.0
  0
LINE
  5
F7F
  8
L6
  6
CONTINUOUS
 10
356.31846127269699
 20
224.41744778939491
 30
0.0
 11
356.31744489624009
 21
224.41615382740989
 31
0.0
  0
ARC
  5
F80
  8
L6
  6
CONTINUOUS
 10
352.27077409369019
 20
223.43002442942799
 30
0.0
 40
1.7150925288369629
 50
301.32464691459171
 51
324.33402025129368
  0
LINE
  5
F81
  8
L6
  6
CONTINUOUS
 10
355.92126464814771
 20
222.4300244294281
 30
0.0
 11
353.66416649444182
 21
222.4300244294281
 31
0.0
  0
ARC
  5
F82
  8
L6
  6
CONTINUOUS
 10
355.23588599217811
 20
223.41487125129299
 30
0.0
 40
1.199941910641537
 50
304.83755586179672
 51
359.70819193449432
  0
ARC
  5
F83
  8
L6
  6
CONTINUOUS
 10
352.27077409369019
 20
223.43002442942799
 30
0.0
 40
4.1650925288369942
 50
359.70748076982841
 51
13.695421091791539
  0
LINE
  5
F84
  8
L6
  6
CONTINUOUS
 10
353.67401719198369
 20
224.41615382740989
 30
0.0
 11
356.31744489624009
 21
224.41615382740989
 31
0.0
  0
ARC
  5
F85
  8
L6
  6
CONTINUOUS
 10
352.27077409369019
 20
223.43002442942799
 30
0.0
 40
1.7150925288369481
 50
35.097639370562447
 51
58.675353085407536
  0
ARC
  5
F86
  8
L6
  6
CONTINUOUS
 10
352.27077409369019
 20
225.03002442942801
 30
0.0
 40
5.2000000000005571
 50
179.99999999998531
 51
359.99999999998431
  0
LINE
  5
F87
  8
L6
  6
CONTINUOUS
 10
351.37912042526358
 20
224.89511695826499
 30
0.0
 11
353.16242776211658
 21
224.89511695826499
 31
0.0
  0
LINE
  5
F88
  8
L6
  6
CONTINUOUS
 10
353.16242776211658
 20
221.9649319005911
 30
0.0
 11
351.37912042526358
 21
221.9649319005911
 31
0.0
  0
ARC
  5
F89
  8
L6
  6
CONTINUOUS
 10
352.27077409369019
 20
225.03002442942801
 30
0.0
 40
7.9349101298570304
 50
179.9999999999994
 51
359.99999999999869
  0
LINE
  5
F8A
  8
L6
  6
CONTINUOUS
 10
357.47077409369069
 20
225.0300244294267
 30
0.0
 11
357.47077409369069
 21
225.63014627330159
 31
0.0
  0
LINE
  5
F8B
  8
L6
  6
CONTINUOUS
 10
347.07077409368958
 20
225.63014627330429
 30
0.0
 11
347.07077409368958
 21
225.0300244294294
 31
0.0
  0
LINE
  5
F8C
  8
0
  6
CONTINUOUS
 62
     7
 10
343.60568422354658
 20
225.63014627332001
 30
0.0
 11
343.60568422354658
 21
225.0300244294281
 31
0.0
  0
LINE
  5
F8D
  8
L6
  6
CONTINUOUS
 10
344.33586396383328
 20
225.63014627330301
 30
0.0
 11
344.33586396383311
 21
225.0300244294281
 31
0.0
  0
LINE
  5
F8E
  8
L6
  6
CONTINUOUS
 10
360.20568422354711
 20
225.03002442942801
 30
0.0
 11
360.20568422182822
 21
225.63013531931139
 31
0.0
  0
ARC
  5
F8F
  8
L6
  6
CONTINUOUS
 10
238.0707740936902
 20
213.5300244294281
 30
0.0
 40
2.6000000000006191
 50
269.9999999999992
 51
0.0000000000192646
  0
ARC
  5
F90
  8
L6
  6
CONTINUOUS
 10
238.0707740936902
 20
213.53002442942801
 30
0.0
 40
3.4000000000005031
 50
270.0
 51
359.99999999997192
  0
ARC
  5
F91
  8
L6
  6
CONTINUOUS
 10
238.0707740936902
 20
213.53002442942801
 30
0.0
 40
6.1349101298569328
 50
270.0
 51
359.99999999999869
  0
ARC
  5
F92
  8
0
  6
CONTINUOUS
 62
     7
 10
238.0707740936902
 20
213.53002442942801
 30
0.0
 40
6.8650898701436063
 50
270.0
 51
359.99999999999937
  0
ARC
  5
F93
  8
L6
  6
CONTINUOUS
 10
245.769597021013
 20
225.63150644382941
 30
0.0
 40
5.098126919619216
 50
127.57977655526091
 51
171.71208311061881
  0
ARC
  5
F94
  8
L6
  6
CONTINUOUS
 10
245.7708629994749
 20
225.62993552364091
 30
0.0
 40
4.3000889109512981
 50
89.999999999999602
 51
179.99719190316119
  0
LINE
  5
F95
  8
L6
  6
CONTINUOUS
 10
242.53851870369601
 20
230.03002442942801
 30
0.0
 11
236.17077409369011
 21
230.0300244294281
 31
0.0
  0
ARC
  5
F96
  8
L6
  6
CONTINUOUS
 10
242.53870486935449
 20
229.8301182795594
 30
0.0
 40
0.1999062365954694
 50
307.5539122077131
 51
90.053370492699145
  0
ARC
  5
F97
  8
L6
  6
CONTINUOUS
 10
245.7697254442914
 20
225.63107306871979
 30
0.0
 40
1.5640415036080639
 50
89.966048184800087
 51
180.0343527242772
  0
ARC
  5
F98
  8
0
  6
CONTINUOUS
 62
     7
 10
245.7707362790473
 20
225.6300622440813
 30
0.0
 40
0.8348723194423381
 50
89.999999999999602
 51
179.99423322626981
  0
LINE
  5
F99
  8
L6
  6
CONTINUOUS
 10
241.47077409369061
 20
213.53002442942639
 30
0.0
 11
241.47077409369061
 21
225.63014627330131
 31
0.0
  0
LINE
  5
F9A
  8
L6
  6
CONTINUOUS
 10
244.20568422354711
 20
213.53002442942801
 30
0.0
 11
244.20568422182839
 21
225.6301353193127
 31
0.0
  0
LINE
  5
F9B
  8
0
  6
CONTINUOUS
 62
     7
 10
244.9358639638337
 20
213.5300244294281
 30
0.0
 11
244.9358639638337
 21
225.6301462733029
 31
0.0
  0
LINE
  5
F9C
  8
L6
  6
CONTINUOUS
 10
231.17077409369011
 20
225.0300244294281
 30
0.0
 11
231.17077409368929
 21
209.06241227922649
 31
0.0
  0
POLYLINE
  5
F9D
  8
L6
  6
CONTINUOUS
 66
     1
 10
0.0
 20
0.0
 30
0.0
 70
   128
  0
VERTEX
  5
1681
  8
L6
  6
CONTINUOUS
 10
240.54514111176439
 20
226.54245927600491
 30
0.0
  0
VERTEX
  5
1682
  8
L6
  6
CONTINUOUS
 10
240.61888405217269
 20
226.47490314603499
 30
0.0
  0
VERTEX
  5
1683
  8
L6
  6
CONTINUOUS
 10
240.6533236031421
 20
226.44203019642859
 30
0.0
  0
SEQEND
  5
1684
  8
L6
  6
CONTINUOUS
  0
LINE
  5
F9E
  8
L6
  6
CONTINUOUS
 10
240.67077409369051
 20
225.63014627330389
 30
0.0
 11
240.68864528339279
 21
226.05374055772671
 31
0.0
  0
LINE
  5
F9F
  8
L6
  6
CONTINUOUS
 10
240.68853138120809
 20
226.0535432378893
 30
0.0
 11
240.70068083539249
 21
226.07458670982109
 31
0.0
  0
ARC
  5
FA0
  8
L6
  6
CONTINUOUS
 10
240.44088795046369
 20
226.22458138095379
 30
0.0
 40
0.2999845736497452
 50
329.99947415643618
 51
21.443988861307581
  0
LINE
  5
FA1
  8
L6
  6
CONTINUOUS
 10
234.87931305170551
 20
220.4244549205747
 30
0.0
 11
234.88094137575681
 21
220.4246873365926
 31
0.0
  0
LINE
  5
FA2
  8
L6
  6
CONTINUOUS
 10
234.8808685659134
 20
220.42456122624461
 30
0.0
 11
234.88774153617589
 21
220.41796760767349
 31
0.0
  0
ARC
  5
FA3
  8
L6
  6
CONTINUOUS
 10
237.77077409368999
 20
223.43002442942799
 30
0.0
 40
4.1694559627323313
 50
226.25381741382759
 51
253.74618258617349
  0
LINE
  5
FA4
  8
L6
  6
CONTINUOUS
 10
236.944626020616
 20
224.9380059177534
 30
0.0
 11
236.05174977982671
 21
223.3914989038351
 31
0.0
  0
ARC
  5
FA5
  8
L6
  6
CONTINUOUS
 10
237.77077409368999
 20
223.43002442942799
 30
0.0
 40
1.719455962732316
 50
181.2838565197429
 51
204.43830078239321
  0
LINE
  5
FA6
  8
L6
  6
CONTINUOUS
 10
234.88094137575681
 20
220.42468733659271
 30
0.0
 11
236.20536882034691
 21
222.71866296156151
 31
0.0
  0
ARC
  5
FA7
  8
L6
  6
CONTINUOUS
 10
236.17077409369011
 20
225.03002442942801
 30
0.0
 40
5.0000000000000142
 50
89.999999999999602
 51
180.0
  0
ARC
  5
FA8
  8
0
  6
CONTINUOUS
 62
     7
 10
236.17077409369011
 20
225.03002442942801
 30
0.0
 40
6.0
 50
89.999999999999602
 51
180.0
  0
LINE
  5
FA9
  8
L6
  6
CONTINUOUS
 10
238.59692216676419
 20
221.9220429411028
 30
0.0
 11
238.60135815203139
 21
221.91750867806019
 31
0.0
  0
ARC
  5
FAA
  8
L6
  6
CONTINUOUS
 10
237.77077409368999
 20
223.43002442942799
 30
0.0
 40
1.719455962732392
 50
275.56169921762
 51
298.71614348025918
  0
LINE
  5
FAB
  8
L6
  6
CONTINUOUS
 10
238.59692216676419
 20
221.9220429411028
 30
0.0
 11
239.48979840755359
 21
223.4685499550211
 31
0.0
  0
ARC
  5
FAC
  8
L6
  6
CONTINUOUS
 10
237.77077409368999
 20
223.43002442942799
 30
0.0
 40
1.719455962733649
 50
1.2838565197420231
 51
24.438300782417031
  0
LINE
  5
FAD
  8
L6
  6
CONTINUOUS
 10
238.92855600405471
 20
227.43536152226361
 30
0.0
 11
238.9279431202047
 21
227.4368879002665
 31
0.0
  0
ARC
  5
FAE
  8
L6
  6
CONTINUOUS
 10
237.77077409368999
 20
223.43002442942799
 30
0.0
 40
4.1694559627323828
 50
48.28677750671303
 51
73.746182586170264
  0
LINE
  5
FAF
  8
L6
  6
CONTINUOUS
 10
238.93777554021469
 20
227.4328322750502
 30
0.0
 11
238.928628813898
 21
227.43548763261151
 31
0.0
  0
LINE
  5
FB0
  8
L6
  6
CONTINUOUS
 10
237.6041285594643
 20
225.14138589729461
 30
0.0
 11
238.92855600405471
 21
227.43536152226361
 31
0.0
  0
LINE
  5
FB1
  8
L6
  6
CONTINUOUS
 10
240.6606068116235
 20
226.43536152226349
 30
0.0
 11
239.33617936703411
 21
224.14138589729589
 31
0.0
  0
LINE
  5
FB2
  8
L6
  6
CONTINUOUS
 10
240.6707740936908
 20
213.53002442942901
 30
0.0
 11
240.6707740936908
 21
225.63014627330389
 31
0.0
  0
ARC
  5
FB3
  8
L6
  6
CONTINUOUS
 10
237.77077409368999
 20
223.43002442942799
 30
0.0
 40
1.719455962732338
 50
95.561699217607114
 51
118.7161434802567
  0
LINE
  5
FB4
  8
L6
  6
CONTINUOUS
 10
237.937419627916
 20
221.71866296156151
 30
0.0
 11
236.61299218332559
 21
219.4246873365926
 31
0.0
  0
ARC
  5
FB5
  8
L6
  6
CONTINUOUS
 10
235.56972544428771
 20
205.83107306874001
 30
0.0
 40
1.5640415035879149
 50
89.966048184671237
 51
180.034352725019
  0
ARC
  5
FB6
  8
0
  6
CONTINUOUS
 62
     7
 10
235.5707362790728
 20
205.8300622440743
 30
0.0
 40
0.8348723194679184
 50
89.999999999999602
 51
179.9942332257902
  0
ARC
  5
FB7
  8
L6
  6
CONTINUOUS
 10
235.5700874839784
 20
205.83130064162739
 30
0.0
 40
5.0987238190788258
 50
89.999999999999602
 51
142.42464045957979
  0
ARC
  5
FB8
  8
L6
  6
CONTINUOUS
 10
231.37068019973839
 20
209.0622258841619
 30
0.0
 40
0.1999061929476481
 50
179.94657668219531
 51
322.46498375001198
  0
ARC
  5
FB9
  8
L6
  6
CONTINUOUS
 10
235.57086299949819
 20
205.82993552362129
 30
0.0
 40
4.3000889109723879
 50
89.999999999999602
 51
179.9971919028865
  0
LINE
  5
FBA
  8
L6
  6
CONTINUOUS
 10
235.57065224981631
 20
210.9300244294277
 30
0.0
 11
238.07077409369151
 21
210.93002442942739
 31
0.0
  0
LINE
  5
FBB
  8
L6
  6
CONTINUOUS
 10
235.57065224981361
 20
210.13002442942749
 30
0.0
 11
238.0707740936885
 21
210.13002442942749
 31
0.0
  0
LINE
  5
FBC
  8
L6
  6
CONTINUOUS
 10
235.5706522498152
 20
207.39511429957139
 30
0.0
 11
238.07077409369009
 21
207.39511429957111
 31
0.0
  0
LINE
  5
FBD
  8
0
  6
CONTINUOUS
 62
     7
 10
235.570652249798
 20
206.6649345592844
 30
0.0
 11
238.0707740936902
 21
206.6649345592844
 31
0.0
  0
LINE
  5
FBE
  8
L6
  6
CONTINUOUS
 10
466.93741962791597
 20
225.14138589729461
 30
0.0
 11
465.61299218332562
 21
227.43536152226349
 31
0.0
  0
ARC
  5
FBF
  8
L6
  6
CONTINUOUS
 10
466.77077409369019
 20
223.43002442942799
 30
0.0
 40
4.1694559627323828
 50
106.25381741382969
 51
131.71322249328691
  0
ARC
  5
FC0
  8
0
  6
CONTINUOUS
 62
     7
 10
468.37077409369022
 20
225.03002442942801
 30
0.0
 40
6.0
 50
0.0
 51
90.000000000000426
  0
ARC
  5
FC1
  8
L6
  6
CONTINUOUS
 10
468.37077409369022
 20
225.03002442942801
 30
0.0
 40
5.0000000000000142
 50
0.0
 51
90.000000000000426
  0
ARC
  5
FC2
  8
L6
  6
CONTINUOUS
 10
458.77182274308888
 20
225.63107306871979
 30
0.0
 40
1.5640415036080639
 50
359.96564727572269
 51
90.033951815199913
  0
ARC
  5
FC3
  8
L6
  6
CONTINUOUS
 10
458.77068518790543
 20
225.62993552364091
 30
0.0
 40
4.3000889109512981
 50
0.0028080968386579
 51
90.000000000000426
  0
ARC
  5
FC4
  8
L6
  6
CONTINUOUS
 10
458.77195116636727
 20
225.63150644382941
 30
0.0
 40
5.098126919619216
 50
8.2879168893810728
 51
52.420223444739037
  0
LINE
  5
FC5
  8
0
  6
CONTINUOUS
 62
     7
 10
474.37077409369022
 20
72.830024429428079
 30
0.0
 11
474.37077409369022
 21
225.03002442942801
 31
0.0
  0
LINE
  5
FC6
  8
L6
  6
CONTINUOUS
 10
473.27077409368979
 20
205.8301462733036
 30
0.0
 11
473.27077409368979
 21
92.029902585553884
 31
0.0
  0
LINE
  5
FC7
  8
L6
  6
CONTINUOUS
 10
470.53586396383349
 20
205.83014627330289
 30
0.0
 11
470.53586396555221
 21
92.029913539543486
 31
0.0
  0
LINE
  5
FC8
  8
0
  6
CONTINUOUS
 62
     7
 10
469.80568422354662
 20
205.8301462733196
 30
0.0
 11
469.80568422354662
 21
92.029902585553259
 31
0.0
  0
ARC
  5
FC9
  8
L6
  6
CONTINUOUS
 10
466.47077409369012
 20
84.330024429428022
 30
0.0
 40
2.6000000000006191
 50
89.999999999999204
 51
180.00000000001921
  0
ARC
  5
FCA
  8
L6
  6
CONTINUOUS
 10
466.47077409369012
 20
84.330024429428065
 30
0.0
 40
3.4000000000005031
 50
90.0
 51
179.99999999997189
  0
ARC
  5
FCB
  8
L6
  6
CONTINUOUS
 10
466.47077409369012
 20
84.330024429428065
 30
0.0
 40
6.1349101298569328
 50
90.0
 51
179.99999999999869
  0
ARC
  5
FCC
  8
0
  6
CONTINUOUS
 62
     7
 10
466.47077409369012
 20
84.330024429428065
 30
0.0
 40
6.8650898701436063
 50
90.0
 51
179.9999999999994
  0
ARC
  5
FCD
  8
L6
  6
CONTINUOUS
 10
458.77195116636727
 20
72.228542415026709
 30
0.0
 40
5.098126919619216
 50
307.57977655526088
 51
351.71208311061889
  0
ARC
  5
FCE
  8
L6
  6
CONTINUOUS
 10
458.77068518790543
 20
72.230113335215151
 30
0.0
 40
4.3000889109512981
 50
269.9999999999996
 51
359.99719190316131
  0
LINE
  5
FCF
  8
L6
  6
CONTINUOUS
 10
462.00302948368432
 20
67.830024429428079
 30
0.0
 11
468.37077409369022
 21
67.830024429428079
 31
0.0
  0
ARC
  5
FD0
  8
L6
  6
CONTINUOUS
 10
462.00284331802578
 20
68.029930579296717
 30
0.0
 40
0.1999062365954694
 50
127.5539122077131
 51
270.05337049269912
  0
ARC
  5
FD1
  8
L6
  6
CONTINUOUS
 10
458.77182274308888
 20
72.22897579013636
 30
0.0
 40
1.5640415036080639
 50
269.96604818480012
 51
0.034352724277209
  0
ARC
  5
FD2
  8
0
  6
CONTINUOUS
 62
     7
 10
458.77081190833292
 20
72.229986614774745
 30
0.0
 40
0.8348723194423381
 50
269.9999999999996
 51
359.9942332262699
  0
LINE
  5
FD3
  8
L6
  6
CONTINUOUS
 10
463.07077409368958
 20
84.330024429429727
 30
0.0
 11
463.07077409368958
 21
72.229902585554825
 31
0.0
  0
LINE
  5
FD4
  8
L6
  6
CONTINUOUS
 10
460.33586396383322
 20
84.330024429428136
 30
0.0
 11
460.33586396555188
 21
72.229913539543475
 31
0.0
  0
LINE
  5
FD5
  8
0
  6
CONTINUOUS
 62
     7
 10
459.60568422354658
 20
84.330024429428022
 30
0.0
 11
459.60568422354658
 21
72.229902585553191
 31
0.0
  0
LINE
  5
FD6
  8
L6
  6
CONTINUOUS
 10
473.3707740936901
 20
72.830024429428079
 30
0.0
 11
473.3707740936909
 21
88.797636579629568
 31
0.0
  0
POLYLINE
  5
FD7
  8
L6
  6
CONTINUOUS
 66
     1
 10
0.0
 20
0.0
 30
0.0
 70
   128
  0
VERTEX
  5
1685
  8
L6
  6
CONTINUOUS
 10
463.99640707561588
 20
71.317589582851227
 30
0.0
  0
VERTEX
  5
1686
  8
L6
  6
CONTINUOUS
 10
463.92266413520758
 20
71.385145712821071
 30
0.0
  0
VERTEX
  5
1687
  8
L6
  6
CONTINUOUS
 10
463.88822458423812
 20
71.418018662427571
 30
0.0
  0
SEQEND
  5
1688
  8
L6
  6
CONTINUOUS
  0
LINE
  5
FD8
  8
L6
  6
CONTINUOUS
 10
463.87077409368982
 20
72.229902585552281
 30
0.0
 11
463.85290290398751
 21
71.806308301129377
 31
0.0
  0
LINE
  5
FD9
  8
L6
  6
CONTINUOUS
 10
463.85301680617232
 20
71.806505620966732
 30
0.0
 11
463.84086735198792
 21
71.785462149035084
 31
0.0
  0
ARC
  5
FDA
  8
L6
  6
CONTINUOUS
 10
464.10066023691661
 20
71.635467477902296
 30
0.0
 40
0.2999845736497452
 50
149.99947415643621
 51
201.44398886130759
  0
LINE
  5
FDB
  8
L6
  6
CONTINUOUS
 10
469.66223513567468
 20
77.435593938281386
 30
0.0
 11
469.6606068116235
 21
77.43536152226352
 31
0.0
  0
LINE
  5
FDC
  8
L6
  6
CONTINUOUS
 10
469.6606796214669
 20
77.435487632611512
 30
0.0
 11
469.65380665120438
 21
77.442081251182572
 31
0.0
  0
ARC
  5
FDD
  8
L6
  6
CONTINUOUS
 10
466.77077409369019
 20
74.430024429428045
 30
0.0
 40
4.1694559627323313
 50
46.25381741382764
 51
73.746182586173532
  0
LINE
  5
FDE
  8
L6
  6
CONTINUOUS
 10
467.59692216676427
 20
72.922042941102745
 30
0.0
 11
468.48979840755362
 21
74.468549955021047
 31
0.0
  0
ARC
  5
FDF
  8
L6
  6
CONTINUOUS
 10
466.77077409369019
 20
74.430024429428045
 30
0.0
 40
1.719455962732316
 50
1.283856519742903
 51
24.438300782393291
  0
LINE
  5
FE0
  8
L6
  6
CONTINUOUS
 10
469.6606068116235
 20
77.43536152226352
 30
0.0
 11
468.33617936703342
 21
75.14138589729464
 31
0.0
  0
ARC
  5
FE1
  8
L6
  6
CONTINUOUS
 10
468.37077409369022
 20
72.830024429428079
 30
0.0
 40
5.0000000000000142
 50
269.9999999999996
 51
0.0
  0
ARC
  5
FE2
  8
0
  6
CONTINUOUS
 62
     7
 10
468.37077409369022
 20
72.830024429428079
 30
0.0
 40
6.0
 50
269.9999999999996
 51
0.0
  0
LINE
  5
FE3
  8
L6
  6
CONTINUOUS
 10
465.94462602061611
 20
75.938005917753401
 30
0.0
 11
465.94019003534891
 21
75.942540180795945
 31
0.0
  0
ARC
  5
FE4
  8
L6
  6
CONTINUOUS
 10
466.77077409369019
 20
74.430024429428045
 30
0.0
 40
1.719455962732392
 50
95.561699217620045
 51
118.7161434802593
  0
LINE
  5
FE5
  8
L6
  6
CONTINUOUS
 10
465.94462602061611
 20
75.938005917753401
 30
0.0
 11
465.05174977982682
 21
74.391498903835043
 31
0.0
  0
ARC
  5
FE6
  8
L6
  6
CONTINUOUS
 10
466.77077409369019
 20
74.430024429428045
 30
0.0
 40
1.719455962733649
 50
181.28385651974199
 51
204.43830078241689
  0
LINE
  5
FE7
  8
L6
  6
CONTINUOUS
 10
465.61299218332562
 20
70.424687336592626
 30
0.0
 11
465.61360506717563
 21
70.423160958589676
 31
0.0
  0
ARC
  5
FE8
  8
L6
  6
CONTINUOUS
 10
466.77077409369019
 20
74.430024429428045
 30
0.0
 40
4.1694559627323828
 50
228.28677750671301
 51
253.74618258617019
  0
LINE
  5
FE9
  8
L6
  6
CONTINUOUS
 10
465.60377264716561
 20
70.427216583805944
 30
0.0
 11
465.61291937348233
 21
70.424561226244563
 31
0.0
  0
LINE
  5
FEA
  8
L6
  6
CONTINUOUS
 10
466.93741962791597
 20
72.718662961561506
 30
0.0
 11
465.61299218332562
 21
70.424687336592626
 31
0.0
  0
LINE
  5
FEB
  8
L6
  6
CONTINUOUS
 10
463.88094137575678
 20
71.424687336592626
 30
0.0
 11
465.20536882034622
 21
73.718662961560256
 31
0.0
  0
LINE
  5
FEC
  8
L6
  6
CONTINUOUS
 10
463.87077409368948
 20
84.330024429427112
 30
0.0
 11
463.87077409368948
 21
72.229902585552281
 31
0.0
  0
ARC
  5
FED
  8
L6
  6
CONTINUOUS
 10
466.77077409369019
 20
74.430024429428045
 30
0.0
 40
1.719455962732338
 50
275.56169921760699
 51
298.71614348025679
  0
LINE
  5
FEE
  8
L6
  6
CONTINUOUS
 10
466.6041285594643
 20
76.14138589729464
 30
0.0
 11
467.92855600405471
 21
78.43536152226352
 31
0.0
  0
ARC
  5
FEF
  8
L6
  6
CONTINUOUS
 10
468.97182274309262
 20
92.028975790116192
 30
0.0
 40
1.5640415035879149
 50
269.96604818467119
 51
0.0343527250190157
  0
ARC
  5
FF0
  8
0
  6
CONTINUOUS
 62
     7
 10
468.9708119083075
 20
92.029986614781805
 30
0.0
 40
0.8348723194679184
 50
269.9999999999996
 51
359.9942332257902
  0
ARC
  5
FF1
  8
L6
  6
CONTINUOUS
 10
468.97146070340182
 20
92.028748217228724
 30
0.0
 40
5.0987238190788258
 50
269.9999999999996
 51
322.4246404595799
  0
ARC
  5
FF2
  8
L6
  6
CONTINUOUS
 10
473.17086798764188
 20
88.79782297469427
 30
0.0
 40
0.1999061929476481
 50
359.94657668219531
 51
142.46498375001201
  0
ARC
  5
FF3
  8
L6
  6
CONTINUOUS
 10
468.97068518788211
 20
92.030113335234773
 30
0.0
 40
4.3000889109723879
 50
269.9999999999996
 51
359.99719190288653
  0
LINE
  5
FF4
  8
L6
  6
CONTINUOUS
 10
468.97089593756402
 20
86.930024429428386
 30
0.0
 11
466.47077409368882
 21
86.930024429428684
 31
0.0
  0
LINE
  5
FF5
  8
L6
  6
CONTINUOUS
 10
468.9708959375667
 20
87.730024429428568
 30
0.0
 11
466.47077409369172
 21
87.730024429428568
 31
0.0
  0
LINE
  5
FF6
  8
L6
  6
CONTINUOUS
 10
468.9708959375651
 20
90.464934559284757
 30
0.0
 11
466.47077409369018
 21
90.464934559284984
 31
0.0
  0
LINE
  5
FF7
  8
0
  6
CONTINUOUS
 62
     7
 10
468.97089593758233
 20
91.195114299571685
 30
0.0
 11
466.47077409369012
 21
91.195114299571685
 31
0.0
  0
ARC
  5
FF8
  8
0
  6
CONTINUOUS
 62
     7
 10
466.47077409369012
 20
213.53002442942801
 30
0.0
 40
6.8650898701436063
 50
180.00000000000051
 51
270.0
  0
ARC
  5
FF9
  8
L6
  6
CONTINUOUS
 10
466.47077409369012
 20
213.53002442942801
 30
0.0
 40
6.1349101298569328
 50
180.00000000000119
 51
270.0
  0
ARC
  5
FFA
  8
L6
  6
CONTINUOUS
 10
466.47077409369012
 20
213.53002442942801
 30
0.0
 40
3.4000000000005031
 50
180.00000000002811
 51
270.0
  0
ARC
  5
FFB
  8
L6
  6
CONTINUOUS
 10
466.47077409369012
 20
213.5300244294281
 30
0.0
 40
2.6000000000006191
 50
179.9999999999807
 51
270.0000000000008
  0
LINE
  5
FFC
  8
0
  6
CONTINUOUS
 62
     7
 10
459.60568422354658
 20
213.5300244294281
 30
0.0
 11
459.60568422354658
 21
225.63014627330281
 31
0.0
  0
LINE
  5
FFD
  8
L6
  6
CONTINUOUS
 10
460.33586396383322
 20
213.53002442942801
 30
0.0
 11
460.33586396555188
 21
225.63013531931259
 31
0.0
  0
LINE
  5
FFE
  8
L6
  6
CONTINUOUS
 10
463.07077409368958
 20
213.53002442942639
 30
0.0
 11
463.07077409368958
 21
225.63014627330119
 31
0.0
  0
ARC
  5
FFF
  8
0
  6
CONTINUOUS
 62
     7
 10
458.77081190833292
 20
225.6300622440813
 30
0.0
 40
0.8348723194423381
 50
0.0057667737301426
 51
90.000000000000426
  0
LINE
  5
1000
  8
0
  6
CONTINUOUS
 62
     7
 10
468.97089593758233
 20
206.6649345592844
 30
0.0
 11
466.47077409369012
 21
206.6649345592844
 31
0.0
  0
LINE
  5
1001
  8
L6
  6
CONTINUOUS
 10
468.9708959375651
 20
207.39511429957139
 30
0.0
 11
466.47077409369018
 21
207.39511429957111
 31
0.0
  0
LINE
  5
1002
  8
L6
  6
CONTINUOUS
 10
468.9708959375667
 20
210.13002442942749
 30
0.0
 11
466.47077409369172
 21
210.13002442942749
 31
0.0
  0
LINE
  5
1003
  8
L6
  6
CONTINUOUS
 10
468.97089593756402
 20
210.9300244294277
 30
0.0
 11
466.47077409368882
 21
210.93002442942739
 31
0.0
  0
ARC
  5
1004
  8
L6
  6
CONTINUOUS
 10
468.97068518788211
 20
205.82993552362129
 30
0.0
 40
4.3000889109723879
 50
0.0028080971133981
 51
90.000000000000426
  0
ARC
  5
1005
  8
L6
  6
CONTINUOUS
 10
473.17086798764188
 20
209.0622258841619
 30
0.0
 40
0.1999061929476481
 50
217.53501624998799
 51
0.0534233178046773
  0
ARC
  5
1006
  8
L6
  6
CONTINUOUS
 10
468.97146070340182
 20
205.83130064162739
 30
0.0
 40
5.0987238190788258
 50
37.575359540420109
 51
90.000000000000426
  0
ARC
  5
1007
  8
0
  6
CONTINUOUS
 62
     7
 10
468.9708119083075
 20
205.8300622440743
 30
0.0
 40
0.8348723194679184
 50
0.0057667742097589
 51
90.000000000000426
  0
ARC
  5
1008
  8
L6
  6
CONTINUOUS
 10
468.97182274309262
 20
205.83107306874001
 30
0.0
 40
1.5640415035879149
 50
359.96564727498088
 51
90.033951815328763
  0
LINE
  5
1009
  8
L6
  6
CONTINUOUS
 10
466.6041285594643
 20
221.71866296156139
 30
0.0
 11
467.92855600405471
 21
219.4246873365926
 31
0.0
  0
ARC
  5
100A
  8
L6
  6
CONTINUOUS
 10
466.77077409369019
 20
223.43002442942799
 30
0.0
 40
1.719455962732338
 50
61.283856519743161
 51
84.438300782392844
  0
LINE
  5
100B
  8
L6
  6
CONTINUOUS
 10
463.87077409368948
 20
213.53002442942901
 30
0.0
 11
463.87077409368948
 21
225.63014627330381
 31
0.0
  0
LINE
  5
100C
  8
L6
  6
CONTINUOUS
 10
463.88094137575678
 20
226.43536152226349
 30
0.0
 11
465.20536882034622
 21
224.14138589729581
 31
0.0
  0
ARC
  5
100D
  8
L6
  6
CONTINUOUS
 10
466.77077409369019
 20
223.43002442942799
 30
0.0
 40
1.719455962733649
 50
155.561699217583
 51
178.7161434802579
  0
LINE
  5
100E
  8
L6
  6
CONTINUOUS
 10
465.94462602061611
 20
221.92204294110269
 30
0.0
 11
465.05174977982682
 21
223.4685499550211
 31
0.0
  0
ARC
  5
100F
  8
L6
  6
CONTINUOUS
 10
466.77077409369019
 20
223.43002442942799
 30
0.0
 40
1.719455962732392
 50
241.2838565197406
 51
264.43830078237988
  0
LINE
  5
1010
  8
L6
  6
CONTINUOUS
 10
465.94462602061611
 20
221.92204294110269
 30
0.0
 11
465.94019003534891
 21
221.9175086780601
 31
0.0
  0
LINE
  5
1011
  8
L6
  6
CONTINUOUS
 10
469.6606068116235
 20
220.4246873365926
 30
0.0
 11
468.33617936703342
 21
222.71866296156151
 31
0.0
  0
ARC
  5
1012
  8
L6
  6
CONTINUOUS
 10
466.77077409369019
 20
223.43002442942799
 30
0.0
 40
1.719455962732316
 50
335.5616992176067
 51
358.71614348025707
  0
LINE
  5
1013
  8
L6
  6
CONTINUOUS
 10
467.59692216676427
 20
224.93800591775329
 30
0.0
 11
468.48979840755362
 21
223.3914989038351
 31
0.0
  0
ARC
  5
1014
  8
L6
  6
CONTINUOUS
 10
466.77077409369019
 20
223.43002442942799
 30
0.0
 40
4.1694559627323313
 50
286.25381741382648
 51
313.74618258617232
  0
LINE
  5
1015
  8
L6
  6
CONTINUOUS
 10
469.6606796214669
 20
220.42456122624449
 30
0.0
 11
469.65380665120438
 21
220.41796760767349
 31
0.0
  0
LINE
  5
1016
  8
L6
  6
CONTINUOUS
 10
469.66223513567468
 20
220.4244549205747
 30
0.0
 11
469.6606068116235
 21
220.42468733659251
 31
0.0
  0
ARC
  5
1017
  8
L6
  6
CONTINUOUS
 10
464.10066023691661
 20
226.22458138095379
 30
0.0
 40
0.2999845736497452
 50
158.5560111386923
 51
210.00052584356371
  0
LINE
  5
1018
  8
L6
  6
CONTINUOUS
 10
463.85301680617232
 20
226.0535432378893
 30
0.0
 11
463.84086735198792
 21
226.07458670982101
 31
0.0
  0
LINE
  5
1019
  8
L6
  6
CONTINUOUS
 10
463.87077409368982
 20
225.63014627330381
 30
0.0
 11
463.85290290398751
 21
226.05374055772671
 31
0.0
  0
POLYLINE
  5
101A
  8
L6
  6
CONTINUOUS
 66
     1
 10
0.0
 20
0.0
 30
0.0
 70
   128
  0
VERTEX
  5
1689
  8
L6
  6
CONTINUOUS
 10
463.99640707561588
 20
226.54245927600479
 30
0.0
  0
VERTEX
  5
168A
  8
L6
  6
CONTINUOUS
 10
463.92266413520758
 20
226.47490314603499
 30
0.0
  0
VERTEX
  5
168B
  8
L6
  6
CONTINUOUS
 10
463.88822458423812
 20
226.4420301964285
 30
0.0
  0
SEQEND
  5
168C
  8
L6
  6
CONTINUOUS
  0
LINE
  5
101B
  8
L6
  6
CONTINUOUS
 10
473.3707740936901
 20
225.03002442942801
 30
0.0
 11
473.3707740936909
 21
209.06241227922649
 31
0.0
  0
LINE
  5
101C
  8
L6
  6
CONTINUOUS
 10
462.00302948368432
 20
230.03002442942801
 30
0.0
 11
468.37077409369022
 21
230.03002442942801
 31
0.0
  0
ARC
  5
101D
  8
L6
  6
CONTINUOUS
 10
462.00284331802578
 20
229.8301182795594
 30
0.0
 40
0.1999062365954694
 50
89.946629507300813
 51
232.4460877922869
  0
LINE
  5
101E
  8
L6
  6
CONTINUOUS
 10
465.60377264716561
 20
227.43283227505009
 30
0.0
 11
465.61291937348233
 21
227.4354876326114
 31
0.0
  0
LINE
  5
101F
  8
L6
  6
CONTINUOUS
 10
465.61299218332562
 20
227.43536152226349
 30
0.0
 11
465.61360506717563
 21
227.43688790026641
 31
0.0
  0
LINE
  5
1288
  8
L1
  6
HIDDEN
 62
     1
 10
522.50195243813437
 20
72.423775659411376
 30
0.0
 11
522.50195243813437
 21
84.330024429427979
 31
0.0
  0
LINE
  5
1289
  8
0
  6
CONTINUOUS
 62
     7
 10
536.00195243813425
 20
72.229902585553134
 30
0.0
 11
536.00195243813425
 21
84.330024429428065
 31
0.0
  0
LINE
  5
128A
  8
L1
  6
HIDDEN
 62
     1
 10
522.50195243813437
 20
84.330024429427979
 30
0.0
 11
522.50195243813437
 21
91.823836581348814
 31
0.0
  0
ARC
  5
128B
  8
L1
  6
HIDDEN
 62
     1
 10
522.90195243813434
 20
91.823836581348814
 30
0.0
 40
0.3999999999999882
 50
179.99999999999591
 51
269.00000000000011
  0
LINE
  5
128C
  8
L1
  6
HIDDEN
 62
     1
 10
522.50195243813437
 20
91.823836581348814
 30
0.0
 11
522.50195243813437
 21
92.223775659411388
 31
0.0
  0
LINE
  5
128D
  8
0
  6
CONTINUOUS
 62
     7
 10
536.00195243813425
 20
84.330024429428065
 30
0.0
 11
536.00195243813425
 21
90.464934559284814
 31
0.0
  0
LINE
  5
128E
  8
0
  6
CONTINUOUS
 62
     7
 10
536.00195243813425
 20
90.464934559284814
 30
0.0
 11
536.00195243813425
 21
92.029902585553742
 31
0.0
  0
LINE
  5
128F
  8
L1
  6
HIDDEN
 62
     1
 10
536.00195243813425
 20
91.1951142995716
 30
0.0
 11
534.00195243813425
 21
91.230024429428056
 31
0.0
  0
LINE
  5
1290
  8
L1
  6
HIDDEN
 62
     1
 10
536.00195243813425
 20
90.464934559284814
 30
0.0
 11
534.00195243813425
 21
90.430024429428101
 31
0.0
  0
LINE
  5
1291
  8
L1
  6
HIDDEN
 62
     1
 10
534.00195243813425
 20
91.230024429428056
 30
0.0
 11
522.89497147555949
 21
91.42389750328627
 31
0.0
  0
LINE
  5
1292
  8
0
  6
CONTINUOUS
 62
     7
 10
519.00195243813437
 20
68.720522709064596
 30
0.0
 11
520.60170875038455
 21
67.063926553051715
 31
0.0
  0
LINE
  5
1293
  8
0
  6
CONTINUOUS
 62
     7
 10
536.00195243813425
 20
70.664934557566141
 30
0.0
 11
534.00195243813425
 21
70.630024429428261
 31
0.0
  0
LINE
  5
1294
  8
0
  6
CONTINUOUS
 62
     7
 10
520.60170875038455
 20
67.063926553051715
 30
0.0
 11
534.00195243813425
 21
66.830024429428065
 31
0.0
  0
ARC
  5
1295
  8
L1
  6
HIDDEN
 62
     1
 10
522.90195243813434
 20
82.123836581348854
 30
0.0
 40
0.4000000000000166
 50
180.0
 51
269.00000000000011
  0
ARC
  5
1296
  8
L1
  6
HIDDEN
 62
     1
 10
522.90195243813434
 20
72.023836581348746
 30
0.0
 40
0.3999999999999772
 50
180.0
 51
268.99999999985653
  0
LINE
  5
1297
  8
L1
  6
HIDDEN
 62
     1
 10
522.50195243813437
 20
72.023836581348803
 30
0.0
 11
522.50195243813437
 21
72.423775659411376
 31
0.0
  0
LINE
  5
1298
  8
L1
  6
HIDDEN
 62
     1
 10
536.00195243813425
 20
71.395114299571674
 30
0.0
 11
534.00195243813425
 21
71.430024429428045
 31
0.0
  0
LINE
  5
1299
  8
L1
  6
HIDDEN
 62
     1
 10
534.00195243813425
 20
71.430024429428045
 30
0.0
 11
522.89497147555949
 21
71.623897503286287
 31
0.0
  0
LINE
  5
129A
  8
L1
  6
HIDDEN
 62
     1
 10
522.89497147555949
 20
81.723897503286281
 30
0.0
 11
536.00195243813425
 21
81.495114299571611
 31
0.0
  0
LINE
  5
129B
  8
0
  6
CONTINUOUS
 62
     7
 10
534.00195243813425
 20
72.830024429428079
 30
0.0
 11
534.00195243813425
 21
66.830024429428065
 31
0.0
  0
LINE
  5
129C
  8
0
  6
CONTINUOUS
 62
     7
 10
536.00195243813425
 20
70.664934557566141
 30
0.0
 11
536.00195243813425
 21
72.229902585553759
 31
0.0
  0
LINE
  5
129D
  8
0
  6
CONTINUOUS
 62
     7
 10
520.60170875038455
 20
67.063926553051715
 30
0.0
 11
520.60170875038455
 21
72.830024429428079
 31
0.0
  0
LINE
  5
129E
  8
0
  6
CONTINUOUS
 62
     7
 10
519.00195243813437
 20
72.830024429428079
 30
0.0
 11
519.00195243813437
 21
68.720522709064596
 31
0.0
  0
LINE
  5
129F
  8
L1
  6
HIDDEN
 62
     1
 10
800.97935015096652
 20
282.29973004132211
 30
0.0
 11
599.67310138095002
 21
282.29973004132211
 31
0.0
  0
LINE
  5
12A0
  8
L1
  6
HIDDEN
 62
     1
 10
820.77935015096659
 20
282.29973004132211
 30
0.0
 11
808.87310138094995
 21
282.29973004132211
 31
0.0
  0
LINE
  5
12A1
  8
L1
  6
HIDDEN
 62
     1
 10
808.87310138094995
 20
282.29973004132211
 30
0.0
 11
801.37928922902927
 21
282.29973004132211
 31
0.0
  0
ARC
  5
12A2
  8
L1
  6
HIDDEN
 62
     1
 10
694.86972409527402
 20
281.89973004132207
 30
0.0
 40
0.3999999999999882
 50
0.9999999999998868
 51
90.000000000004064
  0
LINE
  5
12A3
  8
L1
  6
HIDDEN
 62
     1
 10
694.86972409527414
 20
282.29973004132211
 30
0.0
 11
694.46978501721151
 21
282.29973004132211
 31
0.0
  0
LINE
  5
12A4
  8
L1
  6
HIDDEN
 62
     1
 10
695.46353624719484
 20
270.79973004132222
 30
0.0
 11
695.26966317333665
 21
281.9067110038971
 31
0.0
  0
ARC
  5
12A5
  8
L1
  6
HIDDEN
 62
     1
 10
810.97928922902929
 20
281.89973004132207
 30
0.0
 40
0.4000000000000166
 50
0.9999999999998868
 51
89.999999999999986
  0
ARC
  5
12A6
  8
L1
  6
HIDDEN
 62
     1
 10
821.17928922902945
 20
281.89973004132207
 30
0.0
 40
0.3999999999999772
 50
1.0000000001434819
 51
89.999999999999986
  0
LINE
  5
12A7
  8
L1
  6
HIDDEN
 62
     1
 10
821.17928922902945
 20
282.29973004132211
 30
0.0
 11
820.77935015096659
 21
282.29973004132211
 31
0.0
  0
LINE
  5
12A8
  8
L1
  6
HIDDEN
 62
     1
 10
821.77310138094992
 20
270.79973004132222
 30
0.0
 11
821.57922830709185
 21
281.9067110038971
 31
0.0
  0
LINE
  5
12A9
  8
L1
  6
HIDDEN
 62
     1
 10
811.37922830709169
 20
281.9067110038971
 30
0.0
 11
811.60801151080625
 21
268.79973004132222
 31
0.0
  0
LINE
  5
12AA
  8
L1
  6
HIDDEN
 62
     1
 10
713.08266651470524
 20
270.79973004132222
 30
0.0
 11
713.27653958856342
 21
281.9067110038971
 31
0.0
  0
LINE
  5
12AB
  8
L1
  6
HIDDEN
 62
     1
 10
713.67647866662594
 20
282.29973004132211
 30
0.0
 11
714.07641774468846
 21
282.29973004132211
 31
0.0
  0
ARC
  5
12AC
  8
L1
  6
HIDDEN
 62
     1
 10
713.67647866662605
 20
281.89973004132207
 30
0.0
 40
0.3999999999999882
 50
89.999999999995936
 51
179.00000000000011
  0
LINE
  5
12AD
  8
L1
  6
HIDDEN
 62
     1
 10
597.16697445480827
 20
281.9067110038971
 30
0.0
 11
596.93819125109371
 21
268.79973004132222
 31
0.0
  0
LINE
  5
12AE
  8
L1
  6
HIDDEN
 62
     1
 10
586.77310138095004
 20
270.79973004132222
 30
0.0
 11
586.96697445480822
 21
281.9067110038971
 31
0.0
  0
ARC
  5
12AF
  8
L1
  6
HIDDEN
 62
     1
 10
597.56691353287079
 20
281.89973004132207
 30
0.0
 40
0.4000000000000166
 50
90.000000000000028
 51
179.00000000000011
  0
LINE
  5
12B0
  8
L1
  6
HIDDEN
 62
     1
 10
587.76685261093326
 20
282.29973004132211
 30
0.0
 11
599.67310138095002
 21
282.29973004132211
 31
0.0
  0
ARC
  5
12B1
  8
L1
  6
HIDDEN
 62
     1
 10
587.36691353287074
 20
281.89973004132207
 30
0.0
 40
0.3999999999999772
 50
90.000000000000028
 51
178.99999999985641
  0
LINE
  5
12B2
  8
L1
  6
HIDDEN
 62
     1
 10
587.36691353287074
 20
282.29973004132211
 30
0.0
 11
587.76685261093326
 21
282.29973004132211
 31
0.0
  0
LINE
  5
153B
  8
L6
 10
210.5075092792803
 20
148.93002442942799
 30
0.0
 11
485.67602377934418
 21
148.93002442942799
 31
0.0
  0
POLYLINE
  5
153C
  8
0
  6
CONTINUOUS
 62
     7
 66
     1
 10
0.0
 20
0.0
 30
0.0
 70
   128
  0
VERTEX
  5
168D
  8
0
  6
CONTINUOUS
 62
     7
 10
592.78137052264776
 20
71.317589582851269
 30
0.0
  0
VERTEX
  5
168E
  8
0
  6
CONTINUOUS
 62
     7
 10
592.85511346305611
 20
71.385145712821156
 30
0.0
  0
VERTEX
  5
168F
  8
0
  6
CONTINUOUS
 62
     7
 10
592.88955301402564
 20
71.418018662427585
 30
0.0
  0
SEQEND
  5
1690
  8
0
  6
CONTINUOUS
 62
     7
  0
LINE
  5
153D
  8
0
  6
CONTINUOUS
 62
     7
 10
820.60700350457353
 20
68.720522709064596
 30
0.0
 11
588.40700350457359
 21
68.720522709064596
 31
0.0
  0
LINE
  5
153E
  8
0
  6
CONTINUOUS
 62
     7
 10
588.40700350457359
 20
67.063926553051644
 30
0.0
 11
820.60700350457353
 21
67.063926553051715
 31
0.0
  0
LINE
  5
153F
  8
0
  6
CONTINUOUS
 62
     7
 10
820.60700350457353
 20
66.830024429428065
 30
0.0
 11
588.40700350457359
 21
66.830024429428136
 31
0.0
  0
ARC
  5
1540
  8
0
  6
CONTINUOUS
 62
     7
 10
590.0070035045735
 20
74.430024429428045
 30
0.0
 40
4.1694559627323446
 50
106.25381741382709
 51
133.74618258617281
  0
ARC
  5
1541
  8
0
  6
CONTINUOUS
 62
     7
 10
590.0070035045735
 20
74.430024429428045
 30
0.0
 40
4.2959955456983669
 50
104.8252990025444
 51
135.17470099745651
  0
LINE
  5
1542
  8
0
  6
CONTINUOUS
 62
     7
 10
587.11717078664014
 20
77.435361522263577
 30
0.0
 11
588.44159823123039
 21
75.14138589729464
 31
0.0
  0
ARC
  5
1543
  8
0
  6
CONTINUOUS
 62
     7
 10
590.0070035045735
 20
74.430024429428045
 30
0.0
 40
4.1974156870926418
 50
138.28540413055239
 51
281.71459586946003
  0
ARC
  5
1544
  8
0
  6
CONTINUOUS
 62
     7
 10
588.40700350457359
 20
72.830024429428136
 30
0.0
 40
4.1095017203635393
 50
180.0
 51
270.0
  0
ARC
  5
1545
  8
0
  6
CONTINUOUS
 62
     7
 10
588.40700350457359
 20
72.830024429428136
 30
0.0
 40
5.7660978763764774
 50
180.0
 51
270.0
  0
ARC
  5
1546
  8
0
  6
CONTINUOUS
 62
     7
 10
588.40700350457359
 20
72.830024429428136
 30
0.0
 40
6.0
 50
180.0
 51
270.0
  0
ARC
  5
1547
  8
0
  6
CONTINUOUS
 62
     7
 10
587.17279294073114
 20
77.247000238608734
 30
0.0
 40
0.2999847562220651
 50
135.17421130975151
 51
184.57523590696681
  0
ARC
  5
1548
  8
0
  6
CONTINUOUS
 62
     7
 10
590.0070035045735
 20
74.430024429428045
 30
0.0
 40
4.1974156870927102
 50
318.2854041305514
 51
101.71459586946141
  0
ARC
  5
1549
  8
0
  6
CONTINUOUS
 62
     7
 10
591.02947137867579
 20
70.567041298606341
 30
0.0
 40
0.2999876349823151
 50
235.42501698730871
 51
284.82553579547681
  0
LINE
  5
154A
  8
0
  6
CONTINUOUS
 62
     7
 10
590.17364903879923
 20
76.14138589729464
 30
0.0
 11
588.84922159420898
 21
78.43536152226352
 31
0.0
  0
ARC
  5
154B
  8
0
  6
CONTINUOUS
 62
     7
 10
588.98453563047588
 20
78.293007560293205
 30
0.0
 40
0.2999876349438618
 50
55.425016983366852
 51
104.8255358001466
  0
LINE
  5
154C
  8
0
  6
CONTINUOUS
 62
     7
 10
590.83315157764753
 20
75.938005917753401
 30
0.0
 11
591.72602781843693
 21
74.3914989038351
 31
0.0
  0
ARC
  5
154D
  8
0
  6
CONTINUOUS
 62
     7
 10
590.0070035045735
 20
74.430024429428045
 30
0.0
 40
1.719455962732934
 50
335.56169921757879
 51
358.71614348025622
  0
LINE
  5
154E
  8
0
  6
CONTINUOUS
 62
     7
 10
591.57386207920808
 20
73.718733693856052
 30
0.0
 11
592.89846454655822
 21
71.42445492057476
 31
0.0
  0
LINE
  5
154F
  8
0
  6
CONTINUOUS
 62
     7
 10
592.89683622250675
 20
71.424687336592626
 30
0.0
 11
591.57240877791685
 21
73.71866296156054
 31
0.0
  0
ARC
  5
1550
  8
0
  6
CONTINUOUS
 62
     7
 10
592.84121406921645
 20
71.613048619933807
 30
0.0
 40
0.2999847554424658
 50
315.1742112461738
 51
4.5752359789484167
  0
LINE
  5
1551
  8
0
  6
CONTINUOUS
 62
     7
 10
589.18085543149937
 20
72.922042941102802
 30
0.0
 11
588.28797919070996
 21
74.468549955021103
 31
0.0
  0
LINE
  5
1552
  8
0
  6
CONTINUOUS
 62
     7
 10
591.57386207920808
 20
73.718733693856052
 30
0.0
 11
591.57240877791685
 21
73.71866296156054
 31
0.0
  0
ARC
  5
1553
  8
0
  6
CONTINUOUS
 62
     7
 10
590.0070035045735
 20
74.430024429428045
 30
0.0
 40
1.7194559627323129
 50
61.283856519741967
 51
84.438300782390854
  0
LINE
  5
1554
  8
0
  6
CONTINUOUS
 62
     7
 10
590.17443694540918
 20
76.14260912698461
 30
0.0
 11
590.17364903879923
 21
76.14138589729464
 31
0.0
  0
ARC
  5
1555
  8
0
  6
CONTINUOUS
 62
     7
 10
590.0070035045735
 20
74.430024429428045
 30
0.0
 40
1.719455962732354
 50
155.56169921760829
 51
178.71614348025659
  0
LINE
  5
1556
  8
0
  6
CONTINUOUS
 62
     7
 10
588.44014492993915
 20
75.141315164999583
 30
0.0
 11
588.44159823123039
 21
75.14138589729464
 31
0.0
  0
ARC
  5
1557
  8
0
  6
CONTINUOUS
 62
     7
 10
590.0070035045735
 20
74.430024429428045
 30
0.0
 40
1.7194559627323649
 50
241.2838565197396
 51
264.43830078239341
  0
ARC
  5
1558
  8
0
  6
CONTINUOUS
 62
     7
 10
590.0070035045735
 20
74.430024429428045
 30
0.0
 40
4.1694559627323464
 50
286.25381741382631
 51
311.71322249328472
  0
ARC
  5
1559
  8
0
  6
CONTINUOUS
 62
     7
 10
590.0070035045735
 20
74.430024429428045
 30
0.0
 40
4.2959955456983669
 50
284.8252990025436
 51
315.17470099745458
  0
LINE
  5
155A
  8
0
  6
CONTINUOUS
 62
     7
 10
591.16417253108807
 20
70.423160958589733
 30
0.0
 11
589.83957006373771
 21
72.717439731871593
 31
0.0
  0
LINE
  5
155B
  8
0
  6
CONTINUOUS
 62
     7
 10
589.84035797034778
 20
72.718662961561506
 30
0.0
 11
591.16478541493791
 21
70.424687336592626
 31
0.0
  0
ARC
  5
155C
  8
0
  6
CONTINUOUS
 62
     7
 10
704.5070035045735
 20
74.430024429428045
 30
0.0
 40
4.1974156870921684
 50
18.697675649774862
 51
161.3023243502243
  0
LINE
  5
155D
  8
0
  6
CONTINUOUS
 62
     7
 10
705.90105981174645
 20
75.431318391413129
 30
0.0
 11
708.15778959819033
 21
75.431318391413186
 31
0.0
  0
LINE
  5
155E
  8
0
  6
CONTINUOUS
 62
     7
 10
708.15738390206832
 20
75.430024429428101
 30
0.0
 11
705.90039590532513
 21
75.430024429428101
 31
0.0
  0
LINE
  5
155F
  8
0
  6
CONTINUOUS
 62
     7
 10
705.91024660286701
 20
73.443895031446289
 30
0.0
 11
708.5536743071234
 21
73.443895031446289
 31
0.0
  0
ARC
  5
1560
  8
0
  6
CONTINUOUS
 62
     7
 10
704.5070035045735
 20
74.430024429428045
 30
0.0
 40
4.197415687092187
 50
198.69767564977639
 51
341.30232435022282
  0
ARC
  5
1561
  8
0
  6
CONTINUOUS
 62
     7
 10
704.5070035045735
 20
74.430024429428045
 30
0.0
 40
1.7150925288369749
 50
35.665979748704288
 51
58.675353085406947
  0
LINE
  5
1562
  8
0
  6
CONTINUOUS
 62
     7
 10
703.113611103822
 20
75.430024429428101
 30
0.0
 11
700.85651295011553
 21
75.430024429428101
 31
0.0
  0
LINE
  5
1563
  8
0
  6
CONTINUOUS
 62
     7
 10
700.46033270202361
 20
73.443895031446289
 30
0.0
 11
703.10376040628
 21
73.443895031446289
 31
0.0
  0
LINE
  5
1564
  8
0
  6
CONTINUOUS
 62
     7
 10
703.61534983614695
 20
75.895116958265078
 30
0.0
 11
703.6124184694354
 21
75.905589199613914
 31
0.0
  0
LINE
  5
1565
  8
0
  6
CONTINUOUS
 62
     7
 10
703.61534983614695
 20
75.895116958265078
 30
0.0
 11
705.39865717299995
 21
75.895116958265078
 31
0.0
  0
ARC
  5
1566
  8
0
  6
CONTINUOUS
 62
     7
 10
704.5070035045735
 20
74.430024429428045
 30
0.0
 40
1.7150925288369601
 50
121.3246469145914
 51
144.3340202512945
  0
LINE
  5
1567
  8
0
  6
CONTINUOUS
 62
     7
 10
705.90105981174645
 20
75.431318391413129
 30
0.0
 11
705.90039590532513
 21
75.430024429428101
 31
0.0
  0
LINE
  5
1568
  8
0
  6
CONTINUOUS
 62
     7
 10
705.39865717299995
 20
72.964931900591125
 30
0.0
 11
703.61534983614695
 21
72.964931900591125
 31
0.0
  0
ARC
  5
1569
  8
0
  6
CONTINUOUS
 62
     7
 10
704.5070035045735
 20
74.430024429428045
 30
0.0
 40
1.7150925288369749
 50
215.09763937056309
 51
238.67535308540769
  0
ARC
  5
156A
  8
0
  6
CONTINUOUS
 62
     7
 10
704.5070035045735
 20
74.430024429428045
 30
0.0
 40
1.715092528836994
 50
301.32464691459239
 51
324.90236062943637
  0
LINE
  5
156B
  8
0
  6
CONTINUOUS
 62
     7
 10
705.91091863522365
 20
73.442601069461261
 30
0.0
 11
705.91024660286701
 21
73.443895031446289
 31
0.0
  0
ARC
  5
156C
  8
0
  6
CONTINUOUS
 62
     7
 10
704.5070035045735
 20
74.430024429428045
 30
0.0
 40
4.3959955456983559
 50
165.2043496192353
 51
194.79565038076461
  0
ARC
  5
156D
  8
0
  6
CONTINUOUS
 62
     7
 10
704.5070035045735
 20
74.430024429428045
 30
0.0
 40
4.165092528836972
 50
179.7074807698294
 51
193.69542109179281
  0
ARC
  5
156E
  8
0
  6
CONTINUOUS
 62
     7
 10
700.54680625554363
 20
75.476034488337973
 30
0.0
 40
0.2999853779295209
 50
92.998584411367787
 51
165.204798678191
  0
ARC
  5
156F
  8
0
  6
CONTINUOUS
 62
     7
 10
701.54189160033843
 20
74.445177610585915
 30
0.0
 40
1.1999419048777169
 50
124.83755571904349
 51
179.70819207742991
  0
ARC
  5
1570
  8
0
  6
CONTINUOUS
 62
     7
 10
700.54680620201702
 20
73.384014304638072
 30
0.0
 40
0.2999853093519564
 50
194.79519176700541
 51
267.00142509502899
  0
ARC
  5
1571
  8
0
  6
CONTINUOUS
 62
     7
 10
704.5070035045735
 20
74.430024429428045
 30
0.0
 40
4.3959955456983559
 50
345.20434961923451
 51
14.795650380763799
  0
ARC
  5
1572
  8
0
  6
CONTINUOUS
 62
     7
 10
704.5070035045735
 20
74.430024429428045
 30
0.0
 40
4.1650925288370013
 50
346.30457890820639
 51
0.2925192301698288
  0
ARC
  5
1573
  8
0
  6
CONTINUOUS
 62
     7
 10
708.46720080714465
 20
75.476034554214721
 30
0.0
 40
0.2999853093422153
 50
14.795191768158499
 51
87.001425142583514
  0
LINE
  5
1574
  8
0
  6
CONTINUOUS
 62
     7
 10
708.67640512825631
 20
74.451311176382092
 30
0.0
 11
708.6720417512289
 21
74.451288899125757
 31
0.0
  0
ARC
  5
1575
  8
0
  6
CONTINUOUS
 62
     7
 10
707.47211540520493
 20
74.445177608336394
 30
0.0
 40
1.1999419084937699
 50
0.2918080291059124
 51
55.164756496952307
  0
ARC
  5
1576
  8
0
  6
CONTINUOUS
 62
     7
 10
708.46720075358724
 20
73.38401437052039
 30
0.0
 40
0.2999853779435309
 50
272.99858445394
 51
345.20479867844779
  0
POLYLINE
  5
1577
  8
0
  6
CONTINUOUS
 62
     7
 66
     1
 10
0.0
 20
0.0
 30
0.0
 70
   128
  0
VERTEX
  5
1691
  8
0
  6
CONTINUOUS
 62
     7
 10
816.23263648649913
 20
226.54245927600479
 30
0.0
  0
VERTEX
  5
1692
  8
0
  6
CONTINUOUS
 62
     7
 10
816.15889354609078
 20
226.4749031460349
 30
0.0
  0
VERTEX
  5
1693
  8
0
  6
CONTINUOUS
 62
     7
 10
816.12445399512137
 20
226.4420301964285
 30
0.0
  0
SEQEND
  5
1694
  8
0
  6
CONTINUOUS
 62
     7
  0
LINE
  5
1578
  8
0
  6
CONTINUOUS
 62
     7
 10
824.71650522493701
 20
225.0300244294279
 30
0.0
 11
824.71650522493701
 21
72.830024429428079
 31
0.0
  0
LINE
  5
1579
  8
0
  6
CONTINUOUS
 62
     7
 10
826.37310138094995
 20
72.830024429428079
 30
0.0
 11
826.37310138094995
 21
225.0300244294279
 31
0.0
  0
LINE
  5
157A
  8
0
  6
CONTINUOUS
 62
     7
 10
826.60700350457341
 20
225.0300244294279
 30
0.0
 11
826.60700350457341
 21
72.830024429428079
 31
0.0
  0
ARC
  5
157B
  8
0
  6
CONTINUOUS
 62
     7
 10
819.0070035045735
 20
74.430024429428045
 30
0.0
 40
4.1974156870927102
 50
78.285404130538524
 51
221.71459586944849
  0
ARC
  5
157C
  8
0
  6
CONTINUOUS
 62
     7
 10
819.0070035045735
 20
74.430024429428045
 30
0.0
 40
4.2959955456983669
 50
44.825299002543453
 51
75.174700997455545
  0
ARC
  5
157D
  8
0
  6
CONTINUOUS
 62
     7
 10
820.6070035045733
 20
72.830024429428136
 30
0.0
 40
6.0
 50
270.0
 51
0.000000000000007
  0
ARC
  5
157E
  8
0
  6
CONTINUOUS
 62
     7
 10
820.6070035045733
 20
72.830024429428136
 30
0.0
 40
5.7660978763764774
 50
270.0
 51
0.000000000000007
  0
ARC
  5
157F
  8
0
  6
CONTINUOUS
 62
     7
 10
820.6070035045733
 20
72.830024429428136
 30
0.0
 40
4.1095017203635393
 50
270.0
 51
0.000000000000007
  0
ARC
  5
1580
  8
0
  6
CONTINUOUS
 62
     7
 10
819.0070035045735
 20
74.430024429428045
 30
0.0
 40
4.1974156870926418
 50
258.28540413053992
 51
41.71459586944755
  0
LINE
  5
1581
  8
0
  6
CONTINUOUS
 62
     7
 10
821.89683622250675
 20
77.435361522263577
 30
0.0
 11
820.57240877791673
 21
75.14138589729464
 31
0.0
  0
ARC
  5
1582
  8
0
  6
CONTINUOUS
 62
     7
 10
819.0070035045735
 20
74.430024429428045
 30
0.0
 40
4.1694559627323446
 50
46.253817413827178
 51
73.746182586172864
  0
ARC
  5
1583
  8
0
  6
CONTINUOUS
 62
     7
 10
821.84121406841575
 20
77.247000238608734
 30
0.0
 40
0.2999847562220651
 50
355.42476409303322
 51
44.82578869024848
  0
LINE
  5
1584
  8
0
  6
CONTINUOUS
 62
     7
 10
819.17364903879923
 20
72.718662961561506
 30
0.0
 11
817.84922159420887
 21
70.424687336592626
 31
0.0
  0
LINE
  5
1585
  8
0
  6
CONTINUOUS
 62
     7
 10
817.84983447805894
 20
70.423160958589733
 30
0.0
 11
819.1744369454093
 21
72.717439731871593
 31
0.0
  0
ARC
  5
1586
  8
0
  6
CONTINUOUS
 62
     7
 10
819.0070035045735
 20
74.430024429428045
 30
0.0
 40
4.2959955456983669
 50
224.82529900254531
 51
255.17470099745631
  0
ARC
  5
1587
  8
0
  6
CONTINUOUS
 62
     7
 10
819.0070035045735
 20
74.430024429428045
 30
0.0
 40
4.1694559627323464
 50
228.2867775067152
 51
253.7461825861736
  0
ARC
  5
1588
  8
0
  6
CONTINUOUS
 62
     7
 10
819.0070035045735
 20
74.430024429428045
 30
0.0
 40
1.7194559627323649
 50
275.56169921760647
 51
298.71614348026031
  0
LINE
  5
1589
  8
0
  6
CONTINUOUS
 62
     7
 10
820.57386207920786
 20
75.141315164999583
 30
0.0
 11
820.57240877791673
 21
75.14138589729464
 31
0.0
  0
ARC
  5
158A
  8
0
  6
CONTINUOUS
 62
     7
 10
819.0070035045735
 20
74.430024429428045
 30
0.0
 40
1.719455962732354
 50
1.2838565197433549
 51
24.438300782391671
  0
LINE
  5
158B
  8
0
  6
CONTINUOUS
 62
     7
 10
818.83957006373771
 20
76.14260912698461
 30
0.0
 11
818.84035797034767
 21
76.14138589729464
 31
0.0
  0
ARC
  5
158C
  8
0
  6
CONTINUOUS
 62
     7
 10
819.0070035045735
 20
74.430024429428045
 30
0.0
 40
1.7194559627323129
 50
95.561699217609146
 51
118.716143480258
  0
LINE
  5
158D
  8
0
  6
CONTINUOUS
 62
     7
 10
817.44014492993881
 20
73.718733693856052
 30
0.0
 11
817.44159823123016
 21
73.71866296156054
 31
0.0
  0
LINE
  5
158E
  8
0
  6
CONTINUOUS
 62
     7
 10
819.83315157764753
 20
72.922042941102802
 30
0.0
 11
820.72602781843693
 21
74.468549955021103
 31
0.0
  0
ARC
  5
158F
  8
0
  6
CONTINUOUS
 62
     7
 10
816.17279293993045
 20
71.613048619933807
 30
0.0
 40
0.2999847554424658
 50
175.42476402105149
 51
224.82578875382609
  0
LINE
  5
1590
  8
0
  6
CONTINUOUS
 62
     7
 10
816.11717078664014
 20
71.424687336592626
 30
0.0
 11
817.44159823123016
 21
73.71866296156054
 31
0.0
  0
LINE
  5
1591
  8
0
  6
CONTINUOUS
 62
     7
 10
817.44014492993881
 20
73.718733693856052
 30
0.0
 11
816.11554246258868
 21
71.42445492057476
 31
0.0
  0
ARC
  5
1592
  8
0
  6
CONTINUOUS
 62
     7
 10
819.0070035045735
 20
74.430024429428045
 30
0.0
 40
1.719455962732934
 50
181.28385651974369
 51
204.43830078242109
  0
LINE
  5
1593
  8
0
  6
CONTINUOUS
 62
     7
 10
818.18085543149937
 20
75.938005917753401
 30
0.0
 11
817.28797919071008
 21
74.3914989038351
 31
0.0
  0
ARC
  5
1594
  8
0
  6
CONTINUOUS
 62
     7
 10
820.02947137867113
 20
78.293007560293205
 30
0.0
 40
0.2999876349438618
 50
75.174464199853389
 51
124.5749830166331
  0
LINE
  5
1595
  8
0
  6
CONTINUOUS
 62
     7
 10
818.84035797034767
 20
76.14138589729464
 30
0.0
 11
820.16478541493802
 21
78.43536152226352
 31
0.0
  0
ARC
  5
1596
  8
0
  6
CONTINUOUS
 62
     7
 10
817.98453563047099
 20
70.567041298606341
 30
0.0
 40
0.2999876349823151
 50
255.1744642045231
 51
304.57498301269118
  0
POLYLINE
  5
1597
  8
0
  6
CONTINUOUS
 62
     7
 66
     1
 10
0.0
 20
0.0
 30
0.0
 70
   128
  0
VERTEX
  5
1695
  8
0
  6
CONTINUOUS
 62
     7
 10
816.23263648649913
 20
71.317589582851269
 30
0.0
  0
VERTEX
  5
1696
  8
0
  6
CONTINUOUS
 62
     7
 10
816.15889354609078
 20
71.385145712821156
 30
0.0
  0
VERTEX
  5
1697
  8
0
  6
CONTINUOUS
 62
     7
 10
816.12445399512137
 20
71.418018662427585
 30
0.0
  0
SEQEND
  5
1698
  8
0
  6
CONTINUOUS
 62
     7
  0
ARC
  5
1598
  8
0
  6
CONTINUOUS
 62
     7
 10
819.0070035045735
 20
223.43002442942799
 30
0.0
 40
4.1694559627323446
 50
286.25381741382711
 51
313.74618258617278
  0
ARC
  5
1599
  8
0
  6
CONTINUOUS
 62
     7
 10
819.0070035045735
 20
223.43002442942799
 30
0.0
 40
4.2959955456983669
 50
284.8252990025444
 51
315.17470099745651
  0
LINE
  5
159A
  8
0
  6
CONTINUOUS
 62
     7
 10
821.89683622250675
 20
220.42468733659251
 30
0.0
 11
820.57240877791673
 21
222.71866296156139
 31
0.0
  0
ARC
  5
159B
  8
0
  6
CONTINUOUS
 62
     7
 10
819.0070035045735
 20
223.43002442942799
 30
0.0
 40
4.1974156870926418
 50
318.28540413055242
 51
101.71459586946
  0
ARC
  5
159C
  8
0
  6
CONTINUOUS
 62
     7
 10
820.6070035045733
 20
225.0300244294279
 30
0.0
 40
4.1095017203635393
 50
0.000000000000007
 51
90.0
  0
ARC
  5
159D
  8
0
  6
CONTINUOUS
 62
     7
 10
820.6070035045733
 20
225.0300244294279
 30
0.0
 40
5.7660978763764774
 50
0.000000000000007
 51
90.0
  0
ARC
  5
159E
  8
0
  6
CONTINUOUS
 62
     7
 10
820.6070035045733
 20
225.0300244294279
 30
0.0
 40
6.0
 50
0.000000000000007
 51
90.0
  0
ARC
  5
159F
  8
0
  6
CONTINUOUS
 62
     7
 10
821.84121406841575
 20
220.6130486202473
 30
0.0
 40
0.2999847562220651
 50
315.17421130975151
 51
4.5752359069668351
  0
ARC
  5
15A0
  8
0
  6
CONTINUOUS
 62
     7
 10
819.0070035045735
 20
223.43002442942799
 30
0.0
 40
4.1974156870927102
 50
138.2854041305514
 51
281.71459586946139
  0
ARC
  5
15A1
  8
0
  6
CONTINUOUS
 62
     7
 10
817.98453563047099
 20
227.29300756024969
 30
0.0
 40
0.2999876349823151
 50
55.425016987308659
 51
104.8255357954767
  0
LINE
  5
15A2
  8
0
  6
CONTINUOUS
 62
     7
 10
818.84035797034767
 20
221.71866296156139
 30
0.0
 11
820.16478541493802
 21
219.42468733659251
 31
0.0
  0
ARC
  5
15A3
  8
0
  6
CONTINUOUS
 62
     7
 10
820.02947137867113
 20
219.56704129856291
 30
0.0
 40
0.2999876349438618
 50
235.42501698336679
 51
284.82553580014661
  0
LINE
  5
15A4
  8
0
  6
CONTINUOUS
 62
     7
 10
818.18085543149937
 20
221.92204294110269
 30
0.0
 11
817.28797919071008
 21
223.4685499550209
 31
0.0
  0
ARC
  5
15A5
  8
0
  6
CONTINUOUS
 62
     7
 10
819.0070035045735
 20
223.43002442942799
 30
0.0
 40
1.719455962732934
 50
155.56169921757879
 51
178.71614348025631
  0
LINE
  5
15A6
  8
0
  6
CONTINUOUS
 62
     7
 10
817.44014492993881
 20
224.14131516500001
 30
0.0
 11
816.11554246258868
 21
226.4355939382813
 31
0.0
  0
LINE
  5
15A7
  8
0
  6
CONTINUOUS
 62
     7
 10
816.11717078664014
 20
226.43536152226341
 30
0.0
 11
817.44159823123016
 21
224.14138589729549
 31
0.0
  0
ARC
  5
15A8
  8
0
  6
CONTINUOUS
 62
     7
 10
816.17279293993045
 20
226.2470002389222
 30
0.0
 40
0.2999847554424658
 50
135.1742112461738
 51
184.5752359789484
  0
LINE
  5
15A9
  8
0
  6
CONTINUOUS
 62
     7
 10
819.83315157764753
 20
224.93800591775329
 30
0.0
 11
820.72602781843693
 21
223.3914989038349
 31
0.0
  0
LINE
  5
15AA
  8
0
  6
CONTINUOUS
 62
     7
 10
817.44014492993881
 20
224.14131516500001
 30
0.0
 11
817.44159823123016
 21
224.14138589729549
 31
0.0
  0
ARC
  5
15AB
  8
0
  6
CONTINUOUS
 62
     7
 10
819.0070035045735
 20
223.43002442942799
 30
0.0
 40
1.7194559627323129
 50
241.2838565197419
 51
264.4383007823908
  0
LINE
  5
15AC
  8
0
  6
CONTINUOUS
 62
     7
 10
818.83957006373771
 20
221.71743973187139
 30
0.0
 11
818.84035797034767
 21
221.71866296156139
 31
0.0
  0
ARC
  5
15AD
  8
0
  6
CONTINUOUS
 62
     7
 10
819.0070035045735
 20
223.43002442942799
 30
0.0
 40
1.719455962732354
 50
335.56169921760829
 51
358.71614348025662
  0
LINE
  5
15AE
  8
0
  6
CONTINUOUS
 62
     7
 10
820.57386207920786
 20
222.71873369385651
 30
0.0
 11
820.57240877791673
 21
222.71866296156139
 31
0.0
  0
ARC
  5
15AF
  8
0
  6
CONTINUOUS
 62
     7
 10
819.0070035045735
 20
223.43002442942799
 30
0.0
 40
1.7194559627323649
 50
61.283856519739587
 51
84.438300782393483
  0
ARC
  5
15B0
  8
0
  6
CONTINUOUS
 62
     7
 10
819.0070035045735
 20
223.43002442942799
 30
0.0
 40
4.1694559627323464
 50
106.2538174138263
 51
131.71322249328469
  0
ARC
  5
15B1
  8
0
  6
CONTINUOUS
 62
     7
 10
819.0070035045735
 20
223.43002442942799
 30
0.0
 40
4.2959955456983669
 50
104.8252990025436
 51
135.17470099745461
  0
LINE
  5
15B2
  8
0
  6
CONTINUOUS
 62
     7
 10
817.84983447805894
 20
227.4368879002663
 30
0.0
 11
819.1744369454093
 21
225.14260912698441
 31
0.0
  0
LINE
  5
15B3
  8
0
  6
CONTINUOUS
 62
     7
 10
819.17364903879923
 20
225.1413858972945
 30
0.0
 11
817.84922159420887
 21
227.43536152226341
 31
0.0
  0
LINE
  5
15B4
  8
L6
 10
352.27077409369002
 20
248.25095846495131
 30
0.0
 11
352.27077409369002
 21
43.975401113320459
 31
0.0
  0
LINE
  5
15B5
  8
L6
 10
704.5070035045735
 20
299.97116002318438
 30
0.0
 11
704.5070035045735
 21
255.97984198081249
 31
0.0
  0
LINE
  5
15B6
  8
L6
 10
704.5070035045735
 20
244.40317786464581
 30
0.0
 11
704.5070035045735
 21
55.881111648530812
 31
0.0
  0
LINE
  5
15B7
  8
L6
 10
566.03812161938731
 20
148.93002442942799
 30
0.0
 11
861.80888819669599
 21
148.93002442942799
 31
0.0
  0
LINE
  5
15B8
  8
L6
 10
508.61378390107069
 20
148.93002442942799
 30
0.0
 11
552.60823877477651
 21
148.93002442942799
 31
0.0
  0
LINE
  5
15B9
  8
L1
  6
HIDDEN
 62
     1
 10
800.97935015096652
 20
15.56031881753392
 30
0.0
 11
599.67310138095002
 21
15.56031881753392
 31
0.0
  0
LINE
  5
15BA
  8
0
  6
CONTINUOUS
 62
     7
 10
694.77322322482485
 20
29.060318817533918
 30
0.0
 11
597.77299049106455
 21
29.060318817533918
 31
0.0
  0
LINE
  5
15BB
  8
0
  6
CONTINUOUS
 62
     7
 10
820.37310138094983
 20
13.660075129784159
 30
0.0
 11
588.17310138095002
 21
13.660075129784159
 31
0.0
  0
LINE
  5
15BC
  8
0
  6
CONTINUOUS
 62
     7
 10
588.17310138095002
 20
27.060318817533918
 30
0.0
 11
820.37310138094983
 21
27.060318817533918
 31
0.0
  0
LINE
  5
15BD
  8
0
  6
CONTINUOUS
 62
     7
 10
588.17310138095002
 20
12.06031881753392
 30
0.0
 11
820.37310138094983
 21
12.06031881753392
 31
0.0
  0
LINE
  5
15BE
  8
0
  6
CONTINUOUS
 62
     7
 10
582.40700350457348
 20
13.660075129784159
 30
0.0
 11
582.1731013809499
 21
27.060318817533918
 31
0.0
  0
ARC
  5
15BF
  8
L1
  6
HIDDEN
 62
     1
 10
587.36691353287074
 20
15.96031881753396
 30
0.0
 40
0.3999999999999772
 50
181.00000000014339
 51
270.0
  0
LINE
  5
15C0
  8
0
  6
CONTINUOUS
 62
     7
 10
587.57299049106666
 20
29.060318817533979
 30
0.0
 11
586.0080115126492
 21
29.060318817533979
 31
0.0
  0
LINE
  5
15C1
  8
0
  6
CONTINUOUS
 62
     7
 10
582.1731013809499
 20
27.060318817533918
 30
0.0
 11
588.17310138095002
 21
27.060318817533918
 31
0.0
  0
LINE
  5
15C2
  8
L1
  6
HIDDEN
 62
     1
 10
586.77310138095004
 20
27.060318817533869
 30
0.0
 11
586.96697445480822
 21
15.953337854958979
 31
0.0
  0
LINE
  5
15C3
  8
0
  6
CONTINUOUS
 62
     7
 10
586.00801151080657
 20
29.060318817533979
 30
0.0
 11
585.9731013809502
 21
27.060318817533979
 31
0.0
  0
LINE
  5
15C4
  8
L1
  6
HIDDEN
 62
     1
 10
587.36691353287074
 20
15.56031881753392
 30
0.0
 11
587.76685261093326
 21
15.56031881753392
 31
0.0
  0
LINE
  5
15C5
  8
L1
  6
HIDDEN
 62
     1
 10
587.76685261093326
 20
15.56031881753392
 30
0.0
 11
599.67310138095002
 21
15.56031881753392
 31
0.0
  0
ARC
  5
15C6
  8
L1
  6
HIDDEN
 62
     1
 10
597.56691353287079
 20
15.960318817533899
 30
0.0
 40
0.4000000000000166
 50
180.9999999999998
 51
270.0
  0
LINE
  5
15C7
  8
L1
  6
HIDDEN
 62
     1
 10
597.16697445480827
 20
15.953337854958979
 30
0.0
 11
596.93819125109371
 21
29.060318817533869
 31
0.0
  0
LINE
  5
15C8
  8
0
  6
CONTINUOUS
 62
     7
 10
596.20801151080695
 20
29.060318817533979
 30
0.0
 11
596.17310138095024
 21
27.060318817533918
 31
0.0
  0
LINE
  5
15C9
  8
0
  6
CONTINUOUS
 62
     7
 10
597.77299049106557
 20
29.060318817533918
 30
0.0
 11
596.20801151080695
 21
29.060318817533979
 31
0.0
  0
LINE
  5
15CA
  8
0
  6
CONTINUOUS
 62
     7
 10
590.07310138095022
 20
29.060318817533979
 30
0.0
 11
587.57299049106643
 21
29.060318817533979
 31
0.0
  0
LINE
  5
15CB
  8
0
  6
CONTINUOUS
 62
     7
 10
596.20801151080695
 20
29.060318817533979
 30
0.0
 11
590.07310138095022
 21
29.060318817533979
 31
0.0
  0
LINE
  5
15CC
  8
0
  6
CONTINUOUS
 62
     7
 10
588.17310138095002
 20
13.660075129784159
 30
0.0
 11
582.40700350457348
 21
13.660075129784159
 31
0.0
  0
LINE
  5
15CD
  8
0
  6
CONTINUOUS
 62
     7
 10
584.06359966058642
 20
12.060318817533981
 30
0.0
 11
588.17310138095002
 21
12.06031881753392
 31
0.0
  0
LINE
  5
15CE
  8
0
  6
CONTINUOUS
 62
     7
 10
582.40700350457348
 20
13.660075129784159
 30
0.0
 11
584.06359966058642
 21
12.060318817533981
 31
0.0
  0
LINE
  5
15CF
  8
0
  6
CONTINUOUS
 62
     7
 10
810.77322322482485
 20
29.060318817533918
 30
0.0
 11
713.77299049106614
 21
29.060318817533918
 31
0.0
  0
LINE
  5
15D0
  8
L6
 10
704.5070035045735
 20
-2.1111111643283489
 30
0.0
 11
704.5070035045735
 21
41.880206878043509
 31
0.0
  0
LINE
  5
15D1
  8
0
  6
CONTINUOUS
 62
     7
 10
712.20801151080695
 20
29.060318817533918
 30
0.0
 11
696.33819125109289
 21
29.060318817533918
 31
0.0
  0
LINE
  5
15D2
  8
L1
  6
HIDDEN
 62
     1
 10
695.46353624719484
 20
27.060318817533869
 30
0.0
 11
695.26966317333665
 21
15.953337854958979
 31
0.0
  0
LINE
  5
15D3
  8
L1
  6
HIDDEN
 62
     1
 10
694.86972409527414
 20
15.56031881753392
 30
0.0
 11
694.46978501721151
 21
15.56031881753392
 31
0.0
  0
ARC
  5
15D4
  8
L1
  6
HIDDEN
 62
     1
 10
694.86972409527402
 20
15.960318817533899
 30
0.0
 40
0.3999999999999882
 50
269.99999999999591
 51
359.00000000000011
  0
LINE
  5
15D5
  8
0
  6
CONTINUOUS
 62
     7
 10
696.33819125109289
 20
29.060318817533918
 30
0.0
 11
696.37310138094972
 21
27.060318817533918
 31
0.0
  0
LINE
  5
15D6
  8
0
  6
CONTINUOUS
 62
     7
 10
696.33819125109289
 20
29.060318817533918
 30
0.0
 11
694.77322322482428
 21
29.060318817533918
 31
0.0
  0
ARC
  5
15D7
  8
L1
  6
HIDDEN
 62
     1
 10
713.67647866662605
 20
15.960318817533899
 30
0.0
 40
0.3999999999999882
 50
180.9999999999998
 51
270.00000000000409
  0
LINE
  5
15D8
  8
L1
  6
HIDDEN
 62
     1
 10
713.67647866662594
 20
15.56031881753392
 30
0.0
 11
714.07641774468846
 21
15.56031881753392
 31
0.0
  0
LINE
  5
15D9
  8
L1
  6
HIDDEN
 62
     1
 10
713.08266651470524
 20
27.060318817533869
 30
0.0
 11
713.27653958856342
 21
15.953337854958979
 31
0.0
  0
LINE
  5
15DA
  8
0
  6
CONTINUOUS
 62
     7
 10
712.20801151080695
 20
29.060318817533918
 30
0.0
 11
712.17310138095024
 21
27.060318817533918
 31
0.0
  0
LINE
  5
15DB
  8
0
  6
CONTINUOUS
 62
     7
 10
713.77299049106671
 20
29.060318817533918
 30
0.0
 11
712.20801151080695
 21
29.060318817533918
 31
0.0
  0
LINE
  5
15DC
  8
0
  6
CONTINUOUS
 62
     7
 10
826.13919925732637
 20
13.660075129784159
 30
0.0
 11
826.37310138094995
 21
27.060318817533918
 31
0.0
  0
LINE
  5
15DD
  8
0
  6
CONTINUOUS
 62
     7
 10
820.37310138094983
 20
27.060318817533918
 30
0.0
 11
826.37310138094995
 21
27.060318817533918
 31
0.0
  0
LINE
  5
15DE
  8
L1
  6
HIDDEN
 62
     1
 10
811.37922830709169
 20
15.953337854958979
 30
0.0
 11
811.60801151080625
 21
29.060318817533869
 31
0.0
  0
LINE
  5
15DF
  8
L1
  6
HIDDEN
 62
     1
 10
821.77310138094992
 20
27.060318817533869
 30
0.0
 11
821.57922830709185
 21
15.953337854958979
 31
0.0
  0
LINE
  5
15E0
  8
L1
  6
HIDDEN
 62
     1
 10
821.17928922902945
 20
15.56031881753392
 30
0.0
 11
820.77935015096659
 21
15.56031881753392
 31
0.0
  0
ARC
  5
15E1
  8
L1
  6
HIDDEN
 62
     1
 10
821.17928922902945
 20
15.96031881753396
 30
0.0
 40
0.3999999999999772
 50
270.0
 51
358.99999999985653
  0
ARC
  5
15E2
  8
L1
  6
HIDDEN
 62
     1
 10
810.97928922902929
 20
15.960318817533899
 30
0.0
 40
0.4000000000000166
 50
270.0
 51
359.00000000000011
  0
LINE
  5
15E3
  8
L1
  6
HIDDEN
 62
     1
 10
808.87310138094995
 20
15.56031881753392
 30
0.0
 11
801.37928922902927
 21
15.56031881753392
 31
0.0
  0
LINE
  5
15E4
  8
L1
  6
HIDDEN
 62
     1
 10
820.77935015096659
 20
15.56031881753392
 30
0.0
 11
808.87310138094995
 21
15.56031881753392
 31
0.0
  0
LINE
  5
15E5
  8
0
  6
CONTINUOUS
 62
     7
 10
822.53819125281188
 20
29.060318817533979
 30
0.0
 11
822.57310138094988
 21
27.060318817533979
 31
0.0
  0
LINE
  5
15E6
  8
0
  6
CONTINUOUS
 62
     7
 10
822.53819125281188
 20
29.060318817533979
 30
0.0
 11
820.97322322482421
 21
29.060318817533979
 31
0.0
  0
LINE
  5
15E7
  8
0
  6
CONTINUOUS
 62
     7
 10
820.97322322482489
 20
29.060318817533979
 30
0.0
 11
818.47310138094997
 21
29.060318817533979
 31
0.0
  0
LINE
  5
15E8
  8
0
  6
CONTINUOUS
 62
     7
 10
818.47310138094997
 20
29.060318817533979
 30
0.0
 11
812.33819125109312
 21
29.060318817533979
 31
0.0
  0
LINE
  5
15E9
  8
0
  6
CONTINUOUS
 62
     7
 10
812.23819125109287
 20
29.060318817533979
 30
0.0
 11
810.67322322482437
 21
29.060318817533918
 31
0.0
  0
LINE
  5
15EA
  8
0
  6
CONTINUOUS
 62
     7
 10
812.23819125109287
 20
29.060318817533979
 30
0.0
 11
812.2731013809497
 21
27.060318817533918
 31
0.0
  0
LINE
  5
15EB
  8
0
  6
CONTINUOUS
 62
     7
 10
826.13919925732637
 20
13.660075129784159
 30
0.0
 11
820.37310138094983
 21
13.660075129784159
 31
0.0
  0
LINE
  5
15EC
  8
0
  6
CONTINUOUS
 62
     7
 10
826.13919925732637
 20
13.660075129784159
 30
0.0
 11
824.48260310131343
 21
12.060318817533981
 31
0.0
  0
LINE
  5
15ED
  8
0
  6
CONTINUOUS
 62
     7
 10
820.37310138094983
 20
12.06031881753392
 30
0.0
 11
824.48260310131343
 21
12.060318817533981
 31
0.0
  0
LINE
  5
15EE
  8
L1
  6
HIDDEN
 62
     1
 10
886.51205457101264
 20
205.6362731994447
 30
0.0
 11
886.51205457101264
 21
92.223775659411444
 31
0.0
  0
LINE
  5
15EF
  8
0
  6
CONTINUOUS
 62
     7
 10
888.41229825876235
 20
225.03002442942801
 30
0.0
 11
888.41229825876235
 21
72.830024429428079
 31
0.0
  0
LINE
  5
15F0
  8
0
  6
CONTINUOUS
 62
     7
 10
875.01205457101264
 20
72.830024429428079
 30
0.0
 11
875.01205457101264
 21
225.03002442942801
 31
0.0
  0
LINE
  5
15F1
  8
0
  6
CONTINUOUS
 62
     7
 10
890.01205457101275
 20
72.830024429428079
 30
0.0
 11
890.01205457101275
 21
225.03002442942801
 31
0.0
  0
LINE
  5
15F2
  8
0
  6
CONTINUOUS
 62
     7
 10
873.01205457101275
 20
205.83014627330289
 30
0.0
 11
873.01205457101275
 21
92.029913539543486
 31
0.0
  0
LINE
  5
15F3
  8
L1
  6
HIDDEN
 62
     1
 10
886.51205457101264
 20
72.423775659411376
 30
0.0
 11
886.51205457101264
 21
84.330024429427979
 31
0.0
  0
LINE
  5
15F4
  8
0
  6
CONTINUOUS
 62
     7
 10
873.01205457101275
 20
72.229902585553134
 30
0.0
 11
873.01205457101275
 21
84.330024429428065
 31
0.0
  0
LINE
  5
15F5
  8
L1
  6
HIDDEN
 62
     1
 10
873.01205457101275
 20
71.395114299571674
 30
0.0
 11
875.01205457101264
 21
71.430024429428045
 31
0.0
  0
LINE
  5
15F6
  8
L1
  6
HIDDEN
 62
     1
 10
875.01205457101264
 20
71.430024429428045
 30
0.0
 11
886.11903553358752
 21
71.623897503286287
 31
0.0
  0
LINE
  5
15F7
  8
L1
  6
HIDDEN
 62
     1
 10
886.51205457101264
 20
72.023836581348803
 30
0.0
 11
886.51205457101264
 21
72.423775659411376
 31
0.0
  0
ARC
  5
15F8
  8
L1
  6
HIDDEN
 62
     1
 10
886.11205457101255
 20
72.023836581348746
 30
0.0
 40
0.3999999999999772
 50
271.00000000014342
 51
0.000000000000007
  0
LINE
  5
15F9
  8
0
  6
CONTINUOUS
 62
     7
 10
890.01205457101275
 20
72.830024429428079
 30
0.0
 11
890.01205457101275
 21
68.720522709064596
 31
0.0
  0
LINE
  5
15FA
  8
0
  6
CONTINUOUS
 62
     7
 10
888.41229825876235
 20
67.063926553051715
 30
0.0
 11
888.41229825876235
 21
72.830024429428079
 31
0.0
  0
LINE
  5
15FB
  8
0
  6
CONTINUOUS
 62
     7
 10
873.01205457101275
 20
70.664934557566141
 30
0.0
 11
873.01205457101275
 21
72.229902585553759
 31
0.0
  0
LINE
  5
15FC
  8
0
  6
CONTINUOUS
 62
     7
 10
875.01205457101264
 20
72.830024429428079
 30
0.0
 11
875.01205457101264
 21
66.830024429428065
 31
0.0
  0
LINE
  5
15FD
  8
0
  6
CONTINUOUS
 62
     7
 10
888.41229825876235
 20
67.063926553051715
 30
0.0
 11
875.01205457101264
 21
66.830024429428065
 31
0.0
  0
LINE
  5
15FE
  8
0
  6
CONTINUOUS
 62
     7
 10
873.01205457101275
 20
70.664934557566141
 30
0.0
 11
875.01205457101264
 21
70.630024429428261
 31
0.0
  0
LINE
  5
15FF
  8
0
  6
CONTINUOUS
 62
     7
 10
890.01205457101275
 20
68.720522709064596
 30
0.0
 11
888.41229825876235
 21
67.063926553051715
 31
0.0
  0
LINE
  5
1600
  8
L1
  6
HIDDEN
 62
     1
 10
873.01205457101275
 20
90.464934559284814
 30
0.0
 11
875.01205457101264
 21
90.430024429428101
 31
0.0
  0
LINE
  5
1601
  8
L1
  6
HIDDEN
 62
     1
 10
873.01205457101275
 20
91.1951142995716
 30
0.0
 11
875.01205457101264
 21
91.230024429428056
 31
0.0
  0
LINE
  5
1602
  8
L1
  6
HIDDEN
 62
     1
 10
886.11903553358752
 20
81.723897503286281
 30
0.0
 11
873.01205457101275
 21
81.495114299571611
 31
0.0
  0
ARC
  5
1603
  8
L1
  6
HIDDEN
 62
     1
 10
886.11205457101255
 20
82.123836581348854
 30
0.0
 40
0.4000000000000166
 50
270.99999999999989
 51
0.000000000000007
  0
LINE
  5
1604
  8
L1
  6
HIDDEN
 62
     1
 10
875.01205457101264
 20
91.230024429428056
 30
0.0
 11
886.11903553358752
 21
91.42389750328627
 31
0.0
  0
LINE
  5
1605
  8
L1
  6
HIDDEN
 62
     1
 10
886.51205457101264
 20
91.823836581348814
 30
0.0
 11
886.51205457101264
 21
92.223775659411388
 31
0.0
  0
ARC
  5
1606
  8
L1
  6
HIDDEN
 62
     1
 10
886.11205457101255
 20
91.823836581348814
 30
0.0
 40
0.3999999999999882
 50
270.99999999999989
 51
0.0000000000040781
  0
LINE
  5
1607
  8
L1
  6
HIDDEN
 62
     1
 10
886.51205457101264
 20
84.330024429427979
 30
0.0
 11
886.51205457101264
 21
91.823836581348814
 31
0.0
  0
LINE
  5
1608
  8
0
  6
CONTINUOUS
 62
     7
 10
873.01205457101275
 20
90.464934559284814
 30
0.0
 11
873.01205457101275
 21
92.029902585553742
 31
0.0
  0
LINE
  5
1609
  8
0
  6
CONTINUOUS
 62
     7
 10
873.01205457101275
 20
84.330024429428065
 30
0.0
 11
873.01205457101275
 21
90.464934559284814
 31
0.0
  0
LINE
  5
160A
  8
L6
 10
900.40022310807626
 20
148.93002442942799
 30
0.0
 11
856.4057682343705
 21
148.93002442942799
 31
0.0
  0
LINE
  5
160B
  8
L1
  6
HIDDEN
 62
     1
 10
886.51205457101264
 20
225.43627319944471
 30
0.0
 11
886.51205457101264
 21
213.5300244294281
 31
0.0
  0
LINE
  5
160C
  8
0
  6
CONTINUOUS
 62
     7
 10
873.01205457101275
 20
225.6301462733029
 30
0.0
 11
873.01205457101275
 21
213.53002442942801
 31
0.0
  0
LINE
  5
160D
  8
L1
  6
HIDDEN
 62
     1
 10
873.01205457101275
 20
206.6649345592844
 30
0.0
 11
875.01205457101264
 21
206.630024429428
 31
0.0
  0
LINE
  5
160E
  8
L1
  6
HIDDEN
 62
     1
 10
873.01205457101275
 20
207.39511429957119
 30
0.0
 11
875.01205457101264
 21
207.4300244294279
 31
0.0
  0
LINE
  5
160F
  8
L1
  6
HIDDEN
 62
     1
 10
886.51205457101264
 20
213.5300244294281
 30
0.0
 11
886.51205457101264
 21
206.03621227750719
 31
0.0
  0
LINE
  5
1610
  8
L1
  6
HIDDEN
 62
     1
 10
886.51205457101264
 20
206.03621227750719
 30
0.0
 11
886.51205457101264
 21
205.63627319944459
 31
0.0
  0
ARC
  5
1611
  8
L1
  6
HIDDEN
 62
     1
 10
886.11205457101255
 20
206.03621227750719
 30
0.0
 40
0.3999999999999882
 50
359.99999999999591
 51
89.000000000000114
  0
LINE
  5
1612
  8
L1
  6
HIDDEN
 62
     1
 10
875.01205457101264
 20
206.630024429428
 30
0.0
 11
886.11903553358752
 21
206.43615135556979
 31
0.0
  0
LINE
  5
1613
  8
0
  6
CONTINUOUS
 62
     7
 10
873.01205457101275
 20
213.53002442942801
 30
0.0
 11
873.01205457101275
 21
207.39511429957119
 31
0.0
  0
LINE
  5
1614
  8
0
  6
CONTINUOUS
 62
     7
 10
873.01205457101275
 20
207.39511429957119
 30
0.0
 11
873.01205457101275
 21
205.83014627330229
 31
0.0
  0
LINE
  5
1615
  8
L1
  6
HIDDEN
 62
     1
 10
873.01205457101275
 20
226.46493455928439
 30
0.0
 11
875.01205457101264
 21
226.43002442942799
 31
0.0
  0
LINE
  5
1616
  8
L1
  6
HIDDEN
 62
     1
 10
886.11903553358752
 20
216.13615135556981
 30
0.0
 11
873.01205457101275
 21
216.36493455928439
 31
0.0
  0
ARC
  5
1617
  8
L1
  6
HIDDEN
 62
     1
 10
886.11205457101255
 20
215.73621227750721
 30
0.0
 40
0.4000000000000166
 50
0.000000000000007
 51
89.000000000000114
  0
LINE
  5
1618
  8
L1
  6
HIDDEN
 62
     1
 10
886.51205457101264
 20
225.8362122775072
 30
0.0
 11
886.51205457101264
 21
225.43627319944471
 31
0.0
  0
ARC
  5
1619
  8
L1
  6
HIDDEN
 62
     1
 10
886.11205457101255
 20
225.83621227750729
 30
0.0
 40
0.3999999999999772
 50
0.000000000000007
 51
88.999999999856499
  0
LINE
  5
161A
  8
L1
  6
HIDDEN
 62
     1
 10
875.01205457101264
 20
226.43002442942799
 30
0.0
 11
886.11903553358752
 21
226.2361513555698
 31
0.0
  0
LINE
  5
161B
  8
0
  6
CONTINUOUS
 62
     7
 10
890.01205457101275
 20
229.13952614979141
 30
0.0
 11
888.41229825876235
 21
230.79612230580429
 31
0.0
  0
LINE
  5
161C
  8
0
  6
CONTINUOUS
 62
     7
 10
873.01205457101275
 20
227.19511430128989
 30
0.0
 11
875.01205457101264
 21
227.2300244294278
 31
0.0
  0
LINE
  5
161D
  8
0
  6
CONTINUOUS
 62
     7
 10
888.41229825876235
 20
230.79612230580429
 30
0.0
 11
875.01205457101264
 21
231.03002442942801
 31
0.0
  0
LINE
  5
161E
  8
0
  6
CONTINUOUS
 62
     7
 10
875.01205457101264
 20
225.03002442942801
 30
0.0
 11
875.01205457101264
 21
231.03002442942801
 31
0.0
  0
LINE
  5
161F
  8
0
  6
CONTINUOUS
 62
     7
 10
873.01205457101275
 20
227.19511430128989
 30
0.0
 11
873.01205457101275
 21
225.6301462733023
 31
0.0
  0
LINE
  5
1620
  8
0
  6
CONTINUOUS
 62
     7
 10
888.41229825876235
 20
230.79612230580429
 30
0.0
 11
888.41229825876235
 21
225.03002442942801
 31
0.0
  0
LINE
  5
1621
  8
0
  6
CONTINUOUS
 62
     7
 10
890.01205457101275
 20
225.03002442942801
 30
0.0
 11
890.01205457101275
 21
229.13952614979141
 31
0.0
  0
TEXT
  5
1622
  8
L1
 10
273.48232515389799
 20
289.16317065350131
 30
0.0
 40
14.0
  1
EURONORD II
  7
TKKISO
  0
TEXT
  5
1623
  8
L1
 10
273.48232515389799
 20
265.16317065350131
 30
0.0
 40
14.0
  1
164x244x15 COVER
  7
TKKISO
  0
ENDSEC
  0
EOF
