  0
SECTION
  2
HEADER
  9
$ACADVER
  1
AC1009
  9
$INSBASE
 10
0.0
 20
0.0
 30
0.0
  9
$EXTMIN
 10
790.4212336696778
 20
69.39737713695564
 30
0.0
  9
$EXTMAX
 10
1755.6942596172139
 20
478.38045538188362
 30
0.0
  9
$LIMMIN
 10
0.0
 20
0.0
  9
$LIMMAX
 10
0.0
 20
0.0
  9
$ORTHOMODE
 70
     1
  9
$REGENMODE
 70
     1
  9
$FILLMODE
 70
     1
  9
$QTEXTMODE
 70
     0
  9
$MIRRTEXT
 70
     1
  9
$DRAGMODE
 70
     2
  9
$LTSCALE
 40
2.0
  9
$OSMODE
 70
    37
  9
$ATTMODE
 70
     1
  9
$TEXTSIZE
 40
0.0
  9
$TRACEWID
 40
0.05
  9
$TEXTSTYLE
  7
STANDARD
  9
$CLAYER
  8
L6
  9
$CELTYPE
  6
CONTINUOUS
  9
$CECOLOR
 62
   256
  9
$DIMSCALE
 40
1.0
  9
$DIMASZ
 40
0.0
  9
$DIMEXO
 40
0.0
  9
$DIMDLI
 40
0.38
  9
$DIMRND
 40
0.0
  9
$DIMDLE
 40
0.0
  9
$DIMEXE
 40
0.18
  9
$DIMTP
 40
0.0
  9
$DIMTM
 40
0.0
  9
$DIMTXT
 40
3.5
  9
$DIMCEN
 40
0.09
  9
$DIMTSZ
 40
0.0
  9
$DIMTOL
 70
     0
  9
$DIMLIM
 70
     0
  9
$DIMTIH
 70
     1
  9
$DIMTOH
 70
     1
  9
$DIMSE1
 70
     0
  9
$DIMSE2
 70
     0
  9
$DIMTAD
 70
     1
  9
$DIMZIN
 70
     0
  9
$DIMBLK
  1

  9
$DIMASO
 70
     1
  9
$DIMSHO
 70
     1
  9
$DIMPOST
  1

  9
$DIMAPOST
  1

  9
$DIMALT
 70
     0
  9
$DIMALTD
 70
     2
  9
$DIMALTF
 40
0.0394
  9
$DIMLFAC
 40
1.0
  9
$DIMTOFL
 70
     0
  9
$DIMTVP
 40
0.0
  9
$DIMTIX
 70
     0
  9
$DIMSOXD
 70
     0
  9
$DIMSAH
 70
     0
  9
$DIMBLK1
  1

  9
$DIMBLK2
  1

  9
$DIMSTYLE
  2
STANDARD
  9
$DIMCLRD
 70
     0
  9
$DIMCLRE
 70
     0
  9
$DIMCLRT
 70
     0
  9
$DIMTFAC
 40
1.0
  9
$DIMGAP
 40
0.0
  9
$LUNITS
 70
     2
  9
$LUPREC
 70
     2
  9
$SKETCHINC
 40
0.1
  9
$FILLETRAD
 40
0.0
  9
$AUNITS
 70
     0
  9
$AUPREC
 70
     2
  9
$MENU
  1
acad
  9
$ELEVATION
 40
0.0
  9
$PELEVATION
 40
0.0
  9
$THICKNESS
 40
0.0
  9
$LIMCHECK
 70
     0
  9
$BLIPMODE
 70
     0
  9
$CHAMFERA
 40
0.0
  9
$CHAMFERB
 40
0.0
  9
$SKPOLY
 70
     0
  9
$TDCREATE
 40
2444972.125
  9
$TDUPDATE
 40
2453620.4621580672
  9
$TDINDWG
 40
0.0527360301
  9
$TDUSRTIMER
 40
0.0527360301
  9
$USRTIMER
 70
     1
  9
$ANGBASE
 50
0.0
  9
$ANGDIR
 70
     0
  9
$PDMODE
 70
     0
  9
$PDSIZE
 40
-1.0
  9
$PLINEWID
 40
0.0
  9
$COORDS
 70
     2
  9
$SPLFRAME
 70
     0
  9
$SPLINETYPE
 70
     6
  9
$SPLINESEGS
 70
     8
  9
$ATTDIA
 70
     0
  9
$ATTREQ
 70
     1
  9
$HANDLING
 70
-16383
  9
$HANDSEED
  5
40DA
  9
$SURFTAB1
 70
     6
  9
$SURFTAB2
 70
     6
  9
$SURFTYPE
 70
     6
  9
$SURFU
 70
     6
  9
$SURFV
 70
     6
  9
$UCSNAME
  2

  9
$UCSORG
 10
0.0
 20
0.0
 30
0.0
  9
$UCSXDIR
 10
1.0
 20
0.0
 30
0.0
  9
$UCSYDIR
 10
0.0
 20
1.0
 30
0.0
  9
$PUCSNAME
  2

  9
$PUCSORG
 10
0.0
 20
0.0
 30
0.0
  9
$PUCSXDIR
 10
1.0
 20
0.0
 30
0.0
  9
$PUCSYDIR
 10
0.0
 20
1.0
 30
0.0
  9
$USERI1
 70
     0
  9
$USERI2
 70
     0
  9
$USERI3
 70
     0
  9
$USERI4
 70
     0
  9
$USERI5
 70
     0
  9
$USERR1
 40
0.0
  9
$USERR2
 40
0.0
  9
$USERR3
 40
0.0
  9
$USERR4
 40
0.0
  9
$USERR5
 40
0.0
  9
$WORLDVIEW
 70
     1
  9
$SHADEDGE
 70
     3
  9
$SHADEDIF
 70
    70
  9
$TILEMODE
 70
     1
  9
$MAXACTVP
 70
    16
  9
$PLIMCHECK
 70
     0
  9
$PEXTMIN
 10
1.0000000000000000E+020
 20
1.0000000000000000E+020
 30
1.0000000000000000E+020
  9
$PEXTMAX
 10
-1.0000000000000000E+020
 20
-1.0000000000000000E+020
 30
-1.0000000000000000E+020
  9
$PLIMMIN
 10
0.0
 20
0.0
  9
$PLIMMAX
 10
12.0
 20
9.0
  9
$UNITMODE
 70
     0
  9
$VISRETAIN
 70
     0
  9
$PLINEGEN
 70
     1
  9
$PSLTSCALE
 70
     1
  0
ENDSEC
  0
SECTION
  2
TABLES
  0
TABLE
  2
VPORT
 70
     2
  0
VPORT
  2
*ACTIVE
 70
     0
 10
0.0
 20
0.0
 11
1.0
 21
1.0
 12
1273.052439958999
 22
273.86878413850349
 13
0.0
 23
0.0
 14
1.0
 24
1.0
 15
0.0
 25
0.0
 16
0.0
 26
0.0
 36
1.0
 17
0.0
 27
0.0
 37
0.0
 40
623.38670609636381
 41
1.5552208835341359
 42
50.0
 43
0.0
 44
0.0
 50
0.0
 51
0.0
 71
     0
 72
  2000
 73
     1
 74
     1
 75
     0
 76
     0
 77
     0
 78
     0
  0
ENDTAB
  0
TABLE
  2
LTYPE
 70
     3
  0
LTYPE
  2
CONTINUOUS
 70
     0
  3
Solid line
 72
    65
 73
     0
 40
0.0
  0
LTYPE
  2
HIDDEN
 70
     0
  3
Hidden __ __ __ __ __ __ __ __ __ __ __ __ __ __
 72
    65
 73
     2
 40
1.905
 49
1.27
 49
-0.635
  0
LTYPE
  2
CENTER
 70
     0
  3
Center ____ _ ____ _ ____ _ ____ _ ____ _ ____
 72
    65
 73
     4
 40
10.16
 49
6.3499999999999988
 49
-1.27
 49
1.27
 49
-1.27
  0
ENDTAB
  0
TABLE
  2
LAYER
 70
     4
  0
LAYER
  2
0
 70
     0
 62
     7
  6
CONTINUOUS
  0
LAYER
  2
DEFPOINTS
 70
     0
 62
     7
  6
CONTINUOUS
  0
LAYER
  2
L1
 70
     0
 62
     7
  6
CONTINUOUS
  0
LAYER
  2
L6
 70
     0
 62
     1
  6
CENTER
  0
ENDTAB
  0
TABLE
  2
STYLE
 70
     2
  0
STYLE
  2
STANDARD
 70
     0
 40
0.0
 41
1.0
 50
0.0
 71
     0
 42
0.0
  3
txt
  4

  0
STYLE
  2
TKKISO
 70
     0
 40
0.0
 41
1.0
 50
0.0
 71
     0
 42
3.5
  3
caeiso
  4

  0
ENDTAB
  0
TABLE
  2
VIEW
 70
     0
  0
ENDTAB
  0
TABLE
  2
UCS
 70
     0
  0
ENDTAB
  0
TABLE
  2
APPID
 70
     2
  0
APPID
  2
ACAD
 70
     0
  0
APPID
  2
DCO15
 70
     0
  0
ENDTAB
  0
TABLE
  2
DIMSTYLE
 70
     1
  0
DIMSTYLE
  2
STANDARD
 70
     0
  3

  4

  5

  6

  7

 40
1.0
 41
0.18
 42
0.0625
 43
0.38
 44
0.18
 45
0.0
 46
0.0
 47
0.0
 48
0.0
140
0.18
141
0.09
142
0.0
143
25.399999999999999
144
1.0
145
0.0
146
1.0
147
0.09
 71
     0
 72
     0
 73
     1
 74
     1
 75
     0
 76
     0
 77
     0
 78
     0
170
     0
171
     2
172
     0
173
     0
174
     0
175
     0
176
     0
177
     0
178
     0
  0
ENDTAB
  0
ENDSEC
  0
SECTION
  2
BLOCKS
  0
BLOCK
  8
0
  2
$MODEL_SPACE
 70
     0
 10
0.0
 20
0.0
 30
0.0
  3
$MODEL_SPACE
  1

  0
ENDBLK
  5
E
  8
0
  0
BLOCK
 67
     1
  8
0
  2
$PAPER_SPACE
 70
     0
 10
0.0
 20
0.0
 30
0.0
  3
$PAPER_SPACE
  1

  0
ENDBLK
  5
10
 67
     1
  8
0
  0
ENDSEC
  0
SECTION
  2
ENTITIES
  0
TEXT
  5
1762
  8
L1
 10
857.54426735304014
 20
391.82474496257782
 30
0.0
 40
14.0
  1
150x340x40 COVER
  7
TKKISO
  0
TEXT
  5
1763
  8
L1
 10
857.54426735304014
 20
415.82474496257782
 30
0.0
 40
14.0
  1
EURONORD II
  7
TKKISO
  0
ARC
  5
2B00
  8
0
  6
CONTINUOUS
 62
     7
 10
1467.4411778815081
 20
205.92473585853179
 30
0.0
 40
0.2999869320116279
 50
197.45628606657669
 51
251.41156992738931
  0
ARC
  5
2B08
  8
0
  6
CONTINUOUS
 62
     7
 10
1475.4813678260571
 20
208.45309666028751
 30
0.0
 40
0.2999869320433786
 50
17.456286068680068
 51
71.411569921347763
  0
LINE
  5
2B09
  8
0
  6
CONTINUOUS
 62
     7
 10
1475.507943656346
 20
208.1750456574014
 30
0.0
 11
1475.5042095860119
 21
208.1889162594193
 31
0.0
  0
LINE
  5
2B14
  8
0
  6
CONTINUOUS
 62
     7
 10
1475.506265757499
 20
206.18629813262399
 30
0.0
 11
1475.5042095860119
 21
206.1889162594193
 31
0.0
  0
LINE
  5
2B15
  8
0
  6
CONTINUOUS
 62
     7
 10
1475.5042095860119
 20
206.1889162594193
 30
0.0
 11
1475.507943656346
 21
206.2027868614378
 31
0.0
  0
ARC
  5
2B16
  8
0
  6
CONTINUOUS
 62
     7
 10
1475.4813694458221
 20
205.9247342704908
 30
0.0
 40
0.29998491049601
 50
288.58823353367939
 51
342.54391047170662
  0
ARC
  5
2B1E
  8
0
  6
CONTINUOUS
 62
     7
 10
1467.441176261776
 20
208.45309824835721
 30
0.0
 40
0.2999849104956798
 50
108.58823353875999
 51
162.54391047345371
  0
LINE
  5
2B5F
  8
0
  6
CONTINUOUS
 62
     7
 10
1312.6443054113099
 20
204.17685943766489
 30
0.0
 11
1312.6511783815729
 21
204.183453056236
 31
0.0
  0
LINE
  5
2B60
  8
0
  6
CONTINUOUS
 62
     7
 10
1312.6511055717301
 20
204.183579166584
 30
0.0
 11
1312.6544000851929
 21
204.18310915547039
 31
0.0
  0
ARC
  5
2B89
  8
0
  6
CONTINUOUS
 62
     7
 10
1469.710826129615
 20
161.659814221489
 30
0.0
 40
44.304265423016311
 50
89.671505990622776
 51
91.178956354449426
  0
ARC
  5
2B91
  8
0
  6
CONTINUOUS
 62
     7
 10
1473.211719577979
 20
252.71801829732081
 30
0.0
 40
44.304265422986681
 50
269.67150599062279
 51
271.17895635444938
  0
ARC
  5
2B9B
  8
0
  6
CONTINUOUS
 62
     7
 10
1473.386749060764
 20
185.24290778096491
 30
0.0
 40
20.72488506419301
 50
87.963339866063222
 51
91.186197788866139
  0
ARC
  5
2BA3
  8
0
  6
CONTINUOUS
 62
     7
 10
1469.53579664683
 20
229.13492473841521
 30
0.0
 40
20.724885064733652
 50
267.96333986610551
 51
271.18619778882379
  0
ARC
  5
2BB7
  8
0
  6
CONTINUOUS
 62
     7
 10
1471.461272853797
 20
207.1889162594195
 30
0.0
 40
4.1650925288369693
 50
346.30457890821992
 51
13.69542109180529
  0
ARC
  5
2BB8
  8
0
  6
CONTINUOUS
 62
     7
 10
1471.461272853797
 20
207.1889162594195
 30
0.0
 40
4.5141672404673061
 50
342.54346488654511
 51
17.45653511345575
  0
ARC
  5
2BBB
  8
0
  6
CONTINUOUS
 62
     7
 10
1471.461272853797
 20
207.1889162594195
 30
0.0
 40
4.5141672404673612
 50
162.54346488654519
 51
197.45653511345469
  0
LINE
  5
2BBC
  8
0
  6
CONTINUOUS
 62
     7
 10
1635.561272853796
 20
346.6620413565775
 30
0.0
 11
1307.361272853796
 21
346.6620413565775
 31
0.0
  0
LINE
  5
2BBE
  8
0
  6
CONTINUOUS
 62
     7
 10
1639.234397950954
 20
204.78891625941969
 30
0.0
 11
1639.234397950954
 21
342.98891625941951
 31
0.0
  0
LINE
  5
2BC0
  8
0
  6
CONTINUOUS
 62
     7
 10
1307.361272853796
 20
201.1157911622613
 30
0.0
 11
1635.561272853796
 21
201.1157911622613
 31
0.0
  0
ARC
  5
2BC1
  8
0
  6
CONTINUOUS
 62
     7
 10
1307.361272853796
 20
204.78891625941981
 30
0.0
 40
3.6731250971580769
 50
180.0
 51
270.0
  0
LINE
  5
2BC2
  8
0
  6
CONTINUOUS
 62
     7
 10
1303.688147756638
 20
342.98891625941951
 30
0.0
 11
1303.688147756638
 21
204.78891625941969
 31
0.0
  0
ARC
  5
2BC6
  8
0
  6
CONTINUOUS
 62
     7
 10
1471.461272853797
 20
207.1889162594195
 30
0.0
 40
4.1650925288370253
 50
166.3045789082199
 51
193.69542109177999
  0
LINE
  5
2BC7
  8
0
  6
CONTINUOUS
 62
     7
 10
1302.031551600626
 20
204.78891625941969
 30
0.0
 11
1302.031551600626
 21
342.98891625941951
 31
0.0
  0
ARC
  5
2BC8
  8
0
  6
CONTINUOUS
 62
     7
 10
1307.361272853796
 20
204.78891625941981
 30
0.0
 40
5.3297212531710443
 50
180.0
 51
270.0
  0
LINE
  5
2BC9
  8
0
  6
CONTINUOUS
 62
     7
 10
1640.8909941069669
 20
342.98891625941951
 30
0.0
 11
1640.8909941069669
 21
204.78891625941969
 31
0.0
  0
LINE
  5
2BCA
  8
0
  6
CONTINUOUS
 62
     7
 10
1307.361272853796
 20
348.31863751259061
 30
0.0
 11
1635.561272853796
 21
348.31863751259061
 31
0.0
  0
LINE
  5
2BCC
  8
0
  6
CONTINUOUS
 62
     7
 10
1635.561272853796
 20
199.45919500624859
 30
0.0
 11
1307.361272853796
 21
199.45919500624859
 31
0.0
  0
ARC
  5
2BD2
  8
0
  6
CONTINUOUS
 62
     7
 10
1309.7612728537961
 20
207.1889162594195
 30
0.0
 40
4.1694559627323509
 50
286.25381741383143
 51
313.74618258616988
  0
ARC
  5
2BD5
  8
0
  6
CONTINUOUS
 62
     7
 10
1309.7612728537961
 20
207.1889162594195
 30
0.0
 40
4.1694559627323171
 50
106.2538174138283
 51
133.74618258616999
  0
ARC
  5
2BEB
  8
0
  6
CONTINUOUS
 62
     7
 10
1327.804335604751
 20
219.82943180850509
 30
0.0
 40
20.72488506468456
 50
207.9633398660888
 51
211.18619778881671
  0
ARC
  5
2BFB
  8
0
  6
CONTINUOUS
 62
     7
 10
1291.7182101016081
 20
194.548400709628
 30
0.0
 40
20.72488506610544
 50
27.963339866231461
 51
31.186197788724581
  0
ARC
  5
2C40
  8
0
  6
CONTINUOUS
 62
     7
 10
1269.4566905156321
 20
185.94029657172419
 30
0.0
 40
44.30426542270542
 50
29.671505990618261
 51
31.178956354462589
  0
ARC
  5
2C48
  8
0
  6
CONTINUOUS
 62
     7
 10
1350.0658551900869
 20
228.43753594601469
 30
0.0
 40
44.304265420532602
 50
209.6715059905859
 51
211.178956354495
  0
LINE
  5
2C58
  8
0
  6
CONTINUOUS
 62
     7
 10
1641.561272853796
 20
204.78891625941969
 30
0.0
 11
1641.561272853796
 21
342.98891625941951
 31
0.0
  0
ARC
  5
2C5A
  8
0
  6
CONTINUOUS
 62
     7
 10
1307.361272853796
 20
204.78891625941981
 30
0.0
 40
6.0000000000000986
 50
180.0
 51
270.0
  0
LINE
  5
2C5C
  8
0
  6
CONTINUOUS
 62
     7
 10
1635.561272853796
 20
348.98891625941951
 30
0.0
 11
1307.361272853796
 21
348.98891625941951
 31
0.0
  0
LINE
  5
2C5D
  8
0
  6
CONTINUOUS
 62
     7
 10
1307.361272853796
 20
198.7889162594193
 30
0.0
 11
1635.561272853796
 21
198.78891625941969
 31
0.0
  0
LINE
  5
2C5E
  8
0
  6
CONTINUOUS
 62
     7
 10
1301.361272853796
 20
342.98891625941951
 30
0.0
 11
1301.361272853796
 21
204.78891625941969
 31
0.0
  0
ARC
  5
2C68
  8
0
  6
CONTINUOUS
 62
     7
 10
1471.4612728537959
 20
207.1889162594195
 30
0.0
 40
2.950000000000006
 50
25.0702279493321
 51
154.92977205066779
  0
ARC
  5
2C6D
  8
0
  6
CONTINUOUS
 62
     7
 10
1309.7612728537961
 20
207.1889162594195
 30
0.0
 40
1.719455962732453
 50
61.283856519736688
 51
84.438300782398429
  0
LINE
  5
2C71
  8
0
  6
CONTINUOUS
 62
     7
 10
1310.58742092687
 20
208.696897747745
 30
0.0
 11
1311.48029716766
 21
207.1503907338265
 31
0.0
  0
ARC
  5
2C74
  8
0
  6
CONTINUOUS
 62
     7
 10
1309.7612728537961
 20
207.1889162594195
 30
0.0
 40
1.7194559627325181
 50
335.56169921761699
 51
358.71614348025622
  0
LINE
  5
2C78
  8
0
  6
CONTINUOUS
 62
     7
 10
1308.9351247807219
 20
205.6809347710942
 30
0.0
 11
1308.0422485399331
 21
207.22744178501259
 31
0.0
  0
ARC
  5
2C7B
  8
0
  6
CONTINUOUS
 62
     7
 10
1309.7612728537961
 20
207.1889162594195
 30
0.0
 40
1.7194559627324659
 50
155.5616992175932
 51
178.71614348025631
  0
ARC
  5
2C80
  8
0
  6
CONTINUOUS
 62
     7
 10
1309.7612728537961
 20
207.1889162594195
 30
0.0
 40
1.7194559627324919
 50
241.2838565197338
 51
264.43830078239517
  0
LINE
  5
2C81
  8
0
  6
CONTINUOUS
 62
     7
 10
1309.593032951851
 20
205.4750800638576
 30
0.0
 11
1309.5946273195709
 21
205.4775547915529
 31
0.0
  0
ARC
  5
2CA1
  8
0
  6
CONTINUOUS
 62
     7
 10
1471.461272853797
 20
207.1889162594195
 30
0.0
 40
1.715092528836933
 50
35.66597974871263
 51
58.675353085412013
  0
ARC
  5
2CAF
  8
0
  6
CONTINUOUS
 62
     7
 10
1471.461272853797
 20
207.1889162594195
 30
0.0
 40
1.7150925288369629
 50
121.3246469145907
 51
144.33402025128731
  0
LINE
  5
2CB3
  8
0
  6
CONTINUOUS
 62
     7
 10
1470.5696191853699
 20
208.65400878825631
 30
0.0
 11
1472.352926522223
 21
208.65400878825631
 31
0.0
  0
LINE
  5
2CC2
  8
0
  6
CONTINUOUS
 62
     7
 10
1472.352926522223
 20
205.72382373058241
 30
0.0
 11
1470.5696191853699
 21
205.72382373058241
 31
0.0
  0
ARC
  5
2CE1
  8
0
  6
CONTINUOUS
 62
     7
 10
1471.461272853797
 20
207.1889162594195
 30
0.0
 40
1.7150925288369629
 50
215.6659797487126
 51
238.6753530854092
  0
ARC
  5
2CF1
  8
0
  6
CONTINUOUS
 62
     7
 10
1471.461272853797
 20
207.1889162594195
 30
0.0
 40
1.715092528836933
 50
301.32464691459069
 51
324.33402025128731
  0
LINE
  5
2CFA
  8
0
  6
CONTINUOUS
 62
     7
 10
1309.593032951851
 20
205.4750800638576
 30
0.0
 11
1310.917814548993
 21
203.18049102867511
 31
0.0
  0
LINE
  5
2D06
  8
0
  6
CONTINUOUS
 62
     7
 10
1310.919054764161
 20
203.183579166584
 30
0.0
 11
1309.5946273195709
 21
205.4775547915529
 31
0.0
  0
LINE
  5
2D09
  8
0
  6
CONTINUOUS
 62
     7
 10
1311.32667812714
 20
206.47755479155279
 30
0.0
 11
1312.6511055717301
 21
204.183579166584
 31
0.0
  0
LINE
  5
2D0E
  8
0
  6
CONTINUOUS
 62
     7
 10
1308.1958675804531
 20
207.90027772728629
 30
0.0
 11
1306.8714401358629
 21
210.1942533522552
 31
0.0
  0
LINE
  5
2D15
  8
0
  6
CONTINUOUS
 62
     7
 10
1308.603490943432
 20
211.19425335225509
 30
0.0
 11
1309.9279183880219
 21
208.90027772728629
 31
0.0
  0
LINE
  5
2D20
  8
0
  6
CONTINUOUS
 62
     7
 10
1467.418336121581
 20
208.1889162594193
 30
0.0
 11
1470.0678804530451
 21
208.1889162594193
 31
0.0
  0
LINE
  5
2D21
  8
0
  6
CONTINUOUS
 62
     7
 10
1472.8546652545481
 20
208.1889162594193
 30
0.0
 11
1475.5042095860119
 21
208.1889162594193
 31
0.0
  0
LINE
  5
2D23
  8
0
  6
CONTINUOUS
 62
     7
 10
1475.5042095860119
 20
206.1889162594193
 30
0.0
 11
1472.8546652545481
 21
206.1889162594193
 31
0.0
  0
LINE
  5
2D25
  8
0
  6
CONTINUOUS
 62
     7
 10
1470.0678804530451
 20
206.1889162594193
 30
0.0
 11
1467.418336121581
 21
206.1889162594193
 31
0.0
  0
ARC
  5
2D2E
  8
0
  6
CONTINUOUS
 62
     7
 10
1471.4612728537959
 20
207.1889162594195
 30
0.0
 40
4.3973933631784821
 50
200.61853807975831
 51
339.38146192024158
  0
ARC
  5
2D31
  8
0
  6
CONTINUOUS
 62
     7
 10
1471.4612728537959
 20
207.1889162594195
 30
0.0
 40
4.3973933631784776
 50
20.618538079758331
 51
159.38146192024161
  0
CIRCLE
  5
2D46
  8
0
  6
CONTINUOUS
 62
     7
 10
1309.7612728537961
 20
207.1889162594195
 30
0.0
 40
4.5956556052975079
  0
ARC
  5
2D8A
  8
0
  6
CONTINUOUS
 62
     7
 10
1309.7612728537961
 20
207.1889162594195
 30
0.0
 40
2.9342154826550941
 50
144.87429144630701
 51
275.12570855368728
  0
ARC
  5
2D8C
  8
0
  6
CONTINUOUS
 62
     7
 10
1471.4612728537959
 20
207.1889162594195
 30
0.0
 40
2.9342154826550608
 50
204.87429144631889
 51
335.12570855368108
  0
ARC
  5
2D91
  8
0
  6
CONTINUOUS
 62
     7
 10
1309.7612728537961
 20
207.1889162594195
 30
0.0
 40
2.9342154826551039
 50
324.87429144630698
 51
95.125708553690686
  0
ARC
  5
2D97
  8
0
  6
CONTINUOUS
 62
     7
 10
1309.7612728537961
 20
207.1889162594195
 30
0.0
 40
1.9342535595909141
 50
159.31705767022351
 51
260.68294232978542
  0
ARC
  5
2D98
  8
0
  6
CONTINUOUS
 62
     7
 10
1309.7612728537961
 20
207.1889162594195
 30
0.0
 40
1.9342535595909349
 50
339.31705767022351
 51
80.682942329782236
  0
ARC
  5
2D9C
  8
0
  6
CONTINUOUS
 62
     7
 10
1471.4612728537959
 20
207.1889162594195
 30
0.0
 40
1.934253559590895
 50
39.317057670203113
 51
140.68294232979679
  0
ARC
  5
2DA1
  8
0
  6
CONTINUOUS
 62
     7
 10
1471.4612728537959
 20
207.1889162594195
 30
0.0
 40
1.934253559590883
 50
219.3170576702052
 51
320.6829423297948
  0
LINE
  5
2DA2
  8
0
  6
CONTINUOUS
 62
     7
 10
1245.481704290888
 20
204.78891625941969
 30
0.0
 11
1245.481704290888
 21
342.98891625941951
 31
0.0
  0
LINE
  5
2DA3
  8
0
  6
CONTINUOUS
 62
     7
 10
1207.0814606031381
 20
348.31863751259061
 30
0.0
 11
1207.0814606031381
 21
204.78891625941969
 31
0.0
  0
LINE
  5
2DA4
  8
0
  6
CONTINUOUS
 62
     7
 10
1245.481704290888
 20
198.78891625941969
 30
0.0
 11
1245.481704290888
 21
204.78891625941969
 31
0.0
  0
LINE
  5
2DA5
  8
0
  6
CONTINUOUS
 62
     7
 10
1207.0814606031381
 20
199.45919500624859
 30
0.0
 11
1245.481704290888
 21
198.78891625941969
 31
0.0
  0
LINE
  5
2DA6
  8
0
  6
CONTINUOUS
 62
     7
 10
1207.0814606031381
 20
204.78891625941969
 30
0.0
 11
1207.0814606031381
 21
199.45919500624859
 31
0.0
  0
LINE
  5
2DAA
  8
0
  6
CONTINUOUS
 62
     7
 10
1207.0814606031381
 20
199.45919500624859
 30
0.0
 11
1205.481704290888
 21
201.1157911622613
 31
0.0
  0
LINE
  5
2DAB
  8
0
  6
CONTINUOUS
 62
     7
 10
1205.481704290888
 20
201.1157911622613
 30
0.0
 11
1205.481704290888
 21
204.78891625941969
 31
0.0
  0
LINE
  5
2DAC
  8
0
  6
CONTINUOUS
 62
     7
 10
1205.481704290888
 20
204.78891625941969
 30
0.0
 11
1205.481704290888
 21
346.6620413565779
 31
0.0
  0
LINE
  5
2DAF
  8
0
  6
CONTINUOUS
 62
     7
 10
1247.481704290888
 20
224.52382638927659
 30
0.0
 11
1245.481704290888
 21
224.48891625941951
 31
0.0
  0
LINE
  5
2DB0
  8
0
  6
CONTINUOUS
 62
     7
 10
1247.481704290888
 20
226.28880536971019
 30
0.0
 11
1247.481704290888
 21
224.52382638927659
 31
0.0
  0
LINE
  5
2DB3
  8
0
  6
CONTINUOUS
 62
     7
 10
1247.481704290888
 20
321.48903810329472
 30
0.0
 11
1247.481704290888
 21
226.28880536970931
 31
0.0
  0
LINE
  5
2DB4
  8
0
  6
CONTINUOUS
 62
     7
 10
1247.481704290888
 20
224.52382638927659
 30
0.0
 11
1247.481704290888
 21
218.5889162594199
 31
0.0
  0
LINE
  5
2DB6
  8
0
  6
CONTINUOUS
 62
     7
 10
1247.481704290888
 20
202.62382638927599
 30
0.0
 11
1245.481704290888
 21
202.5889162594199
 31
0.0
  0
LINE
  5
2DB7
  8
0
  6
CONTINUOUS
 62
     7
 10
1247.481704290888
 20
204.38880536971061
 30
0.0
 11
1247.481704290888
 21
202.62382639111459
 31
0.0
  0
LINE
  5
2DBA
  8
0
  6
CONTINUOUS
 62
     7
 10
1247.481704290888
 20
218.5889162594199
 30
0.0
 11
1247.481704290888
 21
204.38880536971371
 31
0.0
  0
LINE
  5
2E16
  8
L1
  6
HIDDEN
 62
     1
 10
1209.3747233283129
 20
226.1191659564829
 30
0.0
 11
1245.481704290888
 21
225.48891625941951
 31
0.0
  0
LINE
  5
2E20
  8
L1
  6
HIDDEN
 62
     1
 10
1208.981704290888
 20
320.85878840623081
 30
0.0
 11
1208.981704290888
 21
226.91904411260839
 31
0.0
  0
LINE
  5
2E21
  8
L1
  6
HIDDEN
 62
     1
 10
1208.981704290888
 20
226.91904411260839
 30
0.0
 11
1208.981704290888
 21
226.51910503454559
 31
0.0
  0
ARC
  5
2E22
  8
L1
  6
HIDDEN
 62
     1
 10
1209.3817042908879
 20
226.51910503454579
 30
0.0
 40
0.4000000000000341
 50
180.0
 51
268.99999999974091
  0
LINE
  5
2E31
  8
0
  6
HIDDEN
 62
     7
 10
1247.481704290888
 20
225.45400612956291
 30
0.0
 11
1245.481704290888
 21
225.48891625941951
 31
0.0
  0
LINE
  5
2E7D
  8
L1
  6
HIDDEN
 62
     1
 10
1208.981704290888
 20
226.51910503454559
 30
0.0
 11
1208.981704290888
 21
218.58891625941939
 31
0.0
  0
LINE
  5
2EA8
  8
L1
  6
HIDDEN
 62
     1
 10
1209.3747233283129
 20
204.21916595648329
 30
0.0
 11
1245.481704290888
 21
203.58891625941939
 31
0.0
  0
LINE
  5
2EAB
  8
L1
  6
HIDDEN
 62
     1
 10
1208.981704290888
 20
218.58891625941939
 30
0.0
 11
1208.981704290888
 21
205.0190441126083
 31
0.0
  0
ARC
  5
2EAE
  8
L1
  6
HIDDEN
 62
     1
 10
1209.3817042908879
 20
204.6191050345457
 30
0.0
 40
0.4000000000000341
 50
180.0
 51
268.99999999962381
  0
LINE
  5
2EAF
  8
L1
  6
HIDDEN
 62
     1
 10
1208.981704290888
 20
205.0190441126083
 30
0.0
 11
1208.981704290888
 21
204.61910503454561
 31
0.0
  0
LINE
  5
2EB0
  8
0
  6
HIDDEN
 62
     7
 10
1247.481704290888
 20
203.55400612956331
 30
0.0
 11
1245.481704290888
 21
203.58891625941939
 31
0.0
  0
LINE
  5
3542
  8
L1
  6
HIDDEN
 62
     1
 10
1209.3747233283129
 20
343.558666562356
 30
0.0
 11
1245.481704290888
 21
344.18891625941978
 31
0.0
  0
LINE
  5
3543
  8
L1
  6
HIDDEN
 62
     1
 10
1209.3747233283129
 20
321.6586665623563
 30
0.0
 11
1245.481704290888
 21
322.28891625941969
 31
0.0
  0
ARC
  5
3544
  8
L1
  6
HIDDEN
 62
     1
 10
1209.3817042908879
 20
343.15872748429382
 30
0.0
 40
0.4000000000000341
 50
91.000000000376261
 51
180.0
  0
LINE
  5
3545
  8
L1
  6
HIDDEN
 62
     1
 10
1208.981704290888
 20
321.25872748429362
 30
0.0
 11
1208.981704290888
 21
329.18891625941978
 31
0.0
  0
LINE
  5
3547
  8
L1
  6
HIDDEN
 62
     1
 10
1208.981704290888
 20
342.75878840623091
 30
0.0
 11
1208.981704290888
 21
343.15872748429371
 31
0.0
  0
LINE
  5
3548
  8
L1
  6
HIDDEN
 62
     1
 10
1208.981704290888
 20
329.18891625941978
 30
0.0
 11
1208.981704290888
 21
342.75878840623091
 31
0.0
  0
ARC
  5
3549
  8
L1
  6
HIDDEN
 62
     1
 10
1209.3817042908879
 20
321.25872748429367
 30
0.0
 40
0.4000000000000341
 50
91.000000000259021
 51
180.0
  0
LINE
  5
354A
  8
L1
  6
HIDDEN
 62
     1
 10
1208.981704290888
 20
320.85878840623081
 30
0.0
 11
1208.981704290888
 21
321.25872748429362
 31
0.0
  0
LINE
  5
354B
  8
0
  6
CONTINUOUS
 62
     7
 10
1207.0814606031381
 20
348.31863751259061
 30
0.0
 11
1205.481704290888
 21
346.6620413565779
 31
0.0
  0
LINE
  5
354C
  8
0
  6
CONTINUOUS
 62
     7
 10
1207.0814606031381
 20
348.31863751259061
 30
0.0
 11
1245.481704290888
 21
348.98891625941951
 31
0.0
  0
LINE
  5
354D
  8
0
  6
CONTINUOUS
 62
     7
 10
1247.481704290888
 20
329.18891625941927
 30
0.0
 11
1247.481704290888
 21
343.38902714912552
 31
0.0
  0
LINE
  5
354E
  8
0
  6
CONTINUOUS
 62
     7
 10
1245.481704290888
 20
348.98891625941951
 30
0.0
 11
1245.481704290888
 21
342.98891625941951
 31
0.0
  0
LINE
  5
354F
  8
0
  6
HIDDEN
 62
     7
 10
1247.481704290888
 20
344.22382638927593
 30
0.0
 11
1245.481704290888
 21
344.18891625941978
 31
0.0
  0
LINE
  5
3550
  8
0
  6
CONTINUOUS
 62
     7
 10
1247.481704290888
 20
343.38902714912871
 30
0.0
 11
1247.481704290888
 21
345.15400612772459
 31
0.0
  0
LINE
  5
3551
  8
0
  6
CONTINUOUS
 62
     7
 10
1247.481704290888
 20
345.15400612956319
 30
0.0
 11
1245.481704290888
 21
345.18891625941939
 31
0.0
  0
LINE
  5
3552
  8
0
  6
CONTINUOUS
 62
     7
 10
1247.481704290888
 20
323.25400612956258
 30
0.0
 11
1247.481704290888
 21
329.18891625941927
 31
0.0
  0
LINE
  5
3554
  8
0
  6
HIDDEN
 62
     7
 10
1247.481704290888
 20
322.32382638927629
 30
0.0
 11
1245.481704290888
 21
322.28891625941969
 31
0.0
  0
LINE
  5
3555
  8
0
  6
CONTINUOUS
 62
     7
 10
1247.481704290888
 20
321.48902714912902
 30
0.0
 11
1247.481704290888
 21
323.25400612956258
 31
0.0
  0
LINE
  5
3556
  8
0
  6
CONTINUOUS
 62
     7
 10
1247.481704290888
 20
323.25400612956258
 30
0.0
 11
1245.481704290888
 21
323.28891625941969
 31
0.0
  0
LINE
  5
3557
  8
L6
 10
1471.461272853797
 20
363.41720468270341
 30
0.0
 11
1471.461272853797
 21
189.59627064718009
 31
0.0
  0
CIRCLE
  5
3559
  8
0
  6
CONTINUOUS
 62
     7
 10
1633.1612728537959
 20
207.18891625941939
 30
0.0
 40
4.5956556052975079
  0
LINE
  5
355A
  8
0
  6
CONTINUOUS
 62
     7
 10
1632.003490943431
 20
203.183579166584
 30
0.0
 11
1633.327918388022
 21
205.4775547915529
 31
0.0
  0
LINE
  5
355B
  8
0
  6
CONTINUOUS
 62
     7
 10
1633.3295127557419
 20
205.4750800638576
 30
0.0
 11
1632.004731158599
 21
203.18049102867511
 31
0.0
  0
LINE
  5
355C
  8
0
  6
CONTINUOUS
 62
     7
 10
1632.335124780722
 20
208.696897747745
 30
0.0
 11
1631.442248539933
 21
207.1503907338265
 31
0.0
  0
ARC
  5
355D
  8
0
  6
CONTINUOUS
 62
     7
 10
1633.1612728537959
 20
207.18891625941939
 30
0.0
 40
1.9342535595909349
 50
99.317057670217821
 51
200.68294232977641
  0
ARC
  5
355E
  8
0
  6
CONTINUOUS
 62
     7
 10
1633.1612728537959
 20
207.18891625941939
 30
0.0
 40
2.9342154826551039
 50
84.874291446309314
 51
215.1257085536929
  0
LINE
  5
355F
  8
0
  6
CONTINUOUS
 62
     7
 10
1631.5958675804529
 20
206.47755479155279
 30
0.0
 11
1630.271440135863
 21
204.183579166584
 31
0.0
  0
ARC
  5
3560
  8
0
  6
CONTINUOUS
 62
     7
 10
1633.1612728537959
 20
207.18891625941939
 30
0.0
 40
4.1694559627323509
 50
226.25381741382989
 51
253.74618258616849
  0
LINE
  5
3561
  8
0
  6
CONTINUOUS
 62
     7
 10
1630.271440135863
 20
204.183579166584
 30
0.0
 11
1630.2681456224
 21
204.18310915547039
 31
0.0
  0
LINE
  5
3562
  8
0
  6
CONTINUOUS
 62
     7
 10
1630.2782402962821
 20
204.17685943766489
 30
0.0
 11
1630.2713673260189
 21
204.183453056236
 31
0.0
  0
ARC
  5
3563
  8
0
  6
CONTINUOUS
 62
     7
 10
1633.1612728537959
 20
207.18891625941939
 30
0.0
 40
1.7194559627325181
 50
181.28385651974361
 51
204.4383007823829
  0
ARC
  5
3564
  8
0
  6
CONTINUOUS
 62
     7
 10
1592.8566905175051
 20
228.43753594601461
 30
0.0
 40
44.304265420532602
 50
328.82104364550497
 51
330.32849400941387
  0
ARC
  5
3565
  8
0
  6
CONTINUOUS
 62
     7
 10
1635.561272853796
 20
204.78891625941981
 30
0.0
 40
6.0000000000000986
 50
270.0
 51
0.0
  0
ARC
  5
3566
  8
0
  6
CONTINUOUS
 62
     7
 10
1651.2043356059839
 20
194.548400709628
 30
0.0
 40
20.72488506610544
 50
148.8138022112754
 51
152.03666013376849
  0
ARC
  5
3567
  8
0
  6
CONTINUOUS
 62
     7
 10
1635.561272853796
 20
204.78891625941981
 30
0.0
 40
5.3297212531710443
 50
270.0
 51
0.0
  0
ARC
  5
3568
  8
0
  6
CONTINUOUS
 62
     7
 10
1635.561272853796
 20
204.78891625941981
 30
0.0
 40
3.6731250971580769
 50
270.0
 51
0.0
  0
ARC
  5
3569
  8
0
  6
CONTINUOUS
 62
     7
 10
1633.1612728537959
 20
207.18891625941939
 30
0.0
 40
2.9342154826550941
 50
264.87429144631261
 51
35.125708553693052
  0
ARC
  5
356A
  8
0
  6
CONTINUOUS
 62
     7
 10
1633.1612728537959
 20
207.18891625941939
 30
0.0
 40
1.7194559627324659
 50
1.283856519743702
 51
24.43830078240665
  0
LINE
  5
356B
  8
0
  6
CONTINUOUS
 62
     7
 10
1634.3190547641609
 20
211.19425335225509
 30
0.0
 11
1632.994627319571
 21
208.90027772728629
 31
0.0
  0
LINE
  5
356C
  8
0
  6
CONTINUOUS
 62
     7
 10
1634.7266781271401
 20
207.90027772728629
 30
0.0
 11
1636.0511055717291
 21
210.1942533522552
 31
0.0
  0
LINE
  5
356D
  8
0
  6
CONTINUOUS
 62
     7
 10
1633.3295127557419
 20
205.4750800638576
 30
0.0
 11
1633.327918388022
 21
205.4775547915529
 31
0.0
  0
ARC
  5
356E
  8
0
  6
CONTINUOUS
 62
     7
 10
1633.1612728537959
 20
207.18891625941939
 30
0.0
 40
1.7194559627324919
 50
275.56169921760471
 51
298.71614348026611
  0
LINE
  5
356F
  8
0
  6
CONTINUOUS
 62
     7
 10
1633.9874209268701
 20
205.6809347710942
 30
0.0
 11
1634.88029716766
 21
207.22744178501259
 31
0.0
  0
ARC
  5
3570
  8
0
  6
CONTINUOUS
 62
     7
 10
1633.1612728537959
 20
207.18891625941939
 30
0.0
 40
1.719455962732453
 50
95.561699217601543
 51
118.7161434802633
  0
ARC
  5
3571
  8
0
  6
CONTINUOUS
 62
     7
 10
1673.4658551919611
 20
185.9402965717241
 30
0.0
 40
44.30426542270542
 50
148.82104364553729
 51
150.3284940093817
  0
ARC
  5
3572
  8
0
  6
CONTINUOUS
 62
     7
 10
1615.118210102841
 20
219.82943180850501
 30
0.0
 40
20.72488506468456
 50
328.8138022111832
 51
332.03666013391108
  0
ARC
  5
3573
  8
0
  6
CONTINUOUS
 62
     7
 10
1633.1612728537959
 20
207.18891625941939
 30
0.0
 40
4.1694559627323171
 50
46.253817413829957
 51
73.746182586171699
  0
ARC
  5
3574
  8
0
  6
CONTINUOUS
 62
     7
 10
1633.1612728537959
 20
207.18891625941939
 30
0.0
 40
1.9342535595909141
 50
279.31705767021452
 51
20.682942329776449
  0
LINE
  5
3575
  8
L6
 10
1283.312036457171
 20
273.8889162594196
 30
0.0
 11
1656.3767010334609
 21
273.8889162594196
 31
0.0
  0
CIRCLE
  5
3576
  8
0
  6
CONTINUOUS
 62
     7
 10
1309.7612728537961
 20
340.58891625941999
 30
0.0
 40
4.5956556052975079
  0
LINE
  5
3577
  8
0
  6
CONTINUOUS
 62
     7
 10
1310.919054764161
 20
344.59425335225518
 30
0.0
 11
1309.5946273195709
 21
342.30027772728641
 31
0.0
  0
LINE
  5
3578
  8
0
  6
CONTINUOUS
 62
     7
 10
1309.593032951851
 20
342.3027524549816
 30
0.0
 11
1310.917814548993
 21
344.59734149016413
 31
0.0
  0
LINE
  5
3579
  8
0
  6
CONTINUOUS
 62
     7
 10
1310.58742092687
 20
339.08093477109429
 30
0.0
 11
1311.48029716766
 21
340.62744178501271
 31
0.0
  0
ARC
  5
357A
  8
0
  6
CONTINUOUS
 62
     7
 10
1309.7612728537961
 20
340.58891625941999
 30
0.0
 40
1.9342535595909349
 50
279.31705767021782
 51
20.682942329776449
  0
ARC
  5
357B
  8
0
  6
CONTINUOUS
 62
     7
 10
1309.7612728537961
 20
340.58891625941999
 30
0.0
 40
2.9342154826551039
 50
264.87429144630931
 51
35.125708553692967
  0
LINE
  5
357C
  8
0
  6
CONTINUOUS
 62
     7
 10
1311.32667812714
 20
341.30027772728641
 30
0.0
 11
1312.6511055717301
 21
343.59425335225529
 31
0.0
  0
ARC
  5
357D
  8
0
  6
CONTINUOUS
 62
     7
 10
1309.7612728537961
 20
340.58891625941999
 30
0.0
 40
4.1694559627323509
 50
46.253817413829957
 51
73.746182586168572
  0
LINE
  5
357E
  8
0
  6
CONTINUOUS
 62
     7
 10
1312.6511055717301
 20
343.59425335225529
 30
0.0
 11
1312.6544000851929
 21
343.59472336336881
 31
0.0
  0
LINE
  5
357F
  8
0
  6
CONTINUOUS
 62
     7
 10
1312.6443054113099
 20
343.60097308117429
 30
0.0
 11
1312.6511783815729
 21
343.59437946260317
 31
0.0
  0
ARC
  5
3580
  8
0
  6
CONTINUOUS
 62
     7
 10
1309.7612728537961
 20
340.58891625941999
 30
0.0
 40
1.7194559627325181
 50
1.283856519743702
 51
24.438300782382989
  0
ARC
  5
3581
  8
0
  6
CONTINUOUS
 62
     7
 10
1350.0658551900869
 20
319.34029657282468
 30
0.0
 40
44.304265420532602
 50
148.821043645505
 51
150.32849400941399
  0
ARC
  5
3582
  8
0
  6
CONTINUOUS
 62
     7
 10
1307.361272853796
 20
342.98891625941963
 30
0.0
 40
6.0000000000000986
 50
90.000000000000028
 51
180.0
  0
ARC
  5
3583
  8
0
  6
CONTINUOUS
 62
     7
 10
1291.7182101016081
 20
353.22943180921141
 30
0.0
 40
20.72488506610544
 50
328.8138022112754
 51
332.03666013376852
  0
ARC
  5
3584
  8
0
  6
CONTINUOUS
 62
     7
 10
1307.361272853796
 20
342.98891625941963
 30
0.0
 40
5.3297212531710443
 50
90.000000000000028
 51
180.0
  0
ARC
  5
3585
  8
0
  6
CONTINUOUS
 62
     7
 10
1307.361272853796
 20
342.98891625941963
 30
0.0
 40
3.6731250971580769
 50
90.000000000000028
 51
180.0
  0
ARC
  5
3586
  8
0
  6
CONTINUOUS
 62
     7
 10
1309.7612728537961
 20
340.58891625941999
 30
0.0
 40
2.9342154826550941
 50
84.874291446312597
 51
215.12570855369299
  0
ARC
  5
3587
  8
0
  6
CONTINUOUS
 62
     7
 10
1309.7612728537961
 20
340.58891625941999
 30
0.0
 40
1.7194559627324659
 50
181.28385651974361
 51
204.43830078240671
  0
LINE
  5
3588
  8
0
  6
CONTINUOUS
 62
     7
 10
1308.603490943432
 20
336.58357916658412
 30
0.0
 11
1309.9279183880219
 21
338.877554791553
 31
0.0
  0
LINE
  5
3589
  8
0
  6
CONTINUOUS
 62
     7
 10
1308.1958675804531
 20
339.87755479155288
 30
0.0
 11
1306.8714401358629
 21
337.58357916658412
 31
0.0
  0
LINE
  5
358A
  8
0
  6
CONTINUOUS
 62
     7
 10
1309.593032951851
 20
342.3027524549816
 30
0.0
 11
1309.5946273195709
 21
342.30027772728641
 31
0.0
  0
ARC
  5
358B
  8
0
  6
CONTINUOUS
 62
     7
 10
1309.7612728537961
 20
340.58891625941999
 30
0.0
 40
1.7194559627324919
 50
95.561699217604755
 51
118.7161434802661
  0
LINE
  5
358C
  8
0
  6
CONTINUOUS
 62
     7
 10
1308.9351247807219
 20
342.09689774774512
 30
0.0
 11
1308.0422485399331
 21
340.55039073382659
 31
0.0
  0
ARC
  5
358D
  8
0
  6
CONTINUOUS
 62
     7
 10
1309.7612728537961
 20
340.58891625941999
 30
0.0
 40
1.719455962732453
 50
275.56169921760147
 51
298.71614348026333
  0
ARC
  5
358E
  8
0
  6
CONTINUOUS
 62
     7
 10
1269.4566905156321
 20
361.83753594711533
 30
0.0
 40
44.30426542270542
 50
328.82104364553732
 51
330.3284940093817
  0
ARC
  5
358F
  8
0
  6
CONTINUOUS
 62
     7
 10
1327.804335604751
 20
327.9484007103344
 30
0.0
 40
20.72488506468456
 50
148.8138022111832
 51
152.03666013391111
  0
ARC
  5
3590
  8
0
  6
CONTINUOUS
 62
     7
 10
1309.7612728537961
 20
340.58891625941999
 30
0.0
 40
4.1694559627323171
 50
226.25381741382989
 51
253.74618258617161
  0
ARC
  5
3591
  8
0
  6
CONTINUOUS
 62
     7
 10
1309.7612728537961
 20
340.58891625941999
 30
0.0
 40
1.9342535595909141
 50
99.317057670214595
 51
200.68294232977641
  0
ARC
  5
3592
  8
0
  6
CONTINUOUS
 62
     7
 10
1471.4612728537959
 20
340.58891625941999
 30
0.0
 40
4.3973933631784821
 50
20.618538079758331
 51
159.38146192024161
  0
ARC
  5
3593
  8
0
  6
CONTINUOUS
 62
     7
 10
1471.4612728537959
 20
340.58891625941999
 30
0.0
 40
2.9342154826550608
 50
24.874291446318878
 51
155.12570855368111
  0
ARC
  5
3594
  8
0
  6
CONTINUOUS
 62
     7
 10
1471.4612728537959
 20
340.58891625941999
 30
0.0
 40
4.3973933631784776
 50
200.61853807975831
 51
339.38146192024158
  0
LINE
  5
3595
  8
0
  6
CONTINUOUS
 62
     7
 10
1470.0678804530451
 20
341.58891625941988
 30
0.0
 11
1467.418336121581
 21
341.58891625941988
 31
0.0
  0
LINE
  5
3596
  8
0
  6
CONTINUOUS
 62
     7
 10
1475.5042095860119
 20
341.58891625941988
 30
0.0
 11
1472.8546652545481
 21
341.58891625941988
 31
0.0
  0
LINE
  5
3597
  8
0
  6
CONTINUOUS
 62
     7
 10
1472.8546652545481
 20
339.58891625941988
 30
0.0
 11
1475.5042095860119
 21
339.58891625941988
 31
0.0
  0
LINE
  5
3598
  8
0
  6
CONTINUOUS
 62
     7
 10
1467.418336121581
 20
339.58891625941988
 30
0.0
 11
1470.0678804530451
 21
339.58891625941988
 31
0.0
  0
ARC
  5
3599
  8
0
  6
CONTINUOUS
 62
     7
 10
1471.461272853797
 20
340.58891625941999
 30
0.0
 40
1.715092528836933
 50
35.66597974871263
 51
58.675353085409292
  0
ARC
  5
359A
  8
0
  6
CONTINUOUS
 62
     7
 10
1471.461272853797
 20
340.58891625941999
 30
0.0
 40
1.7150925288369629
 50
121.3246469145907
 51
144.33402025128731
  0
LINE
  5
359B
  8
0
  6
CONTINUOUS
 62
     7
 10
1472.352926522223
 20
342.05400878825691
 30
0.0
 11
1470.5696191853699
 21
342.05400878825691
 31
0.0
  0
LINE
  5
359C
  8
0
  6
CONTINUOUS
 62
     7
 10
1470.5696191853699
 20
339.1238237305829
 30
0.0
 11
1472.352926522223
 21
339.1238237305829
 31
0.0
  0
ARC
  5
359D
  8
0
  6
CONTINUOUS
 62
     7
 10
1471.461272853797
 20
340.58891625941999
 30
0.0
 40
1.7150925288369629
 50
215.6659797487126
 51
238.6753530854092
  0
ARC
  5
359E
  8
0
  6
CONTINUOUS
 62
     7
 10
1471.461272853797
 20
340.58891625941999
 30
0.0
 40
1.715092528836933
 50
301.3246469145879
 51
324.33402025128731
  0
ARC
  5
359F
  8
0
  6
CONTINUOUS
 62
     7
 10
1471.4612728537959
 20
340.58891625941999
 30
0.0
 40
2.950000000000006
 50
205.07022794933209
 51
334.92977205066791
  0
ARC
  5
35A0
  8
0
  6
CONTINUOUS
 62
     7
 10
1471.461272853797
 20
340.58891625941999
 30
0.0
 40
4.1650925288370253
 50
166.3045789082199
 51
193.69542109177999
  0
ARC
  5
35A1
  8
0
  6
CONTINUOUS
 62
     7
 10
1471.461272853797
 20
340.58891625941999
 30
0.0
 40
4.5141672404673612
 50
162.54346488654519
 51
197.45653511345469
  0
ARC
  5
35A2
  8
0
  6
CONTINUOUS
 62
     7
 10
1471.461272853797
 20
340.58891625941999
 30
0.0
 40
4.5141672404673061
 50
342.5434648865442
 51
17.456535113454791
  0
ARC
  5
35A3
  8
0
  6
CONTINUOUS
 62
     7
 10
1471.461272853797
 20
340.58891625941999
 30
0.0
 40
4.1650925288369693
 50
346.30457890819469
 51
13.69542109178003
  0
ARC
  5
35A4
  8
0
  6
CONTINUOUS
 62
     7
 10
1469.53579664683
 20
318.64290778042431
 30
0.0
 40
20.724885064733652
 50
88.813802211176196
 51
92.036660133894486
  0
ARC
  5
35A5
  8
0
  6
CONTINUOUS
 62
     7
 10
1473.386749060764
 20
362.53492473787458
 30
0.0
 40
20.72488506419301
 50
268.8138022111338
 51
272.03666013393672
  0
ARC
  5
35A6
  8
0
  6
CONTINUOUS
 62
     7
 10
1473.211719577979
 20
295.05981422151859
 30
0.0
 40
44.304265422986681
 50
88.821043645550645
 51
90.328494009377266
  0
ARC
  5
35A7
  8
0
  6
CONTINUOUS
 62
     7
 10
1469.710826129615
 20
386.11801829735037
 30
0.0
 40
44.304265423016311
 50
268.8210436455505
 51
270.32849400937732
  0
ARC
  5
35A8
  8
0
  6
CONTINUOUS
 62
     7
 10
1467.441176261776
 20
339.32473427048228
 30
0.0
 40
0.2999849104956798
 50
197.45608952654629
 51
251.41176646123989
  0
ARC
  5
35A9
  8
0
  6
CONTINUOUS
 62
     7
 10
1475.4813694458221
 20
341.8530982483486
 30
0.0
 40
0.29998491049601
 50
17.456089528293379
 51
71.411766466320529
  0
LINE
  5
35AA
  8
0
  6
CONTINUOUS
 62
     7
 10
1475.5042095860119
 20
341.58891625941988
 30
0.0
 11
1475.507943656346
 21
341.57504565740152
 31
0.0
  0
LINE
  5
35AB
  8
0
  6
CONTINUOUS
 62
     7
 10
1475.506265757499
 20
341.5915343862153
 30
0.0
 11
1475.5042095860119
 21
341.58891625941988
 31
0.0
  0
LINE
  5
35AC
  8
0
  6
CONTINUOUS
 62
     7
 10
1475.507943656346
 20
339.60278686143778
 30
0.0
 11
1475.5042095860119
 21
339.58891625941988
 31
0.0
  0
ARC
  5
35AD
  8
0
  6
CONTINUOUS
 62
     7
 10
1475.4813678260571
 20
339.32473585855189
 30
0.0
 40
0.2999869320433786
 50
288.58843007865221
 51
342.54371393131993
  0
ARC
  5
35AE
  8
0
  6
CONTINUOUS
 62
     7
 10
1467.4411778815081
 20
341.8530966603077
 30
0.0
 40
0.2999869320116279
 50
108.58843007261061
 51
162.54371393342331
  0
ARC
  5
35AF
  8
0
  6
CONTINUOUS
 62
     7
 10
1471.4612728537959
 20
340.58891625941999
 30
0.0
 40
1.934253559590883
 50
39.317057670205187
 51
140.6829423297948
  0
ARC
  5
35B0
  8
0
  6
CONTINUOUS
 62
     7
 10
1471.4612728537959
 20
340.58891625941999
 30
0.0
 40
1.934253559590895
 50
219.31705767020301
 51
320.6829423297969
  0
ARC
  5
35B1
  8
0
  6
CONTINUOUS
 62
     7
 10
1633.1612728537959
 20
340.58891625941999
 30
0.0
 40
2.9342154826550941
 50
324.87429144630693
 51
95.125708553687403
  0
ARC
  5
35B2
  8
0
  6
CONTINUOUS
 62
     7
 10
1635.561272853796
 20
342.98891625941963
 30
0.0
 40
3.6731250971580769
 50
0.0
 51
90.000000000000028
  0
ARC
  5
35B3
  8
0
  6
CONTINUOUS
 62
     7
 10
1635.561272853796
 20
342.98891625941963
 30
0.0
 40
5.3297212531710443
 50
0.0
 51
90.000000000000028
  0
ARC
  5
35B4
  8
0
  6
CONTINUOUS
 62
     7
 10
1651.2043356059839
 20
353.22943180921141
 30
0.0
 40
20.72488506610544
 50
207.96333986623139
 51
211.18619778872451
  0
ARC
  5
35B5
  8
0
  6
CONTINUOUS
 62
     7
 10
1635.561272853796
 20
342.98891625941963
 30
0.0
 40
6.0000000000000986
 50
0.0
 51
90.000000000000028
  0
LINE
  5
35B6
  8
0
  6
CONTINUOUS
 62
     7
 10
1631.5958675804529
 20
341.30027772728641
 30
0.0
 11
1630.271440135863
 21
343.59425335225529
 31
0.0
  0
LINE
  5
35B7
  8
0
  6
CONTINUOUS
 62
     7
 10
1633.3295127557419
 20
342.3027524549816
 30
0.0
 11
1632.004731158599
 21
344.59734149016413
 31
0.0
  0
LINE
  5
35B8
  8
0
  6
CONTINUOUS
 62
     7
 10
1632.003490943431
 20
344.59425335225518
 30
0.0
 11
1633.327918388022
 21
342.30027772728641
 31
0.0
  0
CIRCLE
  5
35B9
  8
0
  6
CONTINUOUS
 62
     7
 10
1633.1612728537959
 20
340.58891625941999
 30
0.0
 40
4.5956556052975079
  0
LINE
  5
35BA
  8
0
  6
CONTINUOUS
 62
     7
 10
1630.2782402962821
 20
343.60097308117429
 30
0.0
 11
1630.2713673260189
 21
343.59437946260317
 31
0.0
  0
LINE
  5
35BB
  8
0
  6
CONTINUOUS
 62
     7
 10
1630.271440135863
 20
343.59425335225529
 30
0.0
 11
1630.2681456224
 21
343.59472336336881
 31
0.0
  0
ARC
  5
35BC
  8
0
  6
CONTINUOUS
 62
     7
 10
1633.1612728537959
 20
340.58891625941999
 30
0.0
 40
4.1694559627323509
 50
106.2538174138314
 51
133.74618258616999
  0
ARC
  5
35BD
  8
0
  6
CONTINUOUS
 62
     7
 10
1633.1612728537959
 20
340.58891625941999
 30
0.0
 40
1.9342535595909141
 50
339.31705767022351
 51
80.682942329785419
  0
ARC
  5
35BE
  8
0
  6
CONTINUOUS
 62
     7
 10
1633.1612728537959
 20
340.58891625941999
 30
0.0
 40
4.1694559627323171
 50
286.25381741382841
 51
313.74618258616988
  0
ARC
  5
35BF
  8
0
  6
CONTINUOUS
 62
     7
 10
1615.118210102841
 20
327.94840071033428
 30
0.0
 40
20.72488506468456
 50
27.963339866088852
 51
31.186197788816749
  0
ARC
  5
35C0
  8
0
  6
CONTINUOUS
 62
     7
 10
1673.4658551919611
 20
361.83753594711533
 30
0.0
 40
44.30426542270542
 50
209.67150599061819
 51
211.1789563544626
  0
ARC
  5
35C1
  8
0
  6
CONTINUOUS
 62
     7
 10
1633.1612728537959
 20
340.58891625941999
 30
0.0
 40
1.719455962732453
 50
241.28385651973659
 51
264.43830078239841
  0
LINE
  5
35C2
  8
0
  6
CONTINUOUS
 62
     7
 10
1633.9874209268701
 20
342.09689774774512
 30
0.0
 11
1634.88029716766
 21
340.55039073382659
 31
0.0
  0
ARC
  5
35C3
  8
0
  6
CONTINUOUS
 62
     7
 10
1633.1612728537959
 20
340.58891625941999
 30
0.0
 40
1.7194559627324919
 50
61.28385651973381
 51
84.438300782395245
  0
LINE
  5
35C4
  8
0
  6
CONTINUOUS
 62
     7
 10
1633.3295127557419
 20
342.3027524549816
 30
0.0
 11
1633.327918388022
 21
342.30027772728641
 31
0.0
  0
LINE
  5
35C5
  8
0
  6
CONTINUOUS
 62
     7
 10
1634.7266781271401
 20
339.87755479155288
 30
0.0
 11
1636.0511055717291
 21
337.58357916658412
 31
0.0
  0
LINE
  5
35C6
  8
0
  6
CONTINUOUS
 62
     7
 10
1634.3190547641609
 20
336.58357916658412
 30
0.0
 11
1632.994627319571
 21
338.877554791553
 31
0.0
  0
ARC
  5
35C7
  8
0
  6
CONTINUOUS
 62
     7
 10
1633.1612728537959
 20
340.58891625941999
 30
0.0
 40
1.7194559627324659
 50
335.56169921759329
 51
358.71614348025628
  0
ARC
  5
35C8
  8
0
  6
CONTINUOUS
 62
     7
 10
1592.8566905175051
 20
319.34029657282468
 30
0.0
 40
44.304265420532602
 50
29.67150599058596
 51
31.178956354494971
  0
ARC
  5
35C9
  8
0
  6
CONTINUOUS
 62
     7
 10
1633.1612728537959
 20
340.58891625941999
 30
0.0
 40
1.7194559627325181
 50
155.56169921761699
 51
178.71614348025631
  0
ARC
  5
35CA
  8
0
  6
CONTINUOUS
 62
     7
 10
1633.1612728537959
 20
340.58891625941999
 30
0.0
 40
2.9342154826551039
 50
144.87429144630701
 51
275.12570855369057
  0
ARC
  5
35CB
  8
0
  6
CONTINUOUS
 62
     7
 10
1633.1612728537959
 20
340.58891625941999
 30
0.0
 40
1.9342535595909349
 50
159.31705767022351
 51
260.68294232978212
  0
LINE
  5
35CC
  8
0
  6
CONTINUOUS
 62
     7
 10
1632.335124780722
 20
339.08093477109429
 30
0.0
 11
1631.442248539933
 21
340.62744178501271
 31
0.0
  0
LINE
  5
35CD
  8
L6
 10
1187.228286090379
 20
273.8889162594196
 30
0.0
 11
1269.82782754708
 21
273.8889162594196
 31
0.0
  0
LINE
  5
35D7
  8
0
  6
CONTINUOUS
 62
     7
 10
1307.361272853796
 20
442.98800132273482
 30
0.0
 11
1635.561272853796
 21
442.98800132273482
 31
0.0
  0
LINE
  5
35D8
  8
0
  6
CONTINUOUS
 62
     7
 10
1635.561272853796
 20
441.38824501048481
 30
0.0
 11
1307.361272853796
 21
441.38824501048481
 31
0.0
  0
LINE
  5
35D9
  8
0
  6
CONTINUOUS
 62
     7
 10
1307.361272853796
 20
402.98800132273482
 30
0.0
 11
1635.561272853796
 21
402.98800132273482
 31
0.0
  0
LINE
  5
35DA
  8
0
  6
CONTINUOUS
 62
     7
 10
1461.461394697671
 20
400.98800132273482
 30
0.0
 11
1318.8611619640869
 21
400.98800132273482
 31
0.0
  0
LINE
  5
35DB
  8
L1
  6
HIDDEN
 62
     1
 10
1621.761272853797
 20
439.48800132273482
 30
0.0
 11
1329.4914007069849
 21
439.48800132273482
 31
0.0
  0
LINE
  5
35DC
  8
L1
  6
HIDDEN
 62
     1
 10
1321.1612728537959
 20
439.48800132273482
 30
0.0
 11
1307.591400706985
 21
439.48800132273482
 31
0.0
  0
LINE
  5
35DD
  8
0
  6
CONTINUOUS
 62
     7
 10
1311.1612728537971
 20
400.98800132273482
 30
0.0
 11
1306.9611619640859
 21
400.98800132273482
 31
0.0
  0
LINE
  5
35DE
  8
L1
  6
HIDDEN
 62
     1
 10
1306.7915225508591
 20
439.09498228530998
 30
0.0
 11
1306.1612728537959
 21
402.98800132273482
 31
0.0
  0
LINE
  5
35DF
  8
0
  6
CONTINUOUS
 62
     7
 10
1302.031551600626
 20
441.38824501048481
 30
0.0
 11
1301.361272853796
 21
402.98800132273482
 31
0.0
  0
LINE
  5
35E0
  8
0
  6
CONTINUOUS
 62
     7
 10
1306.9611619640871
 20
400.98800132273482
 30
0.0
 11
1305.1961829854911
 21
400.98800132273482
 31
0.0
  0
LINE
  5
35E1
  8
0
  6
CONTINUOUS
 62
     7
 10
1305.196182983653
 20
400.98800132273482
 30
0.0
 11
1305.1612728537971
 21
402.98800132273482
 31
0.0
  0
LINE
  5
35E2
  8
0
  6
CONTINUOUS
 62
     7
 10
1301.361272853796
 20
402.98800132273482
 30
0.0
 11
1307.361272853796
 21
402.98800132273482
 31
0.0
  0
ARC
  5
35E3
  8
L1
  6
HIDDEN
 62
     1
 10
1307.1914616289221
 20
439.0880013227349
 30
0.0
 40
0.4000000000000341
 50
90.0
 51
178.9999999996237
  0
LINE
  5
35E4
  8
L1
  6
HIDDEN
 62
     1
 10
1307.591400706985
 20
439.48800132273482
 30
0.0
 11
1307.1914616289221
 21
439.48800132273482
 31
0.0
  0
LINE
  5
35E5
  8
0
  6
CONTINUOUS
 62
     7
 10
1303.688147756638
 20
442.98800132273482
 30
0.0
 11
1307.361272853796
 21
442.98800132273482
 31
0.0
  0
LINE
  5
35E6
  8
0
  6
CONTINUOUS
 62
     7
 10
1302.031551600626
 20
441.38824501048481
 30
0.0
 11
1303.688147756638
 21
442.98800132273482
 31
0.0
  0
LINE
  5
35E7
  8
0
  6
CONTINUOUS
 62
     7
 10
1307.361272853796
 20
441.38824501048481
 30
0.0
 11
1302.031551600626
 21
441.38824501048481
 31
0.0
  0
LINE
  5
35E8
  8
L1
  6
HIDDEN
 62
     1
 10
1318.79219429712
 20
439.09498228530998
 30
0.0
 11
1318.1619446000559
 21
402.98800132273482
 31
0.0
  0
LINE
  5
35E9
  8
0
  6
CONTINUOUS
 62
     7
 10
1317.0961829836531
 20
400.98800132273482
 30
0.0
 11
1311.1612728537971
 21
400.98800132273482
 31
0.0
  0
LINE
  5
35EA
  8
0
  6
CONTINUOUS
 62
     7
 10
1318.861161964086
 20
400.98800132273482
 30
0.0
 11
1317.0961829836531
 21
400.98800132273482
 31
0.0
  0
LINE
  5
35EB
  8
0
  6
CONTINUOUS
 62
     7
 10
1317.0961829836531
 20
400.98800132273482
 30
0.0
 11
1317.0612728537969
 21
402.98800132273482
 31
0.0
  0
LINE
  5
35EC
  8
L1
  6
HIDDEN
 62
     1
 10
1329.0914616289219
 20
439.48800132273482
 30
0.0
 11
1321.1612728537959
 21
439.48800132273482
 31
0.0
  0
ARC
  5
35ED
  8
L1
  6
HIDDEN
 62
     1
 10
1319.1921333751829
 20
439.0880013227349
 30
0.0
 40
0.4000000000000341
 50
90.0
 51
178.99999999974091
  0
LINE
  5
35EE
  8
L1
  6
HIDDEN
 62
     1
 10
1319.592072453245
 20
439.48800132273482
 30
0.0
 11
1319.1921333751829
 21
439.48800132273482
 31
0.0
  0
LINE
  5
35EF
  8
0
  6
CONTINUOUS
 62
     7
 10
1624.0613946976721
 20
400.98800132273482
 30
0.0
 11
1481.4611619640859
 21
400.98800132273482
 31
0.0
  0
LINE
  5
35F0
  8
L6
 10
1471.461272853797
 20
478.38045538188362
 30
0.0
 11
1471.461272853797
 21
379.66327025270311
 31
0.0
  0
LINE
  5
35F1
  8
0
  6
CONTINUOUS
 62
     7
 10
1479.696182983653
 20
400.98800132273482
 30
0.0
 11
1463.226362723939
 21
400.98800132273482
 31
0.0
  0
LINE
  5
35F2
  8
0
  6
CONTINUOUS
 62
     7
 10
1463.226362723939
 20
400.98800132273482
 30
0.0
 11
1461.461394697671
 21
400.98800132273482
 31
0.0
  0
LINE
  5
35F3
  8
0
  6
CONTINUOUS
 62
     7
 10
1463.226362723939
 20
400.98800132273482
 30
0.0
 11
1463.2612728537961
 21
402.98800132273482
 31
0.0
  0
LINE
  5
35F4
  8
0
  6
CONTINUOUS
 62
     7
 10
1481.4611619640859
 20
400.98800132273482
 30
0.0
 11
1479.696182983653
 21
400.98800132273482
 31
0.0
  0
LINE
  5
35F5
  8
0
  6
CONTINUOUS
 62
     7
 10
1479.696182983653
 20
400.98800132273482
 30
0.0
 11
1479.6612728537971
 21
402.98800132273482
 31
0.0
  0
LINE
  5
35F6
  8
0
  6
CONTINUOUS
 62
     7
 10
1640.8909941069669
 20
441.38824501048481
 30
0.0
 11
1641.561272853796
 21
402.98800132273482
 31
0.0
  0
LINE
  5
35F7
  8
0
  6
CONTINUOUS
 62
     7
 10
1635.961394697671
 20
400.98800132273482
 30
0.0
 11
1631.761272853797
 21
400.98800132273482
 31
0.0
  0
LINE
  5
35F8
  8
0
  6
CONTINUOUS
 62
     7
 10
1635.561272853796
 20
402.98800132273482
 30
0.0
 11
1641.561272853796
 21
402.98800132273482
 31
0.0
  0
LINE
  5
35F9
  8
0
  6
CONTINUOUS
 62
     7
 10
1631.761272853797
 20
400.98800132273482
 30
0.0
 11
1625.8263627239389
 21
400.98800132273482
 31
0.0
  0
LINE
  5
35FA
  8
0
  6
CONTINUOUS
 62
     7
 10
1625.8263627239389
 20
400.98800132273482
 30
0.0
 11
1624.0613946976709
 21
400.98800132273482
 31
0.0
  0
LINE
  5
35FB
  8
0
  6
CONTINUOUS
 62
     7
 10
1625.8263627239389
 20
400.98800132273482
 30
0.0
 11
1625.861272853796
 21
402.98800132273482
 31
0.0
  0
LINE
  5
35FC
  8
0
  6
CONTINUOUS
 62
     7
 10
1637.7263627256591
 20
400.98800132273482
 30
0.0
 11
1635.961394697671
 21
400.98800132273482
 31
0.0
  0
LINE
  5
35FD
  8
0
  6
CONTINUOUS
 62
     7
 10
1637.7263627256591
 20
400.98800132273482
 30
0.0
 11
1637.7612728537961
 21
402.98800132273482
 31
0.0
  0
LINE
  5
35FE
  8
0
  6
CONTINUOUS
 62
     7
 10
1635.561272853796
 20
442.98800132273482
 30
0.0
 11
1639.234397950954
 21
442.98800132273482
 31
0.0
  0
LINE
  5
35FF
  8
0
  6
CONTINUOUS
 62
     7
 10
1640.8909941069669
 20
441.38824501048481
 30
0.0
 11
1635.561272853796
 21
441.38824501048481
 31
0.0
  0
LINE
  5
3600
  8
0
  6
CONTINUOUS
 62
     7
 10
1640.8909941069669
 20
441.38824501048481
 30
0.0
 11
1639.234397950954
 21
442.98800132273482
 31
0.0
  0
LINE
  5
3601
  8
L1
  6
HIDDEN
 62
     1
 10
1624.1303514104729
 20
439.09498228530998
 30
0.0
 11
1624.760601107537
 21
402.98800132273482
 31
0.0
  0
LINE
  5
3602
  8
L1
  6
HIDDEN
 62
     1
 10
1636.1310231567329
 20
439.09498228530998
 30
0.0
 11
1636.761272853797
 21
402.98800132273482
 31
0.0
  0
LINE
  5
3603
  8
L1
  6
HIDDEN
 62
     1
 10
1621.761272853797
 20
439.48800132273482
 30
0.0
 11
1635.3311450006081
 21
439.48800132273482
 31
0.0
  0
LINE
  5
3604
  8
L1
  6
HIDDEN
 62
     1
 10
1635.3311450006081
 20
439.48800132273482
 30
0.0
 11
1635.7310840786711
 21
439.48800132273482
 31
0.0
  0
ARC
  5
3605
  8
L1
  6
HIDDEN
 62
     1
 10
1635.7310840786711
 20
439.0880013227349
 30
0.0
 40
0.4000000000000341
 50
1.000000000376267
 51
90.0
  0
LINE
  5
3606
  8
L1
  6
HIDDEN
 62
     1
 10
1623.3304732543479
 20
439.48800132273482
 30
0.0
 11
1623.73041233241
 21
439.48800132273482
 31
0.0
  0
ARC
  5
3607
  8
L1
  6
HIDDEN
 62
     1
 10
1623.73041233241
 20
439.0880013227349
 30
0.0
 40
0.4000000000000341
 50
1.000000000259019
 51
90.0
  0
LINE
  5
3608
  8
L1
  6
HIDDEN
 62
     1
 10
1461.530351410473
 20
439.09498228530998
 30
0.0
 11
1462.160601107536
 21
402.98800132273482
 31
0.0
  0
ARC
  5
3609
  8
L1
  6
HIDDEN
 62
     1
 10
1461.1304123324101
 20
439.0880013227349
 30
0.0
 40
0.4000000000000341
 50
1.000000000259019
 51
90.0
  0
LINE
  5
360A
  8
L1
  6
HIDDEN
 62
     1
 10
1460.730473254348
 20
439.48800132273482
 30
0.0
 11
1461.1304123324101
 21
439.48800132273482
 31
0.0
  0
LINE
  5
360B
  8
L1
  6
HIDDEN
 62
     1
 10
1482.1920724532449
 20
439.48800132273482
 30
0.0
 11
1481.7921333751819
 21
439.48800132273482
 31
0.0
  0
ARC
  5
360C
  8
L1
  6
HIDDEN
 62
     1
 10
1481.7921333751819
 20
439.0880013227349
 30
0.0
 40
0.4000000000000341
 50
90.0
 51
178.99999999974091
  0
LINE
  5
360D
  8
L1
  6
HIDDEN
 62
     1
 10
1481.3921942971201
 20
439.09498228530998
 30
0.0
 11
1480.761944600056
 21
402.98800132273482
 31
0.0
  0
LINE
  5
3A2D
  8
0
  6
CONTINUOUS
 62
     7
 10
1153.133876040019
 20
342.98891625941928
 30
0.0
 11
1153.133876040019
 21
204.78891625941949
 31
0.0
  0
LINE
  5
3A2E
  8
0
  6
CONTINUOUS
 62
     7
 10
812.93387604001873
 20
204.78891625941949
 30
0.0
 11
812.93387604001884
 21
342.98891625941968
 31
0.0
  0
LINE
  5
3A37
  8
L6
  6
CONTINUOUS
 10
993.03375419614122
 20
199.88891625942011
 30
0.0
 11
1135.633997883891
 21
199.88891625942031
 31
0.0
  0
LINE
  5
3A38
  8
0
  6
CONTINUOUS
 62
     7
 10
1147.133876040019
 20
198.78891625941949
 30
0.0
 11
818.93387604001862
 21
198.78891625941949
 31
0.0
  0
LINE
  5
3A39
  8
0
  6
CONTINUOUS
 62
     7
 10
993.03375419612723
 20
203.55400612956299
 30
0.0
 11
1135.633997883893
 21
203.55400612956299
 31
0.0
  0
LINE
  5
3A3B
  8
L6
  6
CONTINUOUS
 10
993.03375419614395
 20
202.62382638927619
 30
0.0
 11
1135.6339869297281
 21
202.62382638755781
 31
0.0
  0
LINE
  5
3AF3
  8
L6
  6
CONTINUOUS
 10
830.43375419614119
 20
199.88891625942011
 30
0.0
 11
973.03399788389106
 21
199.88891625942011
 31
0.0
  0
LINE
  5
3AF4
  8
0
  6
CONTINUOUS
 62
     7
 10
830.43375419612721
 20
203.55400612956299
 30
0.0
 11
973.03399788389368
 21
203.55400612956299
 31
0.0
  0
LINE
  5
3AF6
  8
L6
  6
CONTINUOUS
 10
830.43375419614415
 20
202.62382638927619
 30
0.0
 11
973.03398692972848
 21
202.62382638755781
 31
0.0
  0
LINE
  5
3B05
  8
L6
  6
CONTINUOUS
 10
988.96225668620809
 20
200.0889162594197
 30
0.0
 11
977.10547073748785
 21
200.0889162594197
 31
0.0
  0
ARC
  5
3B06
  8
L6
  6
CONTINUOUS
 10
983.03387604001864
 20
207.1889162594197
 30
0.0
 40
5.4999999999994298
 50
225.7141055910455
 51
314.29213056119409
  0
ARC
  5
3B07
  8
L6
  6
CONTINUOUS
 10
983.03387604001864
 20
207.1889162594197
 30
0.0
 40
5.5000000000006821
 50
0.0000000000260592
 51
180.00000000002601
  0
LINE
  5
3B08
  8
L6
  6
CONTINUOUS
 10
987.07681277223435
 20
208.18891625941961
 30
0.0
 11
984.42726844077049
 21
208.18891625941961
 31
0.0
  0
LINE
  5
3B09
  8
L6
  6
CONTINUOUS
 10
984.42726844077049
 20
206.18891625941961
 30
0.0
 11
987.07681277223435
 21
206.18891625941961
 31
0.0
  0
ARC
  5
3B0B
  8
L6
  6
CONTINUOUS
 10
983.03387604001864
 20
207.1889162594197
 30
0.0
 40
8.2349101298572123
 50
0.0
 51
180.0
  0
ARC
  5
3B0C
  8
0
  6
CONTINUOUS
 62
     7
 10
983.03387604001864
 20
207.1889162594197
 30
0.0
 40
9.1650898701436745
 50
0.0
 51
180.0
  0
ARC
  5
3B0D
  8
L6
  6
CONTINUOUS
 10
993.03399743245325
 20
204.3890376518535
 30
0.0
 40
4.5001213990080826
 50
180.0030968972938
 51
270.0
  0
ARC
  5
3B0F
  8
0
  6
CONTINUOUS
 62
     7
 10
993.03383822534522
 20
204.38887844471731
 30
0.0
 40
0.8348723194116378
 50
180.0057667703698
 51
270.0
  0
ARC
  5
3B11
  8
L6
  6
CONTINUOUS
 10
993.03274825114215
 20
204.3877884803677
 30
0.0
 40
1.763962376093315
 50
179.96697011705771
 51
270.03267478998441
  0
ARC
  5
3B16
  8
L6
  6
CONTINUOUS
 10
987.22376184713482
 20
202.89437130103249
 30
0.0
 40
0.4998549676000694
 50
14.394329809986649
 51
134.305776653187
  0
ARC
  5
3B17
  8
L6
  6
CONTINUOUS
 10
993.02568470651374
 20
204.3835423662405
 30
0.0
 40
5.4901609732847678
 50
194.3953659143418
 51
221.8280719274822
  0
ARC
  5
3B18
  8
L6
  6
CONTINUOUS
 10
988.56237086930457
 20
200.38873544155931
 30
0.0
 40
0.4998001686066785
 50
323.13883135182613
 51
41.845762900594892
  0
LINE
  5
3B1A
  8
L6
  6
CONTINUOUS
 10
991.26878616987597
 20
207.18891625942001
 30
0.0
 11
991.26878616815702
 21
204.38880536971041
 31
0.0
  0
LINE
  5
3B1B
  8
0
  6
CONTINUOUS
 62
     7
 10
992.19896591016231
 20
207.1889162594195
 30
0.0
 11
992.19896591016231
 21
204.38879441554471
 31
0.0
  0
ARC
  5
3B1D
  8
L6
  6
CONTINUOUS
 10
983.03387604001864
 20
207.1889162594197
 30
0.0
 40
4.1650925288369969
 50
346.30457890820742
 51
13.69542109179258
  0
LINE
  5
3B28
  8
L6
  6
CONTINUOUS
 10
988.53387604001955
 20
207.18891625942231
 30
0.0
 11
988.53387604001955
 21
204.38879441554741
 31
0.0
  0
ARC
  5
3B35
  8
L6
  6
CONTINUOUS
 10
973.03375464757619
 20
204.3890376518579
 30
0.0
 40
4.5001213990160407
 50
270.0
 51
359.99690310258882
  0
ARC
  5
3B37
  8
0
  6
CONTINUOUS
 62
     7
 10
973.03391385466227
 20
204.3888784447546
 30
0.0
 40
0.8348723194412018
 50
270.0
 51
359.99423322590422
  0
ARC
  5
3B39
  8
L6
  6
CONTINUOUS
 10
973.03500381908589
 20
204.38778847052649
 30
0.0
 40
1.7639623760770811
 50
269.96697011659847
 51
0.0326743970897425
  0
ARC
  5
3B3B
  8
L6
  6
CONTINUOUS
 10
978.84445777129702
 20
202.89391510089911
 30
0.0
 40
0.4998550430573056
 50
45.700482242303472
 51
165.58348245608201
  0
ARC
  5
3B3F
  8
L6
  6
CONTINUOUS
 10
977.50548635704206
 20
200.38872977722659
 30
0.0
 40
0.4999006314731912
 50
138.16021784233689
 51
216.8517246842805
  0
ARC
  5
3B40
  8
L6
  6
CONTINUOUS
 10
973.02870160349755
 20
204.3921251328467
 30
0.0
 40
5.50583206007762
 50
318.1982760720058
 51
345.55132717958611
  0
LINE
  5
3B49
  8
L6
  6
CONTINUOUS
 10
978.99093930780316
 20
206.18891625941961
 30
0.0
 11
981.64048363926759
 21
206.18891625941961
 31
0.0
  0
LINE
  5
3B4A
  8
L6
  6
CONTINUOUS
 10
981.64048363926759
 20
208.18891625941961
 30
0.0
 11
978.99093930780316
 21
208.18891625941961
 31
0.0
  0
ARC
  5
3B60
  8
L6
  6
CONTINUOUS
 10
983.03387604001864
 20
207.1889162594197
 30
0.0
 40
1.7150925288369629
 50
301.32464691459069
 51
324.33402025129902
  0
LINE
  5
3B61
  8
L6
  6
CONTINUOUS
 10
982.14222237159254
 20
205.72382373058261
 30
0.0
 11
983.92552970844565
 21
205.72382373058261
 31
0.0
  0
ARC
  5
3B62
  8
L6
  6
CONTINUOUS
 10
983.03387604001864
 20
207.1889162594197
 30
0.0
 40
1.7150925288369181
 50
215.66597974870149
 51
238.67535308541201
  0
LINE
  5
3B74
  8
L6
  6
CONTINUOUS
 10
981.63914065712561
 20
208.19153438621521
 30
0.0
 11
981.64048363926759
 21
208.18891625941961
 31
0.0
  0
ARC
  5
3B78
  8
L6
  6
CONTINUOUS
 10
983.03387604001864
 20
207.1889162594197
 30
0.0
 40
1.7150925288369181
 50
121.3246469145879
 51
144.3340202512984
  0
LINE
  5
3B79
  8
L6
  6
CONTINUOUS
 10
983.92552970844565
 20
208.6540087882565
 30
0.0
 11
982.14222237159254
 21
208.6540087882565
 31
0.0
  0
ARC
  5
3B7A
  8
L6
  6
CONTINUOUS
 10
983.03387604001864
 20
207.1889162594197
 30
0.0
 40
1.7150925288369629
 50
35.665979748701602
 51
58.675353085409611
  0
ARC
  5
3B7C
  8
L6
  6
CONTINUOUS
 10
983.02838908931881
 20
207.1895751731237
 30
0.0
 40
4.1596056303253821
 50
166.29550281355259
 51
193.91993754869591
  0
LINE
  5
3B81
  8
L6
  6
CONTINUOUS
 10
977.53387604001807
 20
204.3887944155417
 30
0.0
 11
977.53387604001807
 21
207.1889162594166
 31
0.0
  0
LINE
  5
3B83
  8
0
  6
CONTINUOUS
 62
     7
 10
973.86878616987531
 20
204.3887944155276
 30
0.0
 11
973.86878616987531
 21
207.1889162594195
 31
0.0
  0
LINE
  5
3B85
  8
L6
  6
CONTINUOUS
 10
974.79896591016211
 20
204.38879441554471
 30
0.0
 11
974.79896591016177
 21
207.1889162594191
 31
0.0
  0
LINE
  5
3B91
  8
L6
  6
CONTINUOUS
 10
822.16002411309182
 20
208.69689774774699
 30
0.0
 11
823.05290035388225
 21
207.1503907338265
 31
0.0
  0
ARC
  5
3B92
  8
L6
  6
CONTINUOUS
 10
821.33387604001871
 20
207.1889162594197
 30
0.0
 40
4.1694559627323509
 50
286.25381741383143
 51
313.74618258616988
  0
LINE
  5
3B94
  8
L6
  6
CONTINUOUS
 10
818.53375419614656
 20
220.9889162594198
 30
0.0
 11
822.73387604002176
 21
220.98891625942019
 31
0.0
  0
LINE
  5
3B95
  8
L6
  6
CONTINUOUS
 10
826.88330003504825
 20
199.98891625941971
 30
0.0
 11
818.93387604001862
 21
199.98891625941951
 31
0.0
  0
LINE
  5
3B97
  8
L6
  6
CONTINUOUS
 10
818.53375419614179
 20
221.78891625941989
 30
0.0
 11
822.73387604001687
 21
221.78891625941989
 31
0.0
  0
LINE
  5
3B9B
  8
L6
  6
CONTINUOUS
 10
818.53375419614395
 20
224.52382638927611
 30
0.0
 11
822.73387604001846
 21
224.52382638927639
 31
0.0
  0
LINE
  5
3B9C
  8
0
  6
CONTINUOUS
 62
     7
 10
818.53375419612667
 20
225.4540061295632
 30
0.0
 11
822.7338760400188
 21
225.4540061295632
 31
0.0
  0
LINE
  5
3B9F
  8
L6
  6
CONTINUOUS
 10
825.13387604001957
 20
218.5889162594174
 30
0.0
 11
825.13387604001957
 21
204.38879441554201
 31
0.0
  0
LINE
  5
3BA0
  8
L6
  6
CONTINUOUS
 10
825.93387604001919
 20
218.5889162594215
 30
0.0
 11
825.93387604001919
 21
204.3887944155465
 31
0.0
  0
LINE
  5
3BA2
  8
L6
  6
CONTINUOUS
 10
828.66878616987594
 20
218.5889162594197
 30
0.0
 11
828.66878616815711
 21
204.38880536971351
 31
0.0
  0
LINE
  5
3BA3
  8
0
  6
CONTINUOUS
 62
     7
 10
829.59896591016229
 20
218.58891625941939
 30
0.0
 11
829.59896591016229
 21
204.38879441554471
 31
0.0
  0
ARC
  5
3BA6
  8
L6
  6
CONTINUOUS
 10
830.43399743246368
 20
204.3890376518531
 30
0.0
 40
4.5001213990183153
 50
180.0030968972938
 51
270.0
  0
ARC
  5
3BA8
  8
0
  6
CONTINUOUS
 62
     7
 10
830.43383822520525
 20
204.38887844463909
 30
0.0
 40
0.834872319304649
 50
180.00576676500251
 51
270.0
  0
ARC
  5
3BAA
  8
L6
  6
CONTINUOUS
 10
830.4327482511203
 20
204.38778848035571
 30
0.0
 40
1.7639623760742129
 50
179.96697011666689
 51
270.03267439726233
  0
ARC
  5
3BB1
  8
L6
  6
CONTINUOUS
 10
830.43480751224558
 20
204.38928427216629
 30
0.0
 40
5.3009314948598361
 50
180.0052946764545
 51
229.78465194658091
  0
ARC
  5
3BB2
  8
L6
  6
CONTINUOUS
 10
826.88345664073256
 20
200.1888284766336
 30
0.0
 40
0.1999122785541999
 50
269.95511608514443
 51
49.836831072997889
  0
ARC
  5
3BC8
  8
L6
  6
CONTINUOUS
 10
821.33387604001871
 20
207.1889162594197
 30
0.0
 40
1.7194559627324779
 50
335.56169921760511
 51
358.71614348025628
  0
LINE
  5
3BC9
  8
L6
  6
CONTINUOUS
 10
824.22370875795207
 20
204.1835791665842
 30
0.0
 11
822.89928131336217
 21
206.47755479155279
 31
0.0
  0
LINE
  5
3BCA
  8
L6
  6
CONTINUOUS
 10
824.22378156779575
 20
204.183453056236
 30
0.0
 11
824.21690859753278
 21
204.17685943766489
 31
0.0
  0
ARC
  5
3BCC
  8
L6
  6
CONTINUOUS
 10
822.7338760400188
 20
218.58891625941951
 30
0.0
 40
2.4000000000008721
 50
359.99999999994782
 51
90.0
  0
ARC
  5
3BCD
  8
L6
  6
CONTINUOUS
 10
822.7338760400188
 20
218.58891625941951
 30
0.0
 40
3.2000000000004709
 50
0.0000000000390887
 51
90.0
  0
ARC
  5
3BCF
  8
L6
  6
CONTINUOUS
 10
822.7338760400188
 20
218.58891625941951
 30
0.0
 40
5.9349101298569451
 50
0.0
 51
90.0
  0
ARC
  5
3BD0
  8
0
  6
CONTINUOUS
 62
     7
 10
822.7338760400188
 20
218.58891625941951
 30
0.0
 40
6.8650898701435628
 50
0.0
 51
90.0
  0
LINE
  5
3BD1
  8
L6
  6
CONTINUOUS
 10
814.03387604001898
 20
321.4890381032954
 30
0.0
 11
814.03387604001898
 21
226.28879441554571
 31
0.0
  0
LINE
  5
3BD3
  8
L6
  6
CONTINUOUS
 10
816.76878616987551
 20
321.48903810329438
 30
0.0
 11
816.76878616815668
 21
226.28880536970911
 31
0.0
  0
LINE
  5
3BD4
  8
0
  6
CONTINUOUS
 62
     7
 10
817.69896591016231
 20
321.48903810331171
 30
0.0
 11
817.69896591016231
 21
226.28879441554449
 31
0.0
  0
LINE
  5
3BD6
  8
L6
  6
CONTINUOUS
 10
814.13387604001878
 20
204.78891625941949
 30
0.0
 11
814.13387604001878
 21
222.73815001899109
 31
0.0
  0
LINE
  5
3BDE
  8
L6
  6
CONTINUOUS
 10
821.16723050579321
 20
205.4775547915529
 30
0.0
 11
822.49165795038334
 21
203.1835791665842
 31
0.0
  0
ARC
  5
3BE0
  8
L6
  6
CONTINUOUS
 10
818.93387604001862
 20
204.78891625941961
 30
0.0
 40
4.8000000000000682
 50
180.0
 51
270.0
  0
ARC
  5
3BE1
  8
0
  6
CONTINUOUS
 62
     7
 10
818.93387604001862
 20
204.78891625941961
 30
0.0
 40
6.0000000000000142
 50
180.0
 51
270.0
  0
LINE
  5
3BEE
  8
L6
  6
CONTINUOUS
 10
818.44404332208546
 20
210.19425335225489
 30
0.0
 11
819.7684707666757
 21
207.90027772728629
 31
0.0
  0
ARC
  5
3C00
  8
L6
  6
CONTINUOUS
 10
821.33387604001871
 20
207.1889162594197
 30
0.0
 40
1.7194559627325201
 50
241.2838565197334
 51
264.43830078239517
  0
LINE
  5
3C01
  8
L6
  6
CONTINUOUS
 10
820.50772796694491
 20
205.6809347710942
 30
0.0
 11
819.61485172615528
 21
207.22744178501259
 31
0.0
  0
ARC
  5
3C02
  8
L6
  6
CONTINUOUS
 10
821.33387604001871
 20
207.1889162594197
 30
0.0
 40
1.719455962732455
 50
155.56169921760531
 51
178.71614348025631
  0
LINE
  5
3C21
  8
L6
  6
CONTINUOUS
 10
821.50052157424443
 20
208.90027772728629
 30
0.0
 11
820.17609412965442
 21
211.19425335225489
 31
0.0
  0
ARC
  5
3C22
  8
L6
  6
CONTINUOUS
 10
821.33387604001871
 20
207.1889162594197
 30
0.0
 40
1.7194559627336561
 50
61.28385651981543
 51
84.438300781976537
  0
ARC
  5
3C24
  8
L6
  6
CONTINUOUS
 10
821.33387604001871
 20
207.1889162594197
 30
0.0
 40
4.1694559627323411
 50
106.2538174138314
 51
133.74618258616971
  0
LINE
  5
3C25
  8
L6
  6
CONTINUOUS
 10
820.1668745934943
 20
211.19172410504169
 30
0.0
 11
820.17602131981096
 21
211.19437946260291
 31
0.0
  0
ARC
  5
3C2F
  8
L6
  6
CONTINUOUS
 10
818.53300154332283
 20
226.28697923311501
 30
0.0
 40
5.298063027158145
 50
220.20158076158361
 51
270.00813966141368
  0
ARC
  5
3C30
  8
L6
  6
CONTINUOUS
 10
818.53399743249815
 20
226.28903765187931
 30
0.0
 40
4.500121399052877
 50
180.00309689764561
 51
270.0
  0
ARC
  5
3C32
  8
L6
  6
CONTINUOUS
 10
818.53274825119331
 20
226.2877884803971
 30
0.0
 40
1.7639623761449119
 50
179.96697011802181
 51
270.03267604842341
  0
ARC
  5
3C35
  8
0
  6
CONTINUOUS
 62
     7
 10
818.53383822547551
 20
226.28887844487821
 30
0.0
 40
0.8348723195437454
 50
180.00576678140411
 51
270.0
  0
ARC
  5
3C38
  8
L6
  6
CONTINUOUS
 10
814.33378827656873
 20
222.738306534906
 30
0.0
 40
0.1999122978598551
 50
40.171778298706073
 51
180.04485818206149
  0
LINE
  5
3C47
  8
0
  6
CONTINUOUS
 62
     7
 10
818.93387604001862
 20
348.98891625941968
 30
0.0
 11
1147.133876040019
 21
348.98891625941968
 31
0.0
  0
LINE
  5
3E01
  8
L6
  6
CONTINUOUS
 10
826.88330003504825
 20
347.78891625941901
 30
0.0
 11
818.93387604001862
 21
347.78891625941901
 31
0.0
  0
ARC
  5
3E02
  8
L6
  6
CONTINUOUS
 10
822.7338760400188
 20
329.18891625941973
 30
0.0
 40
5.9349101298569451
 50
270.0
 51
0.0
  0
ARC
  5
3E03
  8
L6
  6
CONTINUOUS
 10
822.7338760400188
 20
329.18891625941973
 30
0.0
 40
3.2000000000004709
 50
270.0
 51
359.99999999996078
  0
ARC
  5
3E04
  8
L6
  6
CONTINUOUS
 10
822.7338760400188
 20
329.18891625941973
 30
0.0
 40
2.4000000000008721
 50
270.0
 51
0.0000000000521183
  0
LINE
  5
3E05
  8
L6
  6
CONTINUOUS
 10
824.22370875795207
 20
343.5942533522545
 30
0.0
 11
822.89928131336217
 21
341.30027772728567
 31
0.0
  0
ARC
  5
3E06
  8
L6
  6
CONTINUOUS
 10
821.33387604001871
 20
340.58891625941931
 30
0.0
 40
4.1694559627323509
 50
46.253817413829957
 51
73.746182586168572
  0
ARC
  5
3E07
  8
0
  6
CONTINUOUS
 62
     7
 10
822.7338760400188
 20
329.18891625941973
 30
0.0
 40
6.8650898701435628
 50
270.0
 51
0.0
  0
LINE
  5
3E08
  8
L6
  6
CONTINUOUS
 10
828.66878616987594
 20
329.1889162594191
 30
0.0
 11
828.66878616815711
 21
343.38902714912518
 31
0.0
  0
LINE
  5
3E09
  8
L6
  6
CONTINUOUS
 10
825.93387604001919
 20
329.18891625941728
 30
0.0
 11
825.93387604001919
 21
343.38903810329231
 31
0.0
  0
LINE
  5
3E0A
  8
L6
  6
CONTINUOUS
 10
825.13387604001957
 20
329.18891625942138
 30
0.0
 11
825.13387604001957
 21
343.3890381032968
 31
0.0
  0
LINE
  5
3E0B
  8
0
  6
CONTINUOUS
 62
     7
 10
829.59896591016229
 20
329.18891625941961
 30
0.0
 11
829.59896591016229
 21
343.38903810329413
 31
0.0
  0
ARC
  5
3E0C
  8
L6
  6
CONTINUOUS
 10
826.88345664073256
 20
347.58900404220537
 30
0.0
 40
0.1999122785541999
 50
310.16316892700212
 51
90.044883914855546
  0
ARC
  5
3E0D
  8
L6
  6
CONTINUOUS
 10
830.43480751224558
 20
343.388548246673
 30
0.0
 40
5.3009314948598361
 50
130.21534805341901
 51
179.99470532354539
  0
ARC
  5
3E0E
  8
L6
  6
CONTINUOUS
 10
830.4327482511203
 20
343.3900440384831
 30
0.0
 40
1.7639623760742129
 50
89.967325602737674
 51
180.033029883333
  0
ARC
  5
3E0F
  8
L6
  6
CONTINUOUS
 10
830.43399743246368
 20
343.38879486698619
 30
0.0
 40
4.5001213990183153
 50
90.000000000000028
 51
179.99690310270611
  0
LINE
  5
3E10
  8
L6
  6
CONTINUOUS
 10
824.22378156779575
 20
343.5943794626026
 30
0.0
 11
824.21690859753278
 21
343.60097308117361
 31
0.0
  0
ARC
  5
3E11
  8
0
  6
CONTINUOUS
 62
     7
 10
830.43383822520525
 20
343.38895407420011
 30
0.0
 40
0.834872319304649
 50
90.000000000000028
 51
179.99423323499749
  0
LINE
  5
3E12
  8
L6
  6
CONTINUOUS
 10
814.13387604001878
 20
342.98891625941928
 30
0.0
 11
814.13387604001878
 21
325.03968249984769
 31
0.0
  0
LINE
  5
3E13
  8
L6
  6
CONTINUOUS
 10
820.1668745934943
 20
336.58610841379709
 30
0.0
 11
820.17602131981096
 21
336.58345305623578
 31
0.0
  0
ARC
  5
3E14
  8
L6
  6
CONTINUOUS
 10
821.33387604001871
 20
340.58891625941931
 30
0.0
 40
4.1694559627323411
 50
226.25381741383021
 51
253.74618258616849
  0
ARC
  5
3E15
  8
L6
  6
CONTINUOUS
 10
821.33387604001871
 20
340.58891625941931
 30
0.0
 40
1.7194559627336561
 50
275.56169921802342
 51
298.71614348018448
  0
LINE
  5
3E16
  8
L6
  6
CONTINUOUS
 10
821.50052157424443
 20
338.87755479155271
 30
0.0
 11
820.17609412965442
 21
336.58357916658377
 31
0.0
  0
ARC
  5
3E17
  8
L6
  6
CONTINUOUS
 10
821.33387604001871
 20
340.58891625941931
 30
0.0
 40
1.719455962732455
 50
181.28385651974361
 51
204.43830078239461
  0
LINE
  5
3E18
  8
L6
  6
CONTINUOUS
 10
820.50772796694491
 20
342.09689774774478
 30
0.0
 11
819.61485172615528
 21
340.55039073382591
 31
0.0
  0
ARC
  5
3E19
  8
L6
  6
CONTINUOUS
 10
821.33387604001871
 20
340.58891625941931
 30
0.0
 40
1.7194559627325201
 50
95.561699217604755
 51
118.7161434802665
  0
LINE
  5
3E1A
  8
L6
  6
CONTINUOUS
 10
818.44404332208546
 20
337.58357916658389
 30
0.0
 11
819.7684707666757
 21
339.87755479155271
 31
0.0
  0
LINE
  5
3E1B
  8
L6
  6
CONTINUOUS
 10
821.16723050579321
 20
342.30027772728567
 30
0.0
 11
822.49165795038334
 21
344.59425335225461
 31
0.0
  0
ARC
  5
3E1C
  8
L6
  6
CONTINUOUS
 10
821.33387604001871
 20
340.58891625941931
 30
0.0
 40
1.7194559627324779
 50
1.283856519743622
 51
24.43830078239489
  0
LINE
  5
3E1D
  8
L6
  6
CONTINUOUS
 10
822.16002411309182
 20
339.08093477109168
 30
0.0
 11
823.05290035388225
 21
340.62744178501248
 31
0.0
  0
ARC
  5
3E1E
  8
L6
  6
CONTINUOUS
 10
818.93387604001862
 20
342.9889162594194
 30
0.0
 40
4.8000000000000682
 50
90.000000000000028
 51
180.0
  0
ARC
  5
3E1F
  8
0
  6
CONTINUOUS
 62
     7
 10
818.93387604001862
 20
342.9889162594194
 30
0.0
 40
6.0000000000000142
 50
90.000000000000028
 51
180.0
  0
LINE
  5
3E20
  8
L6
  6
CONTINUOUS
 10
818.53375419614656
 20
326.78891625941901
 30
0.0
 11
822.73387604002176
 21
326.78891625941861
 31
0.0
  0
ARC
  5
3E21
  8
L6
  6
CONTINUOUS
 10
814.33378827656873
 20
325.03952598393317
 30
0.0
 40
0.1999122978598551
 50
179.9551418179384
 51
319.8282217012939
  0
ARC
  5
3E22
  8
L6
  6
CONTINUOUS
 10
818.53274825119331
 20
321.49004403844168
 30
0.0
 40
1.7639623761449119
 50
89.967323951576617
 51
180.03302988197819
  0
ARC
  5
3E23
  8
L6
  6
CONTINUOUS
 10
818.53399743249815
 20
321.48879486695972
 30
0.0
 40
4.500121399052877
 50
90.000000000000028
 51
179.99690310235431
  0
ARC
  5
3E24
  8
L6
  6
CONTINUOUS
 10
818.53300154332283
 20
321.49085328572431
 30
0.0
 40
5.298063027158145
 50
89.991860338586235
 51
139.7984192384163
  0
LINE
  5
3E25
  8
L6
  6
CONTINUOUS
 10
818.53375419614395
 20
323.25400612956292
 30
0.0
 11
822.73387604001846
 21
323.25400612956241
 31
0.0
  0
LINE
  5
3E26
  8
L6
  6
CONTINUOUS
 10
818.53375419614179
 20
325.98891625941889
 30
0.0
 11
822.73387604001687
 21
325.98891625941889
 31
0.0
  0
ARC
  5
3E27
  8
0
  6
CONTINUOUS
 62
     7
 10
818.53383822547551
 20
321.48895407396083
 30
0.0
 40
0.8348723195437454
 50
90.000000000000028
 51
179.99423321859581
  0
LINE
  5
3E28
  8
0
  6
CONTINUOUS
 62
     7
 10
818.53375419612667
 20
322.32382638927561
 30
0.0
 11
822.7338760400188
 21
322.32382638927561
 31
0.0
  0
LINE
  5
3E29
  8
L6
  6
CONTINUOUS
 10
830.43375419614415
 20
345.1540061295625
 30
0.0
 11
973.03398692972905
 21
345.15400613128099
 31
0.0
  0
LINE
  5
3E2A
  8
L6
  6
CONTINUOUS
 10
830.43375419614119
 20
347.88891625941852
 30
0.0
 11
973.03399788389106
 21
347.88891625941852
 31
0.0
  0
LINE
  5
3E2B
  8
0
  6
CONTINUOUS
 62
     7
 10
830.43375419612721
 20
344.2238263892757
 30
0.0
 11
973.03399788389368
 21
344.2238263892757
 31
0.0
  0
LINE
  5
3E2C
  8
L6
  6
CONTINUOUS
 10
993.03375419614122
 20
347.88891625941852
 30
0.0
 11
1135.633997883891
 21
347.88891625941852
 31
0.0
  0
LINE
  5
3E2D
  8
L6
  6
CONTINUOUS
 10
993.03375419614395
 20
345.1540061295625
 30
0.0
 11
1135.6339869297281
 21
345.15400613128099
 31
0.0
  0
LINE
  5
3E2E
  8
0
  6
CONTINUOUS
 62
     7
 10
993.03375419612723
 20
344.2238263892757
 30
0.0
 11
1135.633997883893
 21
344.2238263892757
 31
0.0
  0
ARC
  5
3E2F
  8
L6
  6
CONTINUOUS
 10
993.03399743245325
 20
343.38879486698522
 30
0.0
 40
4.5001213990080826
 50
90.000000000000028
 51
179.99690310270611
  0
ARC
  5
3E30
  8
L6
  6
CONTINUOUS
 10
983.03387604001864
 20
340.58891625941931
 30
0.0
 40
8.2349101298572123
 50
180.0
 51
0.0
  0
ARC
  5
3E31
  8
0
  6
CONTINUOUS
 62
     7
 10
983.03387604001864
 20
340.58891625941931
 30
0.0
 40
9.1650898701436745
 50
180.0
 51
0.0
  0
ARC
  5
3E32
  8
L6
  6
CONTINUOUS
 10
993.03274825114215
 20
343.39004403847127
 30
0.0
 40
1.763962376093315
 50
89.967325210015503
 51
180.0330298829422
  0
LINE
  5
3E33
  8
L6
  6
CONTINUOUS
 10
991.26878616987597
 20
340.5889162594188
 30
0.0
 11
991.26878616815702
 21
343.38902714912842
 31
0.0
  0
ARC
  5
3E34
  8
0
  6
CONTINUOUS
 62
     7
 10
993.03383822534522
 20
343.3889540741219
 30
0.0
 40
0.8348723194116378
 50
90.000000000000028
 51
179.99423322963011
  0
LINE
  5
3E35
  8
0
  6
CONTINUOUS
 62
     7
 10
992.19896591016231
 20
340.58891625941919
 30
0.0
 11
992.19896591016231
 21
343.38903810329413
 31
0.0
  0
ARC
  5
3E36
  8
L6
  6
CONTINUOUS
 10
983.03387604001864
 20
340.58891625941931
 30
0.0
 40
5.5000000000006821
 50
179.99999999997391
 51
359.99999999997391
  0
ARC
  5
3E37
  8
L6
  6
CONTINUOUS
 10
993.02568470651374
 20
343.39429015259878
 30
0.0
 40
5.4901609732847678
 50
138.17192807251769
 51
165.60463408565809
  0
ARC
  5
3E38
  8
L6
  6
CONTINUOUS
 10
983.03387604001864
 20
340.58891625941931
 30
0.0
 40
1.7150925288369629
 50
301.32464691459029
 51
324.3340202512984
  0
ARC
  5
3E39
  8
L6
  6
CONTINUOUS
 10
983.03387604001864
 20
340.58891625941931
 30
0.0
 40
1.7150925288369629
 50
35.665979748700877
 51
58.675353085409292
  0
LINE
  5
3E3A
  8
L6
  6
CONTINUOUS
 10
988.53387604001955
 20
340.58891625941652
 30
0.0
 11
988.53387604001955
 21
343.38903810329128
 31
0.0
  0
ARC
  5
3E3B
  8
L6
  6
CONTINUOUS
 10
983.03387604001864
 20
340.58891625941931
 30
0.0
 40
4.1650925288369969
 50
346.30457890820742
 51
13.69542109179258
  0
ARC
  5
3E3C
  8
L6
  6
CONTINUOUS
 10
988.56237086930457
 20
347.38909707727993
 30
0.0
 40
0.4998001686066785
 50
318.15423709940512
 51
36.861168648173823
  0
ARC
  5
3E3D
  8
L6
  6
CONTINUOUS
 10
987.22376184713482
 20
344.88346121780648
 30
0.0
 40
0.4998549676000694
 50
225.69422334681289
 51
345.60567019001331
  0
LINE
  5
3E3E
  8
L6
  6
CONTINUOUS
 10
984.42726844077049
 20
341.58891625941919
 30
0.0
 11
987.07681277223435
 21
341.58891625941919
 31
0.0
  0
LINE
  5
3E3F
  8
L6
  6
CONTINUOUS
 10
987.07681277223435
 20
339.58891625941919
 30
0.0
 11
984.42726844077049
 21
339.58891625941919
 31
0.0
  0
LINE
  5
3E40
  8
L6
  6
CONTINUOUS
 10
974.79896591016211
 20
343.38903810329413
 30
0.0
 11
974.79896591016177
 21
340.58891625941959
 31
0.0
  0
ARC
  5
3E41
  8
L6
  6
CONTINUOUS
 10
973.03500381908589
 20
343.39004404831252
 30
0.0
 40
1.7639623760770811
 50
359.96732560291019
 51
90.033029883401426
  0
LINE
  5
3E42
  8
L6
  6
CONTINUOUS
 10
977.53387604001807
 20
343.3890381032968
 30
0.0
 11
977.53387604001807
 21
340.58891625942198
 31
0.0
  0
ARC
  5
3E43
  8
L6
  6
CONTINUOUS
 10
983.02838908931881
 20
340.58825734571559
 30
0.0
 40
4.1596056303253821
 50
166.080062451304
 51
193.7044971864473
  0
LINE
  5
3E44
  8
L6
  6
CONTINUOUS
 10
983.92552970844565
 20
339.12382373058222
 30
0.0
 11
982.14222237159254
 21
339.12382373058222
 31
0.0
  0
ARC
  5
3E45
  8
L6
  6
CONTINUOUS
 10
983.03387604001864
 20
340.58891625941931
 30
0.0
 40
1.7150925288369181
 50
215.66597974870149
 51
238.67535308541201
  0
LINE
  5
3E46
  8
L6
  6
CONTINUOUS
 10
981.63914065712561
 20
339.58629813262343
 30
0.0
 11
981.64048363926759
 21
339.58891625941919
 31
0.0
  0
ARC
  5
3E47
  8
L6
  6
CONTINUOUS
 10
983.03387604001864
 20
340.58891625941931
 30
0.0
 40
1.7150925288369181
 50
121.3246469145879
 51
144.3340202512984
  0
LINE
  5
3E48
  8
L6
  6
CONTINUOUS
 10
982.14222237159254
 20
342.05400878825623
 30
0.0
 11
983.92552970844565
 21
342.05400878825623
 31
0.0
  0
LINE
  5
3E49
  8
L6
  6
CONTINUOUS
 10
981.64048363926759
 20
339.58891625941919
 30
0.0
 11
978.99093930780316
 21
339.58891625941919
 31
0.0
  0
LINE
  5
3E4A
  8
L6
  6
CONTINUOUS
 10
978.99093930780316
 20
341.58891625941919
 30
0.0
 11
981.64048363926759
 21
341.58891625941919
 31
0.0
  0
ARC
  5
3E4B
  8
L6
  6
CONTINUOUS
 10
973.02870160349755
 20
343.38570738599248
 30
0.0
 40
5.50583206007762
 50
14.44867282041387
 51
41.80172392799409
  0
ARC
  5
3E4C
  8
L6
  6
CONTINUOUS
 10
977.50548635704206
 20
347.38910274161242
 30
0.0
 40
0.4999006314731912
 50
143.14827531571939
 51
221.839782157663
  0
ARC
  5
3E4D
  8
L6
  6
CONTINUOUS
 10
978.84445777129702
 20
344.8839174179401
 30
0.0
 40
0.4998550430573056
 50
194.41651754391791
 51
314.29951775769649
  0
ARC
  5
3E4E
  8
L6
  6
CONTINUOUS
 10
973.03375464757619
 20
343.38879486698107
 30
0.0
 40
4.5001213990160407
 50
0.0030968974111545
 51
90.000000000000028
  0
ARC
  5
3E4F
  8
L6
  6
CONTINUOUS
 10
983.03387604001864
 20
340.58891625941931
 30
0.0
 40
5.4999999999994298
 50
45.707869438805901
 51
134.28589440895439
  0
LINE
  5
3E50
  8
L6
  6
CONTINUOUS
 10
988.96225668620809
 20
347.6889162594191
 30
0.0
 11
977.1054707374883
 21
347.6889162594191
 31
0.0
  0
LINE
  5
3E51
  8
0
  6
CONTINUOUS
 62
     7
 10
973.86878616987531
 20
343.38903810331141
 30
0.0
 11
973.86878616987531
 21
340.58891625941919
 31
0.0
  0
ARC
  5
3E52
  8
0
  6
CONTINUOUS
 62
     7
 10
973.03391385466227
 20
343.38895407408461
 30
0.0
 40
0.8348723194412018
 50
0.0057667740956902
 51
90.000000000000028
  0
LINE
  5
3E53
  8
L6
  6
CONTINUOUS
 10
1139.184452044989
 20
199.98891625941971
 30
0.0
 11
1147.133876040019
 21
199.98891625941951
 31
0.0
  0
ARC
  5
3E54
  8
L6
  6
CONTINUOUS
 10
1143.3338760400179
 20
218.58891625941951
 30
0.0
 40
5.9349101298569451
 50
90.0
 51
180.0
  0
ARC
  5
3E55
  8
L6
  6
CONTINUOUS
 10
1143.3338760400179
 20
218.58891625941951
 30
0.0
 40
3.2000000000004709
 50
90.0
 51
179.99999999996089
  0
ARC
  5
3E56
  8
L6
  6
CONTINUOUS
 10
1143.3338760400179
 20
218.58891625941951
 30
0.0
 40
2.4000000000008721
 50
90.0
 51
180.0000000000521
  0
LINE
  5
3E57
  8
L6
  6
CONTINUOUS
 10
1141.8440433220851
 20
204.1835791665842
 30
0.0
 11
1143.168470766675
 21
206.47755479155279
 31
0.0
  0
ARC
  5
3E58
  8
L6
  6
CONTINUOUS
 10
1144.733876040018
 20
207.18891625941961
 30
0.0
 40
4.1694559627323509
 50
226.25381741382989
 51
253.74618258616849
  0
ARC
  5
3E59
  8
0
  6
CONTINUOUS
 62
     7
 10
1143.3338760400179
 20
218.58891625941951
 30
0.0
 40
6.8650898701435628
 50
90.0
 51
180.0
  0
LINE
  5
3E5A
  8
L6
  6
CONTINUOUS
 10
1137.3989659101619
 20
218.5889162594197
 30
0.0
 11
1137.3989659118799
 21
204.38880536971351
 31
0.0
  0
LINE
  5
3E5B
  8
L6
  6
CONTINUOUS
 10
1140.1338760400181
 20
218.5889162594215
 30
0.0
 11
1140.1338760400181
 21
204.3887944155465
 31
0.0
  0
LINE
  5
3E5C
  8
L6
  6
CONTINUOUS
 10
1140.933876040018
 20
218.5889162594174
 30
0.0
 11
1140.933876040018
 21
204.38879441554201
 31
0.0
  0
LINE
  5
3E5D
  8
0
  6
CONTINUOUS
 62
     7
 10
1136.4687861698751
 20
218.58891625941939
 30
0.0
 11
1136.4687861698751
 21
204.38879441554471
 31
0.0
  0
ARC
  5
3E5E
  8
L6
  6
CONTINUOUS
 10
1139.1842954393039
 20
200.1888284766336
 30
0.0
 40
0.1999122785541999
 50
130.16316892700209
 51
270.04488391485552
  0
ARC
  5
3E5F
  8
L6
  6
CONTINUOUS
 10
1135.6329445677909
 20
204.38928427216629
 30
0.0
 40
5.3009314948598361
 50
310.21534805341901
 51
359.99470532354542
  0
ARC
  5
3E60
  8
L6
  6
CONTINUOUS
 10
1135.635003828917
 20
204.3877884803556
 30
0.0
 40
1.7639623760742129
 50
269.96732560273762
 51
0.0330298833330645
  0
ARC
  5
3E61
  8
L6
  6
CONTINUOUS
 10
1135.6337546475729
 20
204.3890376518531
 30
0.0
 40
4.5001213990183153
 50
270.0
 51
359.99690310270609
  0
LINE
  5
3E62
  8
L6
  6
CONTINUOUS
 10
1141.843970512241
 20
204.183453056236
 30
0.0
 11
1141.8508434825039
 21
204.17685943766489
 31
0.0
  0
ARC
  5
3E63
  8
0
  6
CONTINUOUS
 62
     7
 10
1135.6339138548319
 20
204.38887844463909
 30
0.0
 40
0.834872319304649
 50
270.0
 51
359.99423323499741
  0
LINE
  5
3E64
  8
L6
  6
CONTINUOUS
 10
1151.933876040019
 20
204.78891625941949
 30
0.0
 11
1151.933876040019
 21
222.73815001899109
 31
0.0
  0
LINE
  5
3E65
  8
L6
  6
CONTINUOUS
 10
1145.9008774865431
 20
211.19172410504169
 30
0.0
 11
1145.891730760226
 21
211.19437946260291
 31
0.0
  0
ARC
  5
3E66
  8
L6
  6
CONTINUOUS
 10
1144.733876040018
 20
207.18891625941961
 30
0.0
 40
4.1694559627323411
 50
46.253817413830269
 51
73.746182586168572
  0
ARC
  5
3E67
  8
L6
  6
CONTINUOUS
 10
1144.733876040018
 20
207.18891625941961
 30
0.0
 40
1.7194559627336561
 50
95.561699218023463
 51
118.7161434801845
  0
LINE
  5
3E68
  8
L6
  6
CONTINUOUS
 10
1144.5672305057931
 20
208.90027772728629
 30
0.0
 11
1145.891657950383
 21
211.19425335225489
 31
0.0
  0
ARC
  5
3E69
  8
L6
  6
CONTINUOUS
 10
1144.733876040018
 20
207.18891625941961
 30
0.0
 40
1.719455962732455
 50
1.283856519743702
 51
24.438300782394649
  0
LINE
  5
3E6A
  8
L6
  6
CONTINUOUS
 10
1145.5600241130919
 20
205.6809347710942
 30
0.0
 11
1146.4529003538819
 21
207.22744178501259
 31
0.0
  0
ARC
  5
3E6B
  8
L6
  6
CONTINUOUS
 10
1144.733876040018
 20
207.18891625941961
 30
0.0
 40
1.7194559627325201
 50
275.56169921760471
 51
298.71614348026651
  0
LINE
  5
3E6C
  8
L6
  6
CONTINUOUS
 10
1147.623708757952
 20
210.19425335225489
 30
0.0
 11
1146.299281313361
 21
207.90027772728629
 31
0.0
  0
LINE
  5
3E6D
  8
L6
  6
CONTINUOUS
 10
1144.9005215742441
 20
205.4775547915529
 30
0.0
 11
1143.5760941296539
 21
203.1835791665842
 31
0.0
  0
ARC
  5
3E6E
  8
L6
  6
CONTINUOUS
 10
1144.733876040018
 20
207.18891625941961
 30
0.0
 40
1.7194559627324779
 50
181.28385651974361
 51
204.4383007823948
  0
LINE
  5
3E6F
  8
L6
  6
CONTINUOUS
 10
1143.9077279669459
 20
208.69689774774699
 30
0.0
 11
1143.014851726155
 21
207.1503907338265
 31
0.0
  0
ARC
  5
3E70
  8
L6
  6
CONTINUOUS
 10
1147.1338760400181
 20
204.78891625941949
 30
0.0
 40
4.8000000000000682
 50
270.0
 51
0.0
  0
ARC
  5
3E71
  8
0
  6
CONTINUOUS
 62
     7
 10
1147.1338760400181
 20
204.78891625941949
 30
0.0
 40
6.0000000000000142
 50
270.0
 51
0.0
  0
LINE
  5
3E72
  8
L6
  6
CONTINUOUS
 10
1147.5339978838899
 20
220.9889162594198
 30
0.0
 11
1143.3338760400161
 21
220.98891625942019
 31
0.0
  0
ARC
  5
3E73
  8
L6
  6
CONTINUOUS
 10
1151.733963803468
 20
222.738306534906
 30
0.0
 40
0.1999122978598551
 50
359.95514181793828
 51
139.8282217012939
  0
ARC
  5
3E74
  8
L6
  6
CONTINUOUS
 10
1147.5350038288441
 20
226.2877884803971
 30
0.0
 40
1.7639623761449119
 50
269.96732395157647
 51
0.0330298819781483
  0
ARC
  5
3E75
  8
L6
  6
CONTINUOUS
 10
1147.5337546475389
 20
226.28903765187931
 30
0.0
 40
4.500121399052877
 50
270.0
 51
359.99690310235428
  0
ARC
  5
3E76
  8
L6
  6
CONTINUOUS
 10
1147.534750536714
 20
226.28697923311489
 30
0.0
 40
5.298063027158145
 50
269.99186033858621
 51
319.79841923841627
  0
LINE
  5
3E77
  8
L6
  6
CONTINUOUS
 10
1147.5339978838931
 20
224.52382638927611
 30
0.0
 11
1143.333876040019
 21
224.52382638927639
 31
0.0
  0
LINE
  5
3E78
  8
L6
  6
CONTINUOUS
 10
1147.5339978838961
 20
221.78891625941989
 30
0.0
 11
1143.3338760400211
 21
221.78891625941989
 31
0.0
  0
ARC
  5
3E79
  8
0
  6
CONTINUOUS
 62
     7
 10
1147.533913854561
 20
226.28887844487809
 30
0.0
 40
0.8348723195437454
 50
270.0
 51
359.99423321859581
  0
LINE
  5
3E7A
  8
0
  6
CONTINUOUS
 62
     7
 10
1147.5339978839111
 20
225.4540061295632
 30
0.0
 11
1143.3338760400179
 21
225.4540061295632
 31
0.0
  0
ARC
  5
3E7B
  8
0
  6
CONTINUOUS
 62
     7
 10
1143.3338760400179
 20
329.18891625941961
 30
0.0
 40
6.8650898701435628
 50
180.0
 51
270.0
  0
ARC
  5
3E7C
  8
L6
  6
CONTINUOUS
 10
1144.733876040018
 20
340.58891625941931
 30
0.0
 40
4.1694559627323509
 50
106.2538174138314
 51
133.74618258616999
  0
LINE
  5
3E7D
  8
L6
  6
CONTINUOUS
 10
1141.8440433220851
 20
343.5942533522545
 30
0.0
 11
1143.168470766675
 21
341.30027772728567
 31
0.0
  0
ARC
  5
3E7E
  8
L6
  6
CONTINUOUS
 10
1143.3338760400179
 20
329.18891625941961
 30
0.0
 40
2.4000000000008721
 50
179.9999999999479
 51
270.0
  0
ARC
  5
3E7F
  8
L6
  6
CONTINUOUS
 10
1143.3338760400179
 20
329.18891625941961
 30
0.0
 40
3.2000000000004709
 50
180.00000000003899
 51
270.0
  0
ARC
  5
3E80
  8
L6
  6
CONTINUOUS
 10
1143.3338760400179
 20
329.18891625941961
 30
0.0
 40
5.9349101298569451
 50
180.0
 51
270.0
  0
LINE
  5
3E81
  8
L6
  6
CONTINUOUS
 10
1139.184452044989
 20
347.78891625941901
 30
0.0
 11
1147.133876040019
 21
347.78891625941901
 31
0.0
  0
LINE
  5
3E82
  8
0
  6
CONTINUOUS
 62
     7
 10
1136.4687861698751
 20
329.18891625941961
 30
0.0
 11
1136.4687861698751
 21
343.38903810329413
 31
0.0
  0
LINE
  5
3E83
  8
L6
  6
CONTINUOUS
 10
1140.933876040018
 20
329.18891625942138
 30
0.0
 11
1140.933876040018
 21
343.3890381032968
 31
0.0
  0
LINE
  5
3E84
  8
L6
  6
CONTINUOUS
 10
1140.1338760400181
 20
329.18891625941728
 30
0.0
 11
1140.1338760400181
 21
343.38903810329231
 31
0.0
  0
LINE
  5
3E85
  8
L6
  6
CONTINUOUS
 10
1137.3989659101619
 20
329.1889162594191
 30
0.0
 11
1137.3989659118799
 21
343.38902714912518
 31
0.0
  0
ARC
  5
3E86
  8
0
  6
CONTINUOUS
 62
     7
 10
1135.6339138548319
 20
343.38895407420011
 30
0.0
 40
0.834872319304649
 50
0.005766765002484
 51
90.0
  0
LINE
  5
3E87
  8
L6
  6
CONTINUOUS
 10
1141.843970512241
 20
343.5943794626026
 30
0.0
 11
1141.8508434825039
 21
343.60097308117361
 31
0.0
  0
ARC
  5
3E88
  8
L6
  6
CONTINUOUS
 10
1135.6337546475729
 20
343.38879486698619
 30
0.0
 40
4.5001213990183153
 50
0.0030968972938883
 51
90.0
  0
ARC
  5
3E89
  8
L6
  6
CONTINUOUS
 10
1135.635003828917
 20
343.3900440384831
 30
0.0
 40
1.7639623760742129
 50
359.96697011666691
 51
90.032674397262355
  0
ARC
  5
3E8A
  8
L6
  6
CONTINUOUS
 10
1135.6329445677909
 20
343.388548246673
 30
0.0
 40
5.3009314948598361
 50
0.0052946764545503
 51
49.78465194658088
  0
ARC
  5
3E8B
  8
L6
  6
CONTINUOUS
 10
1139.1842954393039
 20
347.58900404220537
 30
0.0
 40
0.1999122785541999
 50
89.955116085144482
 51
229.8368310729978
  0
LINE
  5
3E8C
  8
L6
  6
CONTINUOUS
 10
1144.5672305057931
 20
338.87755479155271
 30
0.0
 11
1145.891657950383
 21
336.58357916658377
 31
0.0
  0
ARC
  5
3E8D
  8
L6
  6
CONTINUOUS
 10
1144.733876040018
 20
340.58891625941931
 30
0.0
 40
4.1694559627323411
 50
286.25381741383143
 51
313.74618258616971
  0
LINE
  5
3E8E
  8
L6
  6
CONTINUOUS
 10
1151.933876040019
 20
342.98891625941928
 30
0.0
 11
1151.933876040019
 21
325.03968249984769
 31
0.0
  0
LINE
  5
3E8F
  8
0
  6
CONTINUOUS
 62
     7
 10
1147.5339978839111
 20
322.32382638927561
 30
0.0
 11
1143.3338760400179
 21
322.32382638927561
 31
0.0
  0
ARC
  5
3E90
  8
0
  6
CONTINUOUS
 62
     7
 10
1147.533913854561
 20
321.48895407396083
 30
0.0
 40
0.8348723195437454
 50
0.005766781404164
 51
90.0
  0
LINE
  5
3E91
  8
L6
  6
CONTINUOUS
 10
1147.5339978838961
 20
325.98891625941889
 30
0.0
 11
1143.3338760400211
 21
325.98891625941889
 31
0.0
  0
LINE
  5
3E92
  8
L6
  6
CONTINUOUS
 10
1147.5339978838931
 20
323.25400612956292
 30
0.0
 11
1143.333876040019
 21
323.25400612956241
 31
0.0
  0
ARC
  5
3E93
  8
L6
  6
CONTINUOUS
 10
1147.534750536714
 20
321.4908532857242
 30
0.0
 40
5.298063027158145
 50
40.201580761583671
 51
90.008139661413765
  0
ARC
  5
3E94
  8
L6
  6
CONTINUOUS
 10
1147.5337546475389
 20
321.48879486695961
 30
0.0
 40
4.500121399052877
 50
0.0030968976456069
 51
90.0
  0
ARC
  5
3E95
  8
L6
  6
CONTINUOUS
 10
1147.5350038288441
 20
321.49004403844162
 30
0.0
 40
1.7639623761449119
 50
359.96697011802178
 51
90.032676048423397
  0
ARC
  5
3E96
  8
L6
  6
CONTINUOUS
 10
1151.733963803468
 20
325.03952598393317
 30
0.0
 40
0.1999122978598551
 50
220.17177829870599
 51
0.0448581820616223
  0
LINE
  5
3E97
  8
L6
  6
CONTINUOUS
 10
1147.5339978838899
 20
326.78891625941901
 30
0.0
 11
1143.3338760400161
 21
326.78891625941861
 31
0.0
  0
LINE
  5
3E98
  8
L6
  6
CONTINUOUS
 10
1145.9008774865431
 20
336.58610841379709
 30
0.0
 11
1145.891730760226
 21
336.58345305623578
 31
0.0
  0
ARC
  5
3E99
  8
0
  6
CONTINUOUS
 62
     7
 10
1147.1338760400181
 20
342.9889162594194
 30
0.0
 40
6.0000000000000142
 50
0.0
 51
90.0
  0
ARC
  5
3E9A
  8
L6
  6
CONTINUOUS
 10
1147.1338760400181
 20
342.9889162594194
 30
0.0
 40
4.8000000000000682
 50
0.0
 51
90.0
  0
LINE
  5
3E9B
  8
L6
  6
CONTINUOUS
 10
1143.9077279669459
 20
339.08093477109168
 30
0.0
 11
1143.014851726155
 21
340.62744178501248
 31
0.0
  0
ARC
  5
3E9C
  8
L6
  6
CONTINUOUS
 10
1144.733876040018
 20
340.58891625941931
 30
0.0
 40
1.7194559627324779
 50
155.56169921760511
 51
178.71614348025631
  0
LINE
  5
3E9D
  8
L6
  6
CONTINUOUS
 10
1144.9005215742441
 20
342.30027772728567
 30
0.0
 11
1143.5760941296539
 21
344.59425335225461
 31
0.0
  0
LINE
  5
3E9E
  8
L6
  6
CONTINUOUS
 10
1147.623708757952
 20
337.58357916658389
 30
0.0
 11
1146.299281313361
 21
339.87755479155271
 31
0.0
  0
ARC
  5
3E9F
  8
L6
  6
CONTINUOUS
 10
1144.733876040018
 20
340.58891625941931
 30
0.0
 40
1.7194559627325201
 50
61.28385651973349
 51
84.438300782395245
  0
LINE
  5
3EA0
  8
L6
  6
CONTINUOUS
 10
1145.5600241130919
 20
342.09689774774478
 30
0.0
 11
1146.4529003538819
 21
340.55039073382591
 31
0.0
  0
ARC
  5
3EA1
  8
L6
  6
CONTINUOUS
 10
1144.733876040018
 20
340.58891625941931
 30
0.0
 40
1.719455962732455
 50
335.56169921760528
 51
358.71614348025628
  0
ARC
  5
3EA2
  8
L6
  6
CONTINUOUS
 10
1144.733876040018
 20
340.58891625941931
 30
0.0
 40
1.7194559627336561
 50
241.2838565198154
 51
264.43830078197652
  0
LINE
  5
3EA3
  8
L6
  6
CONTINUOUS
 10
1149.298965910162
 20
321.48903810329438
 30
0.0
 11
1149.2989659118809
 21
226.28880536970911
 31
0.0
  0
LINE
  5
3EA4
  8
L6
  6
CONTINUOUS
 10
1152.033876040018
 20
321.4890381032954
 30
0.0
 11
1152.033876040018
 21
226.28879441554571
 31
0.0
  0
LINE
  5
3EA5
  8
0
  6
CONTINUOUS
 62
     7
 10
1148.368786169875
 20
321.48903810331171
 30
0.0
 11
1148.368786169875
 21
226.28879441554449
 31
0.0
  0
LINE
  5
3EA6
  8
L6
 10
790.4212336696778
 20
273.8889162594196
 30
0.0
 11
1163.485898245968
 21
273.8889162594196
 31
0.0
  0
LINE
  5
3EA7
  8
L6
 10
983.03387604001864
 20
363.41720468270358
 30
0.0
 11
983.03387604001864
 21
189.59627064718029
 31
0.0
  0
LINE
  5
3EA8
  8
0
  6
CONTINUOUS
 62
     7
 10
1635.561272853796
 20
144.78983119610439
 30
0.0
 11
1641.561272853796
 21
144.78983119610439
 31
0.0
  0
LINE
  5
3EA9
  8
0
  6
CONTINUOUS
 62
     7
 10
1640.8909941069669
 20
106.3895875083545
 30
0.0
 11
1641.561272853796
 21
144.78983119610439
 31
0.0
  0
LINE
  5
3EAA
  8
0
  6
CONTINUOUS
 62
     7
 10
1461.461394697671
 20
146.78983119610439
 30
0.0
 11
1318.8611619640869
 21
146.78983119610439
 31
0.0
  0
LINE
  5
3EAB
  8
0
  6
CONTINUOUS
 62
     7
 10
1307.361272853796
 20
104.7898311961044
 30
0.0
 11
1635.561272853796
 21
104.7898311961044
 31
0.0
  0
LINE
  5
3EAC
  8
0
  6
CONTINUOUS
 62
     7
 10
1635.561272853796
 20
106.3895875083545
 30
0.0
 11
1307.361272853796
 21
106.3895875083545
 31
0.0
  0
LINE
  5
3EAD
  8
0
  6
CONTINUOUS
 62
     7
 10
1307.361272853796
 20
144.78983119610439
 30
0.0
 11
1635.561272853796
 21
144.78983119610439
 31
0.0
  0
LINE
  5
3EAE
  8
L1
  6
HIDDEN
 62
     1
 10
1621.761272853797
 20
108.2898311961044
 30
0.0
 11
1329.4914007069849
 21
108.2898311961044
 31
0.0
  0
LINE
  5
3EAF
  8
L1
  6
HIDDEN
 62
     1
 10
1329.0914616289219
 20
108.2898311961044
 30
0.0
 11
1321.1612728537959
 21
108.2898311961044
 31
0.0
  0
LINE
  5
3EB0
  8
L1
  6
HIDDEN
 62
     1
 10
1306.7915225508591
 20
108.68285023352929
 30
0.0
 11
1306.1612728537959
 21
144.78983119610439
 31
0.0
  0
LINE
  5
3EB1
  8
L1
  6
HIDDEN
 62
     1
 10
1318.79219429712
 20
108.68285023352929
 30
0.0
 11
1318.1619446000559
 21
144.78983119610439
 31
0.0
  0
LINE
  5
3EB2
  8
0
  6
CONTINUOUS
 62
     7
 10
1302.031551600626
 20
106.3895875083545
 30
0.0
 11
1301.361272853796
 21
144.78983119610439
 31
0.0
  0
LINE
  5
3EB3
  8
0
  6
CONTINUOUS
 62
     7
 10
1317.0961829836531
 20
146.78983119610439
 30
0.0
 11
1311.1612728537971
 21
146.78983119610439
 31
0.0
  0
LINE
  5
3EB4
  8
0
  6
CONTINUOUS
 62
     7
 10
1305.196182983653
 20
146.78983119610439
 30
0.0
 11
1305.1612728537971
 21
144.78983119610439
 31
0.0
  0
LINE
  5
3EB5
  8
0
  6
CONTINUOUS
 62
     7
 10
1311.1612728537971
 20
146.78983119610439
 30
0.0
 11
1306.9611619640859
 21
146.78983119610439
 31
0.0
  0
LINE
  5
3EB6
  8
0
  6
CONTINUOUS
 62
     7
 10
1306.9611619640871
 20
146.78983119610439
 30
0.0
 11
1305.1961829854911
 21
146.78983119610439
 31
0.0
  0
LINE
  5
3EB7
  8
0
  6
CONTINUOUS
 62
     7
 10
1301.361272853796
 20
144.78983119610439
 30
0.0
 11
1307.361272853796
 21
144.78983119610439
 31
0.0
  0
LINE
  5
3EB8
  8
0
  6
CONTINUOUS
 62
     7
 10
1317.0961829836531
 20
146.78983119610439
 30
0.0
 11
1317.0612728537969
 21
144.78983119610439
 31
0.0
  0
LINE
  5
3EB9
  8
0
  6
CONTINUOUS
 62
     7
 10
1318.861161964086
 20
146.78983119610439
 30
0.0
 11
1317.0961829836531
 21
146.78983119610439
 31
0.0
  0
LINE
  5
3EBA
  8
L1
  6
HIDDEN
 62
     1
 10
1321.1612728537959
 20
108.2898311961044
 30
0.0
 11
1307.591400706985
 21
108.2898311961044
 31
0.0
  0
ARC
  5
3EBB
  8
L1
  6
HIDDEN
 62
     1
 10
1307.1914616289221
 20
108.68983119610439
 30
0.0
 40
0.4000000000000341
 50
181.00000000037619
 51
270.0
  0
LINE
  5
3EBC
  8
L1
  6
HIDDEN
 62
     1
 10
1307.591400706985
 20
108.2898311961044
 30
0.0
 11
1307.1914616289221
 21
108.2898311961044
 31
0.0
  0
LINE
  5
3EBD
  8
0
  6
CONTINUOUS
 62
     7
 10
1302.031551600626
 20
106.3895875083545
 30
0.0
 11
1303.688147756638
 21
104.7898311961044
 31
0.0
  0
LINE
  5
3EBE
  8
0
  6
CONTINUOUS
 62
     7
 10
1303.688147756638
 20
104.7898311961044
 30
0.0
 11
1307.361272853796
 21
104.7898311961044
 31
0.0
  0
LINE
  5
3EBF
  8
0
  6
CONTINUOUS
 62
     7
 10
1307.361272853796
 20
106.3895875083545
 30
0.0
 11
1302.031551600626
 21
106.3895875083545
 31
0.0
  0
ARC
  5
3EC0
  8
L1
  6
HIDDEN
 62
     1
 10
1319.1921333751829
 20
108.68983119610439
 30
0.0
 40
0.4000000000000341
 50
181.00000000025901
 51
270.0
  0
LINE
  5
3EC1
  8
L1
  6
HIDDEN
 62
     1
 10
1319.592072453245
 20
108.2898311961044
 30
0.0
 11
1319.1921333751829
 21
108.2898311961044
 31
0.0
  0
LINE
  5
3EC2
  8
0
  6
CONTINUOUS
 62
     7
 10
1624.0613946976721
 20
146.78983119610439
 30
0.0
 11
1481.4611619640859
 21
146.78983119610439
 31
0.0
  0
LINE
  5
3EC3
  8
L6
 10
1471.461272853797
 20
69.39737713695564
 30
0.0
 11
1471.461272853797
 21
168.11456226613609
 31
0.0
  0
LINE
  5
3EC4
  8
L1
  6
HIDDEN
 62
     1
 10
1461.530351410473
 20
108.68285023352929
 30
0.0
 11
1462.160601107536
 21
144.78983119610439
 31
0.0
  0
LINE
  5
3EC5
  8
L1
  6
HIDDEN
 62
     1
 10
1481.3921942971201
 20
108.68285023352929
 30
0.0
 11
1480.761944600056
 21
144.78983119610439
 31
0.0
  0
LINE
  5
3EC6
  8
0
  6
CONTINUOUS
 62
     7
 10
1479.696182983653
 20
146.78983119610439
 30
0.0
 11
1463.226362723939
 21
146.78983119610439
 31
0.0
  0
LINE
  5
3EC7
  8
0
  6
CONTINUOUS
 62
     7
 10
1463.226362723939
 20
146.78983119610439
 30
0.0
 11
1463.2612728537961
 21
144.78983119610439
 31
0.0
  0
LINE
  5
3EC8
  8
0
  6
CONTINUOUS
 62
     7
 10
1463.226362723939
 20
146.78983119610439
 30
0.0
 11
1461.461394697671
 21
146.78983119610439
 31
0.0
  0
LINE
  5
3EC9
  8
0
  6
CONTINUOUS
 62
     7
 10
1479.696182983653
 20
146.78983119610439
 30
0.0
 11
1479.6612728537971
 21
144.78983119610439
 31
0.0
  0
LINE
  5
3ECA
  8
0
  6
CONTINUOUS
 62
     7
 10
1481.4611619640859
 20
146.78983119610439
 30
0.0
 11
1479.696182983653
 21
146.78983119610439
 31
0.0
  0
ARC
  5
3ECB
  8
L1
  6
HIDDEN
 62
     1
 10
1461.1304123324101
 20
108.68983119610439
 30
0.0
 40
0.4000000000000341
 50
270.0
 51
358.99999999974091
  0
LINE
  5
3ECC
  8
L1
  6
HIDDEN
 62
     1
 10
1460.730473254348
 20
108.2898311961044
 30
0.0
 11
1461.1304123324101
 21
108.2898311961044
 31
0.0
  0
LINE
  5
3ECD
  8
L1
  6
HIDDEN
 62
     1
 10
1482.1920724532449
 20
108.2898311961044
 30
0.0
 11
1481.7921333751819
 21
108.2898311961044
 31
0.0
  0
ARC
  5
3ECE
  8
L1
  6
HIDDEN
 62
     1
 10
1481.7921333751819
 20
108.68983119610439
 30
0.0
 40
0.4000000000000341
 50
181.00000000025901
 51
270.0
  0
LINE
  5
3ECF
  8
L1
  6
HIDDEN
 62
     1
 10
1624.1303514104729
 20
108.68285023352929
 30
0.0
 11
1624.760601107537
 21
144.78983119610439
 31
0.0
  0
LINE
  5
3ED0
  8
L1
  6
HIDDEN
 62
     1
 10
1636.1310231567329
 20
108.68285023352929
 30
0.0
 11
1636.761272853797
 21
144.78983119610439
 31
0.0
  0
LINE
  5
3ED1
  8
0
  6
CONTINUOUS
 62
     7
 10
1625.8263627239389
 20
146.78983119610439
 30
0.0
 11
1624.0613946976709
 21
146.78983119610439
 31
0.0
  0
LINE
  5
3ED2
  8
0
  6
CONTINUOUS
 62
     7
 10
1637.7263627256591
 20
146.78983119610439
 30
0.0
 11
1637.7612728537961
 21
144.78983119610439
 31
0.0
  0
LINE
  5
3ED3
  8
0
  6
CONTINUOUS
 62
     7
 10
1635.961394697671
 20
146.78983119610439
 30
0.0
 11
1631.761272853797
 21
146.78983119610439
 31
0.0
  0
LINE
  5
3ED4
  8
0
  6
CONTINUOUS
 62
     7
 10
1637.7263627256591
 20
146.78983119610439
 30
0.0
 11
1635.961394697671
 21
146.78983119610439
 31
0.0
  0
LINE
  5
3ED5
  8
0
  6
CONTINUOUS
 62
     7
 10
1625.8263627239389
 20
146.78983119610439
 30
0.0
 11
1625.861272853796
 21
144.78983119610439
 31
0.0
  0
LINE
  5
3ED6
  8
0
  6
CONTINUOUS
 62
     7
 10
1631.761272853797
 20
146.78983119610439
 30
0.0
 11
1625.8263627239389
 21
146.78983119610439
 31
0.0
  0
LINE
  5
3ED7
  8
L1
  6
HIDDEN
 62
     1
 10
1621.761272853797
 20
108.2898311961044
 30
0.0
 11
1635.3311450006081
 21
108.2898311961044
 31
0.0
  0
LINE
  5
3ED8
  8
L1
  6
HIDDEN
 62
     1
 10
1623.3304732543479
 20
108.2898311961044
 30
0.0
 11
1623.73041233241
 21
108.2898311961044
 31
0.0
  0
ARC
  5
3ED9
  8
L1
  6
HIDDEN
 62
     1
 10
1623.73041233241
 20
108.68983119610439
 30
0.0
 40
0.4000000000000341
 50
270.0
 51
358.99999999974091
  0
LINE
  5
3EDA
  8
0
  6
CONTINUOUS
 62
     7
 10
1635.561272853796
 20
104.7898311961044
 30
0.0
 11
1639.234397950954
 21
104.7898311961044
 31
0.0
  0
LINE
  5
3EDB
  8
0
  6
CONTINUOUS
 62
     7
 10
1640.8909941069669
 20
106.3895875083545
 30
0.0
 11
1635.561272853796
 21
106.3895875083545
 31
0.0
  0
LINE
  5
3EDC
  8
0
  6
CONTINUOUS
 62
     7
 10
1640.8909941069669
 20
106.3895875083545
 30
0.0
 11
1639.234397950954
 21
104.7898311961044
 31
0.0
  0
LINE
  5
3EDD
  8
L1
  6
HIDDEN
 62
     1
 10
1635.3311450006081
 20
108.2898311961044
 30
0.0
 11
1635.7310840786711
 21
108.2898311961044
 31
0.0
  0
ARC
  5
3EDE
  8
L1
  6
HIDDEN
 62
     1
 10
1635.7310840786711
 20
108.68983119610439
 30
0.0
 40
0.4000000000000341
 50
270.0
 51
358.9999999996237
  0
LINE
  5
3EDF
  8
0
  6
CONTINUOUS
 62
     7
 10
1695.4408414167051
 20
321.48903810329472
 30
0.0
 11
1695.4408414167051
 21
226.28880536970931
 31
0.0
  0
LINE
  5
3EE0
  8
L1
  6
HIDDEN
 62
     1
 10
1733.9408414167051
 20
320.85878840623081
 30
0.0
 11
1733.9408414167051
 21
226.91904411260839
 31
0.0
  0
LINE
  5
3EE1
  8
0
  6
CONTINUOUS
 62
     7
 10
1735.841085104455
 20
348.31863751259061
 30
0.0
 11
1735.841085104455
 21
204.78891625941969
 31
0.0
  0
LINE
  5
3EE2
  8
0
  6
CONTINUOUS
 62
     7
 10
1737.4408414167051
 20
204.78891625941969
 30
0.0
 11
1737.4408414167051
 21
346.6620413565779
 31
0.0
  0
LINE
  5
3EE3
  8
0
  6
CONTINUOUS
 62
     7
 10
1697.4408414167051
 20
204.78891625941969
 30
0.0
 11
1697.4408414167051
 21
342.98891625941951
 31
0.0
  0
LINE
  5
3EE4
  8
L6
 10
1755.6942596172139
 20
273.8889162594196
 30
0.0
 11
1673.0947181605129
 21
273.8889162594196
 31
0.0
  0
LINE
  5
3EE5
  8
L1
  6
HIDDEN
 62
     1
 10
1733.54782237928
 20
204.21916595648329
 30
0.0
 11
1697.4408414167051
 21
203.58891625941939
 31
0.0
  0
LINE
  5
3EE6
  8
L1
  6
HIDDEN
 62
     1
 10
1733.54782237928
 20
226.1191659564829
 30
0.0
 11
1697.4408414167051
 21
225.48891625941951
 31
0.0
  0
LINE
  5
3EE7
  8
0
  6
CONTINUOUS
 62
     7
 10
1735.841085104455
 20
199.45919500624859
 30
0.0
 11
1697.4408414167051
 21
198.78891625941969
 31
0.0
  0
LINE
  5
3EE8
  8
L1
  6
HIDDEN
 62
     1
 10
1733.9408414167051
 20
226.51910503454559
 30
0.0
 11
1733.9408414167051
 21
218.58891625941939
 31
0.0
  0
ARC
  5
3EE9
  8
L1
  6
HIDDEN
 62
     1
 10
1733.540841416705
 20
204.6191050345457
 30
0.0
 40
0.4000000000000341
 50
271.00000000037608
 51
0.000000000000007
  0
LINE
  5
3EEA
  8
L1
  6
HIDDEN
 62
     1
 10
1733.9408414167051
 20
205.0190441126083
 30
0.0
 11
1733.9408414167051
 21
204.61910503454561
 31
0.0
  0
LINE
  5
3EEB
  8
L1
  6
HIDDEN
 62
     1
 10
1733.9408414167051
 20
218.58891625941939
 30
0.0
 11
1733.9408414167051
 21
205.0190441126083
 31
0.0
  0
LINE
  5
3EEC
  8
0
  6
CONTINUOUS
 62
     7
 10
1735.841085104455
 20
199.45919500624859
 30
0.0
 11
1737.4408414167051
 21
201.1157911622613
 31
0.0
  0
LINE
  5
3EED
  8
0
  6
CONTINUOUS
 62
     7
 10
1737.4408414167051
 20
201.1157911622613
 30
0.0
 11
1737.4408414167051
 21
204.78891625941969
 31
0.0
  0
LINE
  5
3EEE
  8
0
  6
CONTINUOUS
 62
     7
 10
1735.841085104455
 20
204.78891625941969
 30
0.0
 11
1735.841085104455
 21
199.45919500624859
 31
0.0
  0
ARC
  5
3EEF
  8
L1
  6
HIDDEN
 62
     1
 10
1733.540841416705
 20
226.51910503454579
 30
0.0
 40
0.4000000000000341
 50
271.00000000025898
 51
0.000000000000007
  0
LINE
  5
3EF0
  8
L1
  6
HIDDEN
 62
     1
 10
1733.9408414167051
 20
226.91904411260839
 30
0.0
 11
1733.9408414167051
 21
226.51910503454559
 31
0.0
  0
LINE
  5
3EF1
  8
0
  6
CONTINUOUS
 62
     7
 10
1695.4408414167051
 20
224.52382638927659
 30
0.0
 11
1695.4408414167051
 21
218.5889162594199
 31
0.0
  0
LINE
  5
3EF2
  8
0
  6
HIDDEN
 62
     7
 10
1695.4408414167051
 20
203.55400612956331
 30
0.0
 11
1697.4408414167051
 21
203.58891625941939
 31
0.0
  0
LINE
  5
3EF3
  8
0
  6
CONTINUOUS
 62
     7
 10
1695.4408414167051
 20
202.62382638927599
 30
0.0
 11
1697.4408414167051
 21
202.5889162594199
 31
0.0
  0
LINE
  5
3EF4
  8
0
  6
CONTINUOUS
 62
     7
 10
1697.4408414167051
 20
198.78891625941969
 30
0.0
 11
1697.4408414167051
 21
204.78891625941969
 31
0.0
  0
LINE
  5
3EF5
  8
0
  6
CONTINUOUS
 62
     7
 10
1695.4408414167051
 20
218.5889162594199
 30
0.0
 11
1695.4408414167051
 21
204.38880536971371
 31
0.0
  0
LINE
  5
3EF6
  8
0
  6
CONTINUOUS
 62
     7
 10
1695.4408414167051
 20
204.38880536971061
 30
0.0
 11
1695.4408414167051
 21
202.62382639111459
 31
0.0
  0
LINE
  5
3EF7
  8
0
  6
HIDDEN
 62
     7
 10
1695.4408414167051
 20
225.45400612956291
 30
0.0
 11
1697.4408414167051
 21
225.48891625941951
 31
0.0
  0
LINE
  5
3EF8
  8
0
  6
CONTINUOUS
 62
     7
 10
1695.4408414167051
 20
224.52382638927659
 30
0.0
 11
1697.4408414167051
 21
224.48891625941951
 31
0.0
  0
LINE
  5
3EF9
  8
0
  6
CONTINUOUS
 62
     7
 10
1695.4408414167051
 20
226.28880536971019
 30
0.0
 11
1695.4408414167051
 21
224.52382638927659
 31
0.0
  0
LINE
  5
3EFA
  8
L1
  6
HIDDEN
 62
     1
 10
1733.54782237928
 20
321.6586665623563
 30
0.0
 11
1697.4408414167051
 21
322.28891625941969
 31
0.0
  0
LINE
  5
3EFB
  8
L1
  6
HIDDEN
 62
     1
 10
1733.54782237928
 20
343.558666562356
 30
0.0
 11
1697.4408414167051
 21
344.18891625941978
 31
0.0
  0
LINE
  5
3EFC
  8
0
  6
CONTINUOUS
 62
     7
 10
1735.841085104455
 20
348.31863751259061
 30
0.0
 11
1697.4408414167051
 21
348.98891625941951
 31
0.0
  0
LINE
  5
3EFD
  8
L1
  6
HIDDEN
 62
     1
 10
1733.9408414167051
 20
342.75878840623091
 30
0.0
 11
1733.9408414167051
 21
343.15872748429371
 31
0.0
  0
ARC
  5
3EFE
  8
L1
  6
HIDDEN
 62
     1
 10
1733.540841416705
 20
343.15872748429382
 30
0.0
 40
0.4000000000000341
 50
0.000000000000007
 51
88.999999999623753
  0
LINE
  5
3EFF
  8
0
  6
CONTINUOUS
 62
     7
 10
1735.841085104455
 20
348.31863751259061
 30
0.0
 11
1737.4408414167051
 21
346.6620413565779
 31
0.0
  0
LINE
  5
3F00
  8
L1
  6
HIDDEN
 62
     1
 10
1733.9408414167051
 20
321.25872748429362
 30
0.0
 11
1733.9408414167051
 21
329.18891625941978
 31
0.0
  0
LINE
  5
3F01
  8
L1
  6
HIDDEN
 62
     1
 10
1733.9408414167051
 20
320.85878840623081
 30
0.0
 11
1733.9408414167051
 21
321.25872748429362
 31
0.0
  0
ARC
  5
3F02
  8
L1
  6
HIDDEN
 62
     1
 10
1733.540841416705
 20
321.25872748429367
 30
0.0
 40
0.4000000000000341
 50
0.000000000000007
 51
88.999999999740993
  0
LINE
  5
3F03
  8
L1
  6
HIDDEN
 62
     1
 10
1733.9408414167051
 20
329.18891625941978
 30
0.0
 11
1733.9408414167051
 21
342.75878840623091
 31
0.0
  0
LINE
  5
3F04
  8
0
  6
CONTINUOUS
 62
     7
 10
1695.4408414167051
 20
323.25400612956258
 30
0.0
 11
1697.4408414167051
 21
323.28891625941969
 31
0.0
  0
LINE
  5
3F05
  8
0
  6
HIDDEN
 62
     7
 10
1695.4408414167051
 20
322.32382638927629
 30
0.0
 11
1697.4408414167051
 21
322.28891625941969
 31
0.0
  0
LINE
  5
3F06
  8
0
  6
HIDDEN
 62
     7
 10
1695.4408414167051
 20
344.22382638927593
 30
0.0
 11
1697.4408414167051
 21
344.18891625941978
 31
0.0
  0
LINE
  5
3F07
  8
0
  6
CONTINUOUS
 62
     7
 10
1695.4408414167051
 20
345.15400612956319
 30
0.0
 11
1697.4408414167051
 21
345.18891625941939
 31
0.0
  0
LINE
  5
3F08
  8
0
  6
CONTINUOUS
 62
     7
 10
1697.4408414167051
 20
348.98891625941951
 30
0.0
 11
1697.4408414167051
 21
342.98891625941951
 31
0.0
  0
LINE
  5
3F09
  8
0
  6
CONTINUOUS
 62
     7
 10
1695.4408414167051
 20
343.38902714912871
 30
0.0
 11
1695.4408414167051
 21
345.15400612772459
 31
0.0
  0
LINE
  5
3F0A
  8
0
  6
CONTINUOUS
 62
     7
 10
1695.4408414167051
 20
323.25400612956258
 30
0.0
 11
1695.4408414167051
 21
329.18891625941927
 31
0.0
  0
LINE
  5
3F0B
  8
0
  6
CONTINUOUS
 62
     7
 10
1695.4408414167051
 20
321.48902714912902
 30
0.0
 11
1695.4408414167051
 21
323.25400612956258
 31
0.0
  0
LINE
  5
3F0C
  8
0
  6
CONTINUOUS
 62
     7
 10
1695.4408414167051
 20
329.18891625941927
 30
0.0
 11
1695.4408414167051
 21
343.38902714912552
 31
0.0
  0
ENDSEC
  0
EOF
