  0
SECTION
  2
HEADER
  9
$ACADVER
  1
AC1014
  9
$ACADMAINTVER
 70
     9
  9
$DWGCODEPAGE
  3
ANSI_1252
  9
$INSBASE
 10
0.0
 20
0.0
 30
0.0
  9
$EXTMIN
 10
0.0
 20
0.0
 30
0.0
  9
$EXTMAX
 10
2100.0
 20
1485.0
 30
0.0
  9
$LIMMIN
 10
0.0
 20
0.0
  9
$LIMMAX
 10
2100.0
 20
1485.0
  9
$ORTHOMODE
 70
     0
  9
$REGENMODE
 70
     1
  9
$FILLMODE
 70
     1
  9
$QTEXTMODE
 70
     0
  9
$MIRRTEXT
 70
     1
  9
$DRAGMODE
 70
     2
  9
$LTSCALE
 40
1.0
  9
$OSMODE
 70
    37
  9
$ATTMODE
 70
     1
  9
$TEXTSIZE
 40
17.5
  9
$TRACEWID
 40
1.0
  9
$TEXTSTYLE
  7
STANDARD
  9
$CLAYER
  8
0
  9
$CELTYPE
  6
BYLAYER
  9
$CECOLOR
 62
   256
  9
$CELTSCALE
 40
1.0
  9
$DELOBJ
 70
     1
  9
$DISPSILH
 70
     0
  9
$DIMSCALE
 40
1.0
  9
$DIMASZ
 40
30.0
  9
$DIMEXO
 40
5.0
  9
$DIMDLI
 40
3.75
  9
$DIMRND
 40
0.0
  9
$DIMDLE
 40
0.0
  9
$DIMEXE
 40
5.0
  9
$DIMTP
 40
0.0
  9
$DIMTM
 40
0.0
  9
$DIMTXT
 40
17.5
  9
$DIMCEN
 40
2.5
  9
$DIMTSZ
 40
0.0
  9
$DIMTOL
 70
     0
  9
$DIMLIM
 70
     0
  9
$DIMTIH
 70
     1
  9
$DIMTOH
 70
     1
  9
$DIMSE1
 70
     0
  9
$DIMSE2
 70
     0
  9
$DIMTAD
 70
     1
  9
$DIMZIN
 70
     0
  9
$DIMBLK
  1

  9
$DIMASO
 70
     1
  9
$DIMSHO
 70
     1
  9
$DIMPOST
  1

  9
$DIMAPOST
  1

  9
$DIMALT
 70
     0
  9
$DIMALTD
 70
     3
  9
$DIMALTF
 40
0.0393700787
  9
$DIMLFAC
 40
1.0
  9
$DIMTOFL
 70
     1
  9
$DIMTVP
 40
0.0
  9
$DIMTIX
 70
     0
  9
$DIMSOXD
 70
     0
  9
$DIMSAH
 70
     0
  9
$DIMBLK1
  1

  9
$DIMBLK2
  1

  9
$DIMSTYLE
  2
ISO-25
  9
$DIMCLRD
 70
     0
  9
$DIMCLRE
 70
     0
  9
$DIMCLRT
 70
     0
  9
$DIMTFAC
 40
1.0
  9
$DIMGAP
 40
7.62
  9
$DIMJUST
 70
     0
  9
$DIMSD1
 70
     0
  9
$DIMSD2
 70
     0
  9
$DIMTOLJ
 70
     0
  9
$DIMTZIN
 70
     0
  9
$DIMALTZ
 70
     0
  9
$DIMALTTZ
 70
     0
  9
$DIMFIT
 70
     3
  9
$DIMUPT
 70
     0
  9
$DIMUNIT
 70
     2
  9
$DIMDEC
 70
     2
  9
$DIMTDEC
 70
     2
  9
$DIMALTU
 70
     2
  9
$DIMALTTD
 70
     3
  9
$DIMTXSTY
  7
STANDARD
  9
$DIMAUNIT
 70
     0
  9
$LUNITS
 70
     2
  9
$LUPREC
 70
     2
  9
$SKETCHINC
 40
1.0
  9
$FILLETRAD
 40
10.0
  9
$AUNITS
 70
     0
  9
$AUPREC
 70
     0
  9
$MENU
  1
.
  9
$ELEVATION
 40
0.0
  9
$PELEVATION
 40
0.0
  9
$THICKNESS
 40
0.0
  9
$LIMCHECK
 70
     0
  9
$CHAMFERA
 40
10.0
  9
$CHAMFERB
 40
10.0
  9
$CHAMFERC
 40
20.0
  9
$CHAMFERD
 40
0.0
  9
$SKPOLY
 70
     0
  9
$TDCREATE
 40
2455014.560359641
  9
$TDUPDATE
 40
2455014.560359653
  9
$TDINDWG
 40
0.0000000116
  9
$TDUSRTIMER
 40
0.0000000116
  9
$USRTIMER
 70
     1
  9
$ANGBASE
 50
0.0
  9
$ANGDIR
 70
     0
  9
$PDMODE
 70
     0
  9
$PDSIZE
 40
-1.0
  9
$PLINEWID
 40
0.0
  9
$COORDS
 70
     1
  9
$SPLFRAME
 70
     0
  9
$SPLINETYPE
 70
     6
  9
$SPLINESEGS
 70
     8
  9
$ATTDIA
 70
     0
  9
$ATTREQ
 70
     1
  9
$HANDLING
 70
     1
  9
$HANDSEED
  5
35D
  9
$SURFTAB1
 70
     6
  9
$SURFTAB2
 70
     6
  9
$SURFTYPE
 70
     6
  9
$SURFU
 70
     6
  9
$SURFV
 70
     6
  9
$UCSNAME
  2

  9
$UCSORG
 10
0.0
 20
0.0
 30
0.0
  9
$UCSXDIR
 10
1.0
 20
0.0
 30
0.0
  9
$UCSYDIR
 10
0.0
 20
1.0
 30
0.0
  9
$PUCSNAME
  2

  9
$PUCSORG
 10
0.0
 20
0.0
 30
0.0
  9
$PUCSXDIR
 10
1.0
 20
0.0
 30
0.0
  9
$PUCSYDIR
 10
0.0
 20
1.0
 30
0.0
  9
$USERI1
 70
     0
  9
$USERI2
 70
     0
  9
$USERI3
 70
     0
  9
$USERI4
 70
     0
  9
$USERI5
 70
     0
  9
$USERR1
 40
0.0
  9
$USERR2
 40
0.0
  9
$USERR3
 40
0.0
  9
$USERR4
 40
0.0
  9
$USERR5
 40
0.0
  9
$WORLDVIEW
 70
     1
  9
$SHADEDGE
 70
     3
  9
$SHADEDIF
 70
    70
  9
$TILEMODE
 70
     1
  9
$MAXACTVP
 70
    64
  9
$PINSBASE
 10
0.0
 20
0.0
 30
0.0
  9
$PLIMCHECK
 70
     0
  9
$PEXTMIN
 10
1.0000000000E+20
 20
1.0000000000E+20
 30
1.0000000000E+20
  9
$PEXTMAX
 10
-1.0000000000E+20
 20
-1.0000000000E+20
 30
-1.0000000000E+20
  9
$PLIMMIN
 10
0.0
 20
0.0
  9
$PLIMMAX
 10
420.0
 20
297.0
  9
$UNITMODE
 70
     0
  9
$VISRETAIN
 70
     1
  9
$PLINEGEN
 70
     0
  9
$PSLTSCALE
 70
     1
  9
$TREEDEPTH
 70
  3020
  9
$PICKSTYLE
 70
     1
  9
$CMLSTYLE
  2
STANDARD
  9
$CMLJUST
 70
     0
  9
$CMLSCALE
 40
20.0
  9
$PROXYGRAPHICS
 70
     1
  9
$MEASUREMENT
 70
     1
  0
ENDSEC
  0
SECTION
  2
CLASSES
  0
CLASS
  1
ACDBDICTIONARYWDFLT
  2
AcDbDictionaryWithDefault
  3
ObjectDBX Classes
 90
        0
280
     0
281
     0
  0
CLASS
  1
VISUALSTYLE
  2
AcDbVisualStyle
  3
ObjectDBX Classes
 90
     4095
280
     0
281
     0
  0
CLASS
  1
SCALE
  2
AcDbScale
  3
ObjectDBX Classes
 90
     1153
280
     0
281
     0
  0
CLASS
  1
DICTIONARYVAR
  2
AcDbDictionaryVar
  3
ObjectDBX Classes
 90
        0
280
     0
281
     0
  0
CLASS
  1
XRECORD
  2
AcDbXrecord
  3
AutoCAD 2000
 90
        0
280
     0
281
     0
  0
CLASS
  1
LWPOLYLINE
  2
AcDbPolyline
  3
AutoCAD 2000
 90
        0
280
     0
281
     1
  0
CLASS
  1
HATCH
  2
AcDbHatch
  3
AutoCAD 2000
 90
        0
280
     0
281
     1
  0
CLASS
  1
ACDBPLACEHOLDER
  2
AcDbPlaceHolder
  3
ObjectDBX Classes
 90
        0
280
     0
281
     0
  0
CLASS
  1
LAYOUT
  2
AcDbLayout
  3
ObjectDBX Classes
 90
        0
280
     0
281
     0
  0
ENDSEC
  0
SECTION
  2
TABLES
  0
TABLE
  2
VPORT
  5
8
330
0
100
AcDbSymbolTable
 70
     1
  0
VPORT
  5
29
330
8
100
AcDbSymbolTableRecord
100
AcDbViewportTableRecord
  2
*ACTIVE
 70
     0
 10
0.0
 20
0.0
 11
1.0
 21
1.0
 12
1050.0
 22
742.5
 13
0.0
 23
0.0
 14
10.0
 24
10.0
 15
10.0
 25
10.0
 16
0.0
 26
0.0
 36
1.0
 17
0.0
 27
0.0
 37
0.0
 40
1485.0
 41
1.4141414141
 42
50.0
 43
0.0
 44
0.0
 50
0.0
 51
0.0
 71
     0
 72
  2000
 73
     1
 74
     3
 75
     0
 76
     0
 77
     0
 78
     0
  0
ENDTAB
  0
TABLE
  2
LTYPE
  5
5
330
0
100
AcDbSymbolTable
 70
     6
  0
LTYPE
  5
14
330
5
100
AcDbSymbolTableRecord
100
AcDbLinetypeTableRecord
  2
BYBLOCK
 70
     0
  3

 72
    65
 73
     0
 40
0.0
  0
LTYPE
  5
15
330
5
100
AcDbSymbolTableRecord
100
AcDbLinetypeTableRecord
  2
BYLAYER
 70
     0
  3

 72
    65
 73
     0
 40
0.0
  0
LTYPE
  5
16
330
5
100
AcDbSymbolTableRecord
100
AcDbLinetypeTableRecord
  2
CONTINUOUS
 70
     0
  3
Solid line
 72
    65
 73
     0
 40
0.0
  0
LTYPE
  5
5D
330
5
100
AcDbSymbolTableRecord
100
AcDbLinetypeTableRecord
  2
HIDDEN
 70
     0
  3
Hidden __ __ __ __ __ __ __ __ __ __ __ __ __ __
 72
    65
 73
     2
 40
1.905
 49
1.27
 74
     0
 49
-0.635
 74
     0
  0
LTYPE
  5
5E
330
5
100
AcDbSymbolTableRecord
100
AcDbLinetypeTableRecord
  2
PHANTOM
 70
     0
  3
Phantom ______  __  __  ______  __  __  ______
 72
    65
 73
     6
 40
12.7
 49
6.35
 74
     0
 49
-1.27
 74
     0
 49
1.27
 74
     0
 49
-1.27
 74
     0
 49
1.27
 74
     0
 49
-1.27
 74
     0
  0
LTYPE
  5
5F
330
5
100
AcDbSymbolTableRecord
100
AcDbLinetypeTableRecord
  2
CENTER
 70
     0
  3
Center ____ _ ____ _ ____ _ ____ _ ____ _ ____
 72
    65
 73
     4
 40
10.16
 49
6.35
 74
     0
 49
-1.27
 74
     0
 49
1.27
 74
     0
 49
-1.27
 74
     0
  0
LTYPE
  5
60
330
5
100
AcDbSymbolTableRecord
100
AcDbLinetypeTableRecord
  2
CENTERX2
 70
     0
  3
Center (2x) ________  __  ________  __  _____
 72
    65
 73
     4
 40
20.32
 49
12.7
 74
     0
 49
-2.54
 74
     0
 49
2.54
 74
     0
 49
-2.54
 74
     0
  0
LTYPE
  5
61
330
5
100
AcDbSymbolTableRecord
100
AcDbLinetypeTableRecord
  2
DOT2
 70
     0
  3
Dot (.5x) ........................................
 72
    65
 73
     2
 40
0.635
 49
0.0
 74
     0
 49
-0.635
 74
     0
  0
ENDTAB
  0
TABLE
  2
LAYER
  5
2
330
0
100
AcDbSymbolTable
 70
     1
  0
LAYER
  5
10
330
2
100
AcDbSymbolTableRecord
100
AcDbLayerTableRecord
  2
0
 70
     0
 62
     7
  6
CONTINUOUS
  0
ENDTAB
  0
TABLE
  2
STYLE
  5
3
330
0
100
AcDbSymbolTable
 70
     2
  0
STYLE
  5
11
330
3
100
AcDbSymbolTableRecord
100
AcDbTextStyleTableRecord
  2
STANDARD
 70
     0
 40
0.0
 41
1.0
 50
0.0
 71
     0
 42
2.5
  3
txt
  4

  0
STYLE
  5
62
330
3
100
AcDbSymbolTableRecord
100
AcDbTextStyleTableRecord
  2
SLDTEXTSTYLE0
 70
     0
 40
0.0
 41
0.75
 50
0.0
 71
     0
 42
0.2
  3
TXT
  4

  0
ENDTAB
  0
TABLE
  2
VIEW
  5
6
330
0
100
AcDbSymbolTable
 70
     0
  0
ENDTAB
  0
TABLE
  2
UCS
  5
7
330
0
100
AcDbSymbolTable
 70
     0
  0
ENDTAB
  0
TABLE
  2
APPID
  5
9
330
0
100
AcDbSymbolTable
 70
     1
  0
APPID
  5
12
330
9
100
AcDbSymbolTableRecord
100
AcDbRegAppTableRecord
  2
ACAD
 70
     0
  0
ENDTAB
  0
TABLE
  2
DIMSTYLE
  5
A
330
0
100
AcDbSymbolTable
 70
     1
  0
DIMSTYLE
105
27
330
A
100
AcDbSymbolTableRecord
100
AcDbDimStyleTableRecord
  2
ISO-25
 70
     0
  3

  4

  5

  6

  7

 40
1.0
 41
2.5
 42
0.625
 43
3.75
 44
1.25
 45
0.0
 46
0.0
 47
0.0
 48
0.0
140
2.5
141
2.5
142
0.0
143
0.0393700787
144
1.0
145
0.0
146
1.0
147
0.625
 71
     0
 72
     0
 73
     0
 74
     0
 75
     0
 76
     0
 77
     1
 78
     8
170
     0
171
     3
172
     1
173
     0
174
     0
175
     0
176
     0
177
     0
178
     0
270
     2
271
     2
272
     2
273
     2
274
     3
340
11
275
     0
280
     0
281
     0
282
     0
283
     0
284
     8
285
     0
286
     0
287
     3
288
     0
  0
ENDTAB
  0
TABLE
  2
BLOCK_RECORD
  5
1
330
0
100
AcDbSymbolTable
 70
     1
  0
BLOCK_RECORD
  5
1F
330
1
100
AcDbSymbolTableRecord
100
AcDbBlockTableRecord
  2
*MODEL_SPACE
  0
BLOCK_RECORD
  5
1B
330
1
100
AcDbSymbolTableRecord
100
AcDbBlockTableRecord
  2
*PAPER_SPACE
  0
ENDTAB
  0
ENDSEC
  0
SECTION
  2
BLOCKS
  0
BLOCK
  5
20
330
1F
100
AcDbEntity
  8
0
100
AcDbBlockBegin
  2
*MODEL_SPACE
 70
     0
 10
0.0
 20
0.0
 30
0.0
  3
*MODEL_SPACE
  1

  0
ENDBLK
  5
21
330
1F
100
AcDbEntity
  8
0
100
AcDbBlockEnd
  0
BLOCK
  5
1C
330
1B
100
AcDbEntity
 67
     1
  8
0
100
AcDbBlockBegin
  2
*PAPER_SPACE
 70
     0
 10
0.0
 20
0.0
 30
0.0
  3
*PAPER_SPACE
  1

  0
ENDBLK
  5
1D
330
1B
100
AcDbEntity
 67
     1
  8
0
100
AcDbBlockEnd
  0
ENDSEC
  0
SECTION
  2
ENTITIES
  0
MTEXT
  5
63
330
1F
100
AcDbEntity
  8
0
  6
CONTINUOUS
 62
     7
100
AcDbMText
 10
275.9914529915
 20
1121.8062811698
 30
0.0
 40
17.5
 41
0.0
 71
     1
 72
     1
  1
ARCA 14x12 Screw Cover
  7
SLDTEXTSTYLE0
  0
LINE
  5
64
330
1F
100
AcDbEntity
  8
0
  6
CONTINUOUS
 62
     7
100
AcDbLine
 10
1359.5221195649
 20
903.3424125737
 30
0.0
 11
1063.913777871
 21
903.3424125737
 31
0.0
  0
LINE
  5
65
330
1F
100
AcDbEntity
  8
0
  6
CONTINUOUS
 62
     7
100
AcDbLine
 10
1063.913777871
 20
903.3424125737
 30
0.0
 11
1063.913777871
 21
905.006037814
 31
0.0
  0
LINE
  5
66
330
1F
100
AcDbEntity
  8
0
  6
CONTINUOUS
 62
     7
100
AcDbLine
 10
1063.913777871
 20
905.006037814
 30
0.0
 11
1359.5221195649
 21
905.006037814
 31
0.0
  0
LINE
  5
67
330
1F
100
AcDbEntity
  8
0
  6
CONTINUOUS
 62
     7
100
AcDbLine
 10
1359.5221195649
 20
903.3424125737
 30
0.0
 11
1359.5221195649
 21
905.006037814
 31
0.0
  0
LINE
  5
68
330
1F
100
AcDbEntity
  8
0
  6
CONTINUOUS
 62
     7
100
AcDbLine
 10
1058.4213141631
 20
550.9052293127
 30
0.0
 11
1058.4213141631
 21
899.5135741061
 31
0.0
  0
LINE
  5
69
330
1F
100
AcDbEntity
  8
0
  6
CONTINUOUS
 62
     7
100
AcDbLine
 10
1058.4213141631
 20
899.5135741061
 30
0.0
 11
1060.0849394034
 21
899.5135741061
 31
0.0
  0
LINE
  5
6A
330
1F
100
AcDbEntity
  8
0
  6
CONTINUOUS
 62
     7
100
AcDbLine
 10
1060.0849394034
 20
899.5135741061
 30
0.0
 11
1060.0849394034
 21
550.9052293127
 31
0.0
  0
LINE
  5
6B
330
1F
100
AcDbEntity
  8
0
  6
CONTINUOUS
 62
     7
100
AcDbLine
 10
1058.4213141631
 20
550.9052293127
 30
0.0
 11
1060.0849394034
 21
550.9052293127
 31
0.0
  0
ARC
  5
6C
330
1F
100
AcDbEntity
  8
0
  6
CONTINUOUS
 62
     7
100
AcDbCircle
 10
1063.9162227718
 20
899.5111292052
 30
0.0
 40
3.831284148532983
100
AcDbArc
 50
90.0365628086
 51
179.9634371914
  0
LINE
  5
6D
330
1F
100
AcDbEntity
  8
0
  6
CONTINUOUS
 62
     7
100
AcDbLine
 10
1058.4213141631
 20
899.5135741061
 30
0.0
 11
1058.5249666403
 21
900.5756543702
 31
0.0
  0
ARC
  5
6E
330
1F
100
AcDbEntity
  8
0
  6
CONTINUOUS
 62
     7
100
AcDbCircle
 10
1063.9137341892
 20
899.513599229
 30
0.0
 40
5.492429045378446
100
AcDbArc
 50
101.1491532456
 51
168.8506494287
  0
LINE
  5
6F
330
1F
100
AcDbEntity
  8
0
  6
CONTINUOUS
 62
     7
100
AcDbLine
 10
1062.8516976069
 20
904.9023704356
 30
0.0
 11
1063.913777871
 21
905.006037814
 31
0.0
  0
LINE
  5
70
330
1F
100
AcDbEntity
  8
0
  6
CONTINUOUS
 62
     7
100
AcDbLine
 10
1363.3509580325
 20
550.9052293127
 30
0.0
 11
1363.3509580325
 21
899.5135741061
 31
0.0
  0
LINE
  5
71
330
1F
100
AcDbEntity
  8
0
  6
CONTINUOUS
 62
     7
100
AcDbLine
 10
1363.3509580325
 20
899.5135741061
 30
0.0
 11
1365.0145832728
 21
899.5135741061
 31
0.0
  0
LINE
  5
72
330
1F
100
AcDbEntity
  8
0
  6
CONTINUOUS
 62
     7
100
AcDbLine
 10
1365.0145832728
 20
899.5135741061
 30
0.0
 11
1365.0145832728
 21
550.9052293127
 31
0.0
  0
LINE
  5
73
330
1F
100
AcDbEntity
  8
0
  6
CONTINUOUS
 62
     7
100
AcDbLine
 10
1363.3509580325
 20
550.9052293127
 30
0.0
 11
1365.0145832728
 21
550.9052293127
 31
0.0
  0
LINE
  5
74
330
1F
100
AcDbEntity
  8
0
  6
CONTINUOUS
 62
     7
100
AcDbLine
 10
1359.5221195649
 20
545.4127656048
 30
0.0
 11
1063.913777871
 21
545.4127656048
 31
0.0
  0
LINE
  5
75
330
1F
100
AcDbEntity
  8
0
  6
CONTINUOUS
 62
     7
100
AcDbLine
 10
1063.913777871
 20
545.4127656048
 30
0.0
 11
1063.913777871
 21
547.0763908451
 31
0.0
  0
LINE
  5
76
330
1F
100
AcDbEntity
  8
0
  6
CONTINUOUS
 62
     7
100
AcDbLine
 10
1063.913777871
 20
547.0763908451
 30
0.0
 11
1359.5221195649
 21
547.0763908451
 31
0.0
  0
LINE
  5
77
330
1F
100
AcDbEntity
  8
0
  6
CONTINUOUS
 62
     7
100
AcDbLine
 10
1359.5221195649
 20
545.4127656048
 30
0.0
 11
1359.5221195649
 21
547.0763908451
 31
0.0
  0
ARC
  5
78
330
1F
100
AcDbEntity
  8
0
  6
CONTINUOUS
 62
     7
100
AcDbCircle
 10
1359.519674664
 20
899.5111292052
 30
0.0
 40
3.831284148532756
100
AcDbArc
 50
0.0365628086
 51
89.9634371914
  0
LINE
  5
79
330
1F
100
AcDbEntity
  8
0
  6
CONTINUOUS
 62
     7
100
AcDbLine
 10
1359.5221195649
 20
905.006037814
 30
0.0
 11
1360.584199829
 21
904.9023704356
 31
0.0
  0
ARC
  5
7A
330
1F
100
AcDbEntity
  8
0
  6
CONTINUOUS
 62
     7
100
AcDbCircle
 10
1359.5221632467
 20
899.513599229
 30
0.0
 40
5.492429045377267
100
AcDbArc
 50
11.1493505713
 51
78.8508467544
  0
LINE
  5
7B
330
1F
100
AcDbEntity
  8
0
  6
CONTINUOUS
 62
     7
100
AcDbLine
 10
1364.9109307955
 20
900.5756543702
 30
0.0
 11
1365.0145832728
 21
899.5135741061
 31
0.0
  0
LINE
  5
7C
330
1F
100
AcDbEntity
  8
0
  6
CONTINUOUS
 62
     7
100
AcDbLine
 10
1063.913777871
 20
545.4127656048
 30
0.0
 11
1062.8516976069
 21
545.5164329832
 31
0.0
  0
ARC
  5
7D
330
1F
100
AcDbEntity
  8
0
  6
CONTINUOUS
 62
     7
100
AcDbCircle
 10
1063.9137341892
 20
550.9052041898
 30
0.0
 40
5.492429045378316
100
AcDbArc
 50
191.1493505713
 51
258.8508467544
  0
LINE
  5
7E
330
1F
100
AcDbEntity
  8
0
  6
CONTINUOUS
 62
     7
100
AcDbLine
 10
1058.5249666403
 20
549.8431490486
 30
0.0
 11
1058.4213141631
 21
550.9052293127
 31
0.0
  0
ARC
  5
7F
330
1F
100
AcDbEntity
  8
0
  6
CONTINUOUS
 62
     7
100
AcDbCircle
 10
1063.9162227718
 20
550.9076742136
 30
0.0
 40
3.831284148532529
100
AcDbArc
 50
180.0365628086
 51
269.9634371914
  0
ARC
  5
80
330
1F
100
AcDbEntity
  8
0
  6
CONTINUOUS
 62
     7
100
AcDbCircle
 10
1359.519674664
 20
550.9076742136
 30
0.0
 40
3.831284148532756
100
AcDbArc
 50
270.0365628086
 51
359.9634371914
  0
LINE
  5
81
330
1F
100
AcDbEntity
  8
0
  6
CONTINUOUS
 62
     7
100
AcDbLine
 10
1365.0145832728
 20
550.9052293127
 30
0.0
 11
1364.9109307955
 21
549.8431490486
 31
0.0
  0
ARC
  5
82
330
1F
100
AcDbEntity
  8
0
  6
CONTINUOUS
 62
     7
100
AcDbCircle
 10
1359.5221632467
 20
550.9052041898
 30
0.0
 40
5.492429045377247
100
AcDbArc
 50
281.1491532456
 51
348.8506494287
  0
LINE
  5
83
330
1F
100
AcDbEntity
  8
0
  6
CONTINUOUS
 62
     7
100
AcDbLine
 10
1360.584199829
 20
545.5164329832
 30
0.0
 11
1359.5221195649
 21
545.4127656048
 31
0.0
  0
LINE
  5
84
330
1F
100
AcDbEntity
  8
0
  6
CONTINUOUS
 62
     7
100
AcDbLine
 10
1062.7482686471
 20
906.1715321368
 30
0.0
 11
1063.913777871
 21
905.006037814
 31
0.0
  0
LINE
  5
85
330
1F
100
AcDbEntity
  8
0
  6
CONTINUOUS
 62
     7
100
AcDbLine
 10
1058.4213141631
 20
899.5135741061
 30
0.0
 11
1057.2558198403
 21
900.6790684288
 31
0.0
  0
ARC
  5
86
330
1F
100
AcDbEntity
  8
0
  6
CONTINUOUS
 62
     7
100
AcDbCircle
 10
1062.7482571579
 20
900.6790948192
 30
0.0
 40
5.492437317612451
100
AcDbArc
 50
89.9998801473
 51
180.0002752975
  0
LINE
  5
87
330
1F
100
AcDbEntity
  8
0
  6
CONTINUOUS
 62
     7
100
AcDbLine
 10
1057.2558198403
 20
549.73973499
 30
0.0
 11
1058.4213141631
 21
550.9052293127
 31
0.0
  0
LINE
  5
88
330
1F
100
AcDbEntity
  8
0
  6
CONTINUOUS
 62
     7
100
AcDbLine
 10
1063.913777871
 20
545.4127656048
 30
0.0
 11
1062.7482686471
 21
544.247271282
 31
0.0
  0
ARC
  5
89
330
1F
100
AcDbEntity
  8
0
  6
CONTINUOUS
 62
     7
100
AcDbCircle
 10
1062.7482561334
 20
549.7397075752
 30
0.0
 40
5.492436293180662
100
AcDbArc
 50
179.9997140158
 51
270.0001305394
  0
LINE
  5
8A
330
1F
100
AcDbEntity
  8
0
  6
CONTINUOUS
 62
     7
100
AcDbLine
 10
1366.1800775956
 20
900.6790684288
 30
0.0
 11
1365.0145832728
 21
899.5135741061
 31
0.0
  0
LINE
  5
8B
330
1F
100
AcDbEntity
  8
0
  6
CONTINUOUS
 62
     7
100
AcDbLine
 10
1359.5221195649
 20
905.006037814
 30
0.0
 11
1360.6876287888
 21
906.1715321368
 31
0.0
  0
ARC
  5
8C
330
1F
100
AcDbEntity
  8
0
  6
CONTINUOUS
 62
     7
100
AcDbCircle
 10
1360.6876413025
 20
900.6790958436
 30
0.0
 40
5.49243629318123
100
AcDbArc
 50
359.9997140158
 51
90.0001305394
  0
LINE
  5
8D
330
1F
100
AcDbEntity
  8
0
  6
CONTINUOUS
 62
     7
100
AcDbLine
 10
1365.0145832728
 20
550.9052293127
 30
0.0
 11
1366.1800775956
 21
549.73973499
 31
0.0
  0
ARC
  5
8E
330
1F
100
AcDbEntity
  8
0
  6
CONTINUOUS
 62
     7
100
AcDbCircle
 10
1360.687622453
 20
549.7397279744
 30
0.0
 40
5.49246244115011
100
AcDbArc
 50
270.0
 51
0.0
  0
LINE
  5
8F
330
1F
100
AcDbEntity
  8
0
  6
CONTINUOUS
 62
     7
100
AcDbLine
 10
1360.6876287888
 20
544.247271282
 30
0.0
 11
1359.5221195649
 21
545.4127656048
 31
0.0
  0
LINE
  5
90
330
1F
100
AcDbEntity
  8
0
  6
CONTINUOUS
 62
     7
100
AcDbLine
 10
1057.2558198403
 20
900.6790684288
 30
0.0
 11
1057.2558198403
 21
899.8941646641
 31
0.0
  0
LINE
  5
91
330
1F
100
AcDbEntity
  8
0
  6
CONTINUOUS
 62
     7
100
AcDbLine
 10
1057.2558198403
 20
550.5246387547
 30
0.0
 11
1057.2558198403
 21
549.73973499
 31
0.0
  0
LINE
  5
92
330
1F
100
AcDbEntity
  8
0
  6
CONTINUOUS
 62
     7
100
AcDbLine
 10
1057.2558198403
 20
550.5246387547
 30
0.0
 11
1057.480052514
 21
550.7488863295
 31
0.0
  0
LINE
  5
93
330
1F
100
AcDbEntity
  8
0
  6
CONTINUOUS
 62
     7
100
AcDbLine
 10
1057.480052514
 20
899.6699170893
 30
0.0
 11
1057.480052514
 21
550.7488863295
 31
0.0
  0
LINE
  5
94
330
1F
100
AcDbEntity
  8
0
  6
CONTINUOUS
 62
     7
100
AcDbLine
 10
1057.2558198403
 20
899.8941646641
 30
0.0
 11
1057.480052514
 21
899.6699170893
 31
0.0
  0
LINE
  5
95
330
1F
100
AcDbEntity
  8
0
  6
CONTINUOUS
 62
     7
100
AcDbLine
 10
1062.7482686471
 20
544.247271282
 30
0.0
 11
1063.533187313
 21
544.247271282
 31
0.0
  0
LINE
  5
96
330
1F
100
AcDbEntity
  8
0
  6
CONTINUOUS
 62
     7
100
AcDbLine
 10
1360.6876287888
 20
544.247271282
 30
0.0
 11
1359.9027101229
 21
544.247271282
 31
0.0
  0
LINE
  5
97
330
1F
100
AcDbEntity
  8
0
  6
CONTINUOUS
 62
     7
100
AcDbLine
 10
1359.9027101229
 20
544.247271282
 30
0.0
 11
1359.6700135897
 21
544.4799529141
 31
0.0
  0
LINE
  5
98
330
1F
100
AcDbEntity
  8
0
  6
CONTINUOUS
 62
     7
100
AcDbLine
 10
1063.7658838462
 20
544.4799529141
 30
0.0
 11
1359.6700135897
 21
544.4799529141
 31
0.0
  0
LINE
  5
99
330
1F
100
AcDbEntity
  8
0
  6
CONTINUOUS
 62
     7
100
AcDbLine
 10
1063.533187313
 20
544.247271282
 30
0.0
 11
1063.7658838462
 21
544.4799529141
 31
0.0
  0
LINE
  5
9A
330
1F
100
AcDbEntity
  8
0
  6
CONTINUOUS
 62
     7
100
AcDbLine
 10
1360.6876287888
 20
906.1715321368
 30
0.0
 11
1359.9027101229
 21
906.1715321368
 31
0.0
  0
LINE
  5
9B
330
1F
100
AcDbEntity
  8
0
  6
CONTINUOUS
 62
     7
100
AcDbLine
 10
1063.533187313
 20
906.1715321368
 30
0.0
 11
1062.7482686471
 21
906.1715321368
 31
0.0
  0
LINE
  5
9C
330
1F
100
AcDbEntity
  8
0
  6
CONTINUOUS
 62
     7
100
AcDbLine
 10
1063.533187313
 20
906.1715321368
 30
0.0
 11
1063.7658838462
 21
905.9388505047
 31
0.0
  0
LINE
  5
9D
330
1F
100
AcDbEntity
  8
0
  6
CONTINUOUS
 62
     7
100
AcDbLine
 10
1359.6700135897
 20
905.9388505047
 30
0.0
 11
1063.7658838462
 21
905.9388505047
 31
0.0
  0
LINE
  5
9E
330
1F
100
AcDbEntity
  8
0
  6
CONTINUOUS
 62
     7
100
AcDbLine
 10
1359.9027101229
 20
906.1715321368
 30
0.0
 11
1359.6700135897
 21
905.9388505047
 31
0.0
  0
LINE
  5
9F
330
1F
100
AcDbEntity
  8
0
  6
CONTINUOUS
 62
     7
100
AcDbLine
 10
1366.1800775956
 20
550.5246387547
 30
0.0
 11
1366.1800775956
 21
549.73973499
 31
0.0
  0
LINE
  5
A0
330
1F
100
AcDbEntity
  8
0
  6
CONTINUOUS
 62
     7
100
AcDbLine
 10
1366.1800775956
 20
899.8941646641
 30
0.0
 11
1366.1800775956
 21
900.6790684288
 31
0.0
  0
LINE
  5
A1
330
1F
100
AcDbEntity
  8
0
  6
CONTINUOUS
 62
     7
100
AcDbLine
 10
1366.1800775956
 20
899.8941646641
 30
0.0
 11
1365.9558449219
 21
899.6699170893
 31
0.0
  0
LINE
  5
A2
330
1F
100
AcDbEntity
  8
0
  6
CONTINUOUS
 62
     7
100
AcDbLine
 10
1365.9558449219
 20
550.7488863295
 30
0.0
 11
1365.9558449219
 21
899.6699170893
 31
0.0
  0
LINE
  5
A3
330
1F
100
AcDbEntity
  8
0
  6
CONTINUOUS
 62
     7
100
AcDbLine
 10
1366.1800775956
 20
550.5246387547
 30
0.0
 11
1365.9558449219
 21
550.7488863295
 31
0.0
  0
LINE
  5
A4
330
1F
100
AcDbEntity
  8
0
  6
CONTINUOUS
 62
     7
100
AcDbLine
 10
1359.7670499514
 20
542.8985224789
 30
0.0
 11
1063.6688474845
 21
542.8985224789
 31
0.0
  0
ELLIPSE
  5
A5
330
1F
100
AcDbEntity
  8
0
  6
CONTINUOUS
 62
     7
100
AcDbEllipse
 10
1063.7713672396
 20
542.4826983346
 30
0.0
 11
0.0
 21
2.0
 31
0.0
210
0.0
220
0.0
230
1.0
 40
0.0524077793
 41
0.0523598775601759
 42
1.361356816555541
  0
ELLIPSE
  5
A6
330
1F
100
AcDbEntity
  8
0
  6
CONTINUOUS
 62
     7
100
AcDbEllipse
 10
1359.6645301963
 20
542.4826983346
 30
0.0
 11
0.0
 21
2.0
 31
0.0
210
0.0
220
0.0
230
1.0
 40
0.0524077793
 41
4.921828490624048
 42
6.230825429619788
  0
LINE
  5
A7
330
1F
100
AcDbEntity
  8
0
  6
CONTINUOUS
 62
     7
100
AcDbLine
 10
1359.8997745942
 20
530.9845970696
 30
0.0
 11
1359.7670499514
 21
542.8985224789
 31
0.0
  0
LINE
  5
A8
330
1F
100
AcDbEntity
  8
0
  6
CONTINUOUS
 62
     7
100
AcDbLine
 10
1359.9027101229
 20
544.247271282
 30
0.0
 11
1359.9027101229
 21
530.7767556733
 31
0.0
  0
ELLIPSE
  5
A9
330
1F
100
AcDbEntity
  8
0
  6
CONTINUOUS
 62
     7
100
AcDbEllipse
 10
1360.0022969265
 20
531.4004209884
 30
0.0
 11
0.0
 21
2.0
 31
0.0
210
0.0
220
0.0
230
1.0
 40
0.0524077793
 41
1.780235837034262
 42
1.887914761660093
  0
LINE
  5
AA
330
1F
100
AcDbEntity
  8
0
  6
CONTINUOUS
 62
     7
100
AcDbLine
 10
1063.6688474845
 20
542.8985224789
 30
0.0
 11
1063.5361228417
 21
530.9845970696
 31
0.0
  0
ELLIPSE
  5
AB
330
1F
100
AcDbEntity
  8
0
  6
CONTINUOUS
 62
     7
100
AcDbEllipse
 10
1063.4336005094
 20
531.4004209884
 30
0.0
 11
0.0
 21
2.0
 31
0.0
210
0.0
220
0.0
230
1.0
 40
0.0524077793
 41
4.395270545518912
 42
4.502949470144454
  0
LINE
  5
AC
330
1F
100
AcDbEntity
  8
0
  6
CONTINUOUS
 62
     7
100
AcDbLine
 10
1063.533187313
 20
544.247271282
 30
0.0
 11
1063.533187313
 21
530.7767556733
 31
0.0
  0
LINE
  5
AD
330
1F
100
AcDbEntity
  8
0
  6
CONTINUOUS
 62
     7
100
AcDbLine
 10
1063.6688474845
 20
907.5202809399
 30
0.0
 11
1359.7670499514
 21
907.5202809399
 31
0.0
  0
ELLIPSE
  5
AE
330
1F
100
AcDbEntity
  8
0
  6
CONTINUOUS
 62
     7
100
AcDbEllipse
 10
1359.6645301963
 20
907.9361050842
 30
0.0
 11
0.0
 21
1.999999999999886
 31
0.0
210
0.0
220
0.0
230
1.0
 40
0.0524077793
 41
3.193952531148177
 42
4.502949470145776
  0
ELLIPSE
  5
AF
330
1F
100
AcDbEntity
  8
0
  6
CONTINUOUS
 62
     7
100
AcDbEllipse
 10
1063.7713672396
 20
907.9361050842
 30
0.0
 11
0.0
 21
1.999999999999886
 31
0.0
210
0.0
220
0.0
230
1.0
 40
0.0524077793
 41
1.780235837034264
 42
3.089232776031788
  0
LINE
  5
B0
330
1F
100
AcDbEntity
  8
0
  6
CONTINUOUS
 62
     7
100
AcDbLine
 10
1063.5361228417
 20
919.4342063492
 30
0.0
 11
1063.6688474845
 21
907.5202809399
 31
0.0
  0
LINE
  5
B1
330
1F
100
AcDbEntity
  8
0
  6
CONTINUOUS
 62
     7
100
AcDbLine
 10
1063.533187313
 20
919.6420477455
 30
0.0
 11
1063.533187313
 21
906.1715321368
 31
0.0
  0
ELLIPSE
  5
B2
330
1F
100
AcDbEntity
  8
0
  6
CONTINUOUS
 62
     7
100
AcDbEllipse
 10
1063.4336005094
 20
919.0183824304
 30
0.0
 11
0.0
 21
2.0
 31
0.0
210
0.0
220
0.0
230
1.0
 40
0.0524077793
 41
4.921828490624499
 42
5.029507415250523
  0
LINE
  5
B3
330
1F
100
AcDbEntity
  8
0
  6
CONTINUOUS
 62
     7
100
AcDbLine
 10
1359.7670499514
 20
907.5202809399
 30
0.0
 11
1359.8997745942
 21
919.4342063492
 31
0.0
  0
ELLIPSE
  5
B4
330
1F
100
AcDbEntity
  8
0
  6
CONTINUOUS
 62
     7
100
AcDbEllipse
 10
1360.0022969265
 20
919.0183824304
 30
0.0
 11
0.0
 21
2.0
 31
0.0
210
0.0
220
0.0
230
1.0
 40
0.0524077793
 41
1.2536778919297
 42
1.361356816555531
  0
LINE
  5
B5
330
1F
100
AcDbEntity
  8
0
  6
CONTINUOUS
 62
     7
100
AcDbLine
 10
1359.9027101229
 20
906.1715321368
 30
0.0
 11
1359.9027101229
 21
919.6420477455
 31
0.0
  0
LINE
  5
B6
330
1F
100
AcDbEntity
  8
0
  6
CONTINUOUS
 62
     7
100
AcDbLine
 10
1367.5372753571
 20
899.766953451
 30
0.0
 11
1367.5372753571
 21
550.6518499678
 31
0.0
  0
ELLIPSE
  5
B7
330
1F
100
AcDbEntity
  8
0
  6
CONTINUOUS
 62
     7
100
AcDbEllipse
 10
1367.9531009225
 20
550.7543714013
 30
0.0
 11
2.0
 21
0.0
 31
0.0
210
0.0
220
0.0
230
1.0
 40
0.0524077793
 41
3.193952531151264
 42
4.502949470145181
  0
ELLIPSE
  5
B8
330
1F
100
AcDbEntity
  8
0
  6
CONTINUOUS
 62
     7
100
AcDbEllipse
 10
1367.9531009225
 20
899.6644320175
 30
0.0
 11
2.0
 21
0.0
 31
0.0
210
0.0
220
0.0
230
1.0
 40
0.0524077793
 41
1.780235837033976
 42
3.089232776028475
  0
LINE
  5
B9
330
1F
100
AcDbEntity
  8
0
  6
CONTINUOUS
 62
     7
100
AcDbLine
 10
1378.6927465628
 20
899.8912291354
 30
0.0
 11
1367.5372753571
 21
899.766953451
 31
0.0
  0
LINE
  5
BA
330
1F
100
AcDbEntity
  8
0
  6
CONTINUOUS
 62
     7
100
AcDbLine
 10
1378.9005879592
 20
899.8941646641
 30
0.0
 11
1366.1800775956
 21
899.8941646641
 31
0.0
  0
ELLIPSE
  5
BB
330
1F
100
AcDbEntity
  8
0
  6
CONTINUOUS
 62
     7
100
AcDbEllipse
 10
1378.2769294389
 20
899.9937499179
 30
0.0
 11
2.000000000000227
 21
0.0
 31
0.0
210
0.0
220
0.0
230
1.0
 40
0.0524077793
 41
4.921828490623754
 42
5.029507415249846
  0
LINE
  5
BC
330
1F
100
AcDbEntity
  8
0
  6
CONTINUOUS
 62
     7
100
AcDbLine
 10
1055.8986220788
 20
550.6518499678
 30
0.0
 11
1055.8986220788
 21
899.766953451
 31
0.0
  0
ELLIPSE
  5
BD
330
1F
100
AcDbEntity
  8
0
  6
CONTINUOUS
 62
     7
100
AcDbEllipse
 10
1055.4827965134
 20
899.6644320175
 30
0.0
 11
1.999999999999773
 21
0.0
 31
0.0
210
0.0
220
0.0
230
1.0
 40
0.0524077793
 41
0.0523598775601729
 42
1.361356816555348
  0
ELLIPSE
  5
BE
330
1F
100
AcDbEntity
  8
0
  6
CONTINUOUS
 62
     7
100
AcDbEllipse
 10
1055.4827965134
 20
550.7543714013
 30
0.0
 11
2.0
 21
0.0
 31
0.0
210
0.0
220
0.0
230
1.0
 40
0.0524077793
 41
4.921828490624007
 42
6.230825429620699
  0
LINE
  5
BF
330
1F
100
AcDbEntity
  8
0
  6
CONTINUOUS
 62
     7
100
AcDbLine
 10
1055.8986220788
 20
899.766953451
 30
0.0
 11
1044.7431508731
 21
899.8912291354
 31
0.0
  0
ELLIPSE
  5
C0
330
1F
100
AcDbEntity
  8
0
  6
CONTINUOUS
 62
     7
100
AcDbEllipse
 10
1045.158967997
 20
899.9937499179
 30
0.0
 11
2.0
 21
0.0
 31
0.0
210
0.0
220
0.0
230
1.0
 40
0.0524077793
 41
4.395270545519554
 42
4.502949470145516
  0
LINE
  5
C1
330
1F
100
AcDbEntity
  8
0
  6
CONTINUOUS
 62
     7
100
AcDbLine
 10
1057.2558198403
 20
899.8941646641
 30
0.0
 11
1044.5353094767
 21
899.8941646641
 31
0.0
  0
LINE
  5
C2
330
1F
100
AcDbEntity
  8
0
  6
CONTINUOUS
 62
     7
100
AcDbLine
 10
1044.7431508731
 20
550.5275742834
 30
0.0
 11
1055.8986220788
 21
550.6518499678
 31
0.0
  0
LINE
  5
C3
330
1F
100
AcDbEntity
  8
0
  6
CONTINUOUS
 62
     7
100
AcDbLine
 10
1044.5353094767
 20
550.5246387547
 30
0.0
 11
1057.2558198403
 21
550.5246387547
 31
0.0
  0
ELLIPSE
  5
C4
330
1F
100
AcDbEntity
  8
0
  6
CONTINUOUS
 62
     7
100
AcDbEllipse
 10
1045.158967997
 20
550.4250535009
 30
0.0
 11
2.0
 21
0.0
 31
0.0
210
0.0
220
0.0
230
1.0
 40
0.0524077793
 41
1.780235837034088
 42
1.887914761660076
  0
LINE
  5
C5
330
1F
100
AcDbEntity
  8
0
  6
CONTINUOUS
 62
     7
100
AcDbLine
 10
1367.5372753571
 20
550.6518499678
 30
0.0
 11
1378.6927465628
 21
550.5275742834
 31
0.0
  0
ELLIPSE
  5
C6
330
1F
100
AcDbEntity
  8
0
  6
CONTINUOUS
 62
     7
100
AcDbEllipse
 10
1378.2769294389
 20
550.4250535009
 30
0.0
 11
1.999999999999773
 21
0.0
 31
0.0
210
0.0
220
0.0
230
1.0
 40
0.0524077793
 41
1.2536778919297
 42
1.361356816555573
  0
LINE
  5
C7
330
1F
100
AcDbEntity
  8
0
  6
CONTINUOUS
 62
     7
100
AcDbLine
 10
1378.9005879592
 20
550.5246387547
 30
0.0
 11
1366.1800775956
 21
550.5246387547
 31
0.0
  0
LINE
  5
C8
330
1F
100
AcDbEntity
  8
0
  6
CONTINUOUS
 62
     7
100
AcDbLine
 10
1063.5361228417
 20
530.9845970696
 30
0.0
 11
1359.8997745942
 21
530.9845970696
 31
0.0
  0
LINE
  5
C9
330
1F
100
AcDbEntity
  8
0
  6
CONTINUOUS
 62
     7
100
AcDbLine
 10
1359.8997745942
 20
919.4342063492
 30
0.0
 11
1063.5361228417
 21
919.4342063492
 31
0.0
  0
LINE
  5
CA
330
1F
100
AcDbEntity
  8
0
  6
CONTINUOUS
 62
     7
100
AcDbLine
 10
1378.6927465628
 20
550.5275742834
 30
0.0
 11
1378.6927465628
 21
899.8912291354
 31
0.0
  0
LINE
  5
CB
330
1F
100
AcDbEntity
  8
0
  6
CONTINUOUS
 62
     7
100
AcDbLine
 10
1044.7431508731
 20
899.8912291354
 30
0.0
 11
1044.7431508731
 21
550.5275742834
 31
0.0
  0
LINE
  5
CC
330
1F
100
AcDbEntity
  8
0
  6
CONTINUOUS
 62
     7
100
AcDbLine
 10
1050.252810521
 20
919.6420477455
 30
0.0
 11
1063.533187313
 21
919.6420477455
 31
0.0
  0
LINE
  5
CD
330
1F
100
AcDbEntity
  8
0
  6
CONTINUOUS
 62
     7
100
AcDbLine
 10
1050.252810521
 20
921.0156367844
 30
0.0
 11
1050.252810521
 21
919.6420477455
 31
0.0
  0
LINE
  5
CE
330
1F
100
AcDbEntity
  8
0
  6
CONTINUOUS
 62
     7
100
AcDbLine
 10
1050.252810521
 20
921.0156367844
 30
0.0
 11
1373.1830869149
 21
921.0156367844
 31
0.0
  0
LINE
  5
CF
330
1F
100
AcDbEntity
  8
0
  6
CONTINUOUS
 62
     7
100
AcDbLine
 10
1373.1830869149
 20
921.0156367844
 30
0.0
 11
1373.1830869149
 21
919.6420477455
 31
0.0
  0
LINE
  5
D0
330
1F
100
AcDbEntity
  8
0
  6
CONTINUOUS
 62
     7
100
AcDbLine
 10
1359.9027101229
 20
919.6420477455
 30
0.0
 11
1373.1830869149
 21
919.6420477455
 31
0.0
  0
LINE
  5
D1
330
1F
100
AcDbEntity
  8
0
  6
CONTINUOUS
 62
     7
100
AcDbLine
 10
1044.5353094767
 20
536.4942567175
 30
0.0
 11
1044.5353094767
 21
550.5246387547
 31
0.0
  0
LINE
  5
D2
330
1F
100
AcDbEntity
  8
0
  6
CONTINUOUS
 62
     7
100
AcDbLine
 10
1044.5353094767
 20
536.4942567175
 30
0.0
 11
1043.1617055367
 21
536.4942567175
 31
0.0
  0
LINE
  5
D3
330
1F
100
AcDbEntity
  8
0
  6
CONTINUOUS
 62
     7
100
AcDbLine
 10
1043.1617055367
 20
536.4942567175
 30
0.0
 11
1043.1617055367
 21
913.9245467013
 31
0.0
  0
LINE
  5
D4
330
1F
100
AcDbEntity
  8
0
  6
CONTINUOUS
 62
     7
100
AcDbLine
 10
1044.5353094767
 20
913.9245467013
 30
0.0
 11
1043.1617055367
 21
913.9245467013
 31
0.0
  0
LINE
  5
D5
330
1F
100
AcDbEntity
  8
0
  6
CONTINUOUS
 62
     7
100
AcDbLine
 10
1044.5353094767
 20
899.8941646641
 30
0.0
 11
1044.5353094767
 21
913.9245467013
 31
0.0
  0
LINE
  5
D6
330
1F
100
AcDbEntity
  8
0
  6
CONTINUOUS
 62
     7
100
AcDbLine
 10
1373.1830869149
 20
530.7767556733
 30
0.0
 11
1359.9027101229
 21
530.7767556733
 31
0.0
  0
LINE
  5
D7
330
1F
100
AcDbEntity
  8
0
  6
CONTINUOUS
 62
     7
100
AcDbLine
 10
1373.1830869149
 20
530.7767556733
 30
0.0
 11
1373.1830869149
 21
529.4031666344
 31
0.0
  0
LINE
  5
D8
330
1F
100
AcDbEntity
  8
0
  6
CONTINUOUS
 62
     7
100
AcDbLine
 10
1373.1830869149
 20
529.4031666344
 30
0.0
 11
1050.252810521
 21
529.4031666344
 31
0.0
  0
LINE
  5
D9
330
1F
100
AcDbEntity
  8
0
  6
CONTINUOUS
 62
     7
100
AcDbLine
 10
1050.252810521
 20
530.7767556733
 30
0.0
 11
1050.252810521
 21
529.4031666344
 31
0.0
  0
LINE
  5
DA
330
1F
100
AcDbEntity
  8
0
  6
CONTINUOUS
 62
     7
100
AcDbLine
 10
1063.533187313
 20
530.7767556733
 30
0.0
 11
1050.252810521
 21
530.7767556733
 31
0.0
  0
LINE
  5
DB
330
1F
100
AcDbEntity
  8
0
  6
CONTINUOUS
 62
     7
100
AcDbLine
 10
1378.9005879592
 20
913.9245467013
 30
0.0
 11
1378.9005879592
 21
899.8941646641
 31
0.0
  0
LINE
  5
DC
330
1F
100
AcDbEntity
  8
0
  6
CONTINUOUS
 62
     7
100
AcDbLine
 10
1380.2741918992
 20
913.9245467013
 30
0.0
 11
1378.9005879592
 21
913.9245467013
 31
0.0
  0
LINE
  5
DD
330
1F
100
AcDbEntity
  8
0
  6
CONTINUOUS
 62
     7
100
AcDbLine
 10
1380.2741918992
 20
913.9245467013
 30
0.0
 11
1380.2741918992
 21
536.4942567175
 31
0.0
  0
LINE
  5
DE
330
1F
100
AcDbEntity
  8
0
  6
CONTINUOUS
 62
     7
100
AcDbLine
 10
1380.2741918992
 20
536.4942567175
 30
0.0
 11
1378.9005879592
 21
536.4942567175
 31
0.0
  0
LINE
  5
DF
330
1F
100
AcDbEntity
  8
0
  6
CONTINUOUS
 62
     7
100
AcDbLine
 10
1378.9005879592
 20
550.5246387547
 30
0.0
 11
1378.9005879592
 21
536.4942567175
 31
0.0
  0
ARC
  5
E0
330
1F
100
AcDbEntity
  8
0
  6
CONTINUOUS
 62
     7
100
AcDbCircle
 10
1369.2372109522
 20
910.1786639437
 30
0.0
 40
2.499999999999969
100
AcDbArc
 50
261.1038811373
 51
208.8961188627
  0
ARC
  5
E1
330
1F
100
AcDbEntity
  8
0
  6
CONTINUOUS
 62
     7
100
AcDbCircle
 10
1366.348650434
 20
906.0533719972
 30
0.0
 40
2.999999999999932
100
AcDbArc
 50
33.4898117331
 51
76.5101882669
  0
LINE
  5
E2
330
1F
100
AcDbEntity
  8
0
  6
CONTINUOUS
 62
     7
100
AcDbLine
 10
1373.1830869149
 20
919.6420477455
 30
0.0
 11
1374.8479340504
 21
919.5489154881
 31
0.0
  0
ARC
  5
E3
330
1F
100
AcDbEntity
  8
0
  6
CONTINUOUS
 62
     7
100
AcDbCircle
 10
1374.4546355949
 20
915.1960953813
 30
0.0
 40
4.370552202822793
100
AcDbArc
 50
5.1629325876
 51
84.8370674124
  0
LINE
  5
E4
330
1F
100
AcDbEntity
  8
0
  6
CONTINUOUS
 62
     7
100
AcDbLine
 10
1378.8074557017
 20
915.5893938368
 30
0.0
 11
1378.9005879592
 21
913.9245467013
 31
0.0
  0
ARC
  5
E5
330
1F
100
AcDbEntity
  8
0
  6
CONTINUOUS
 62
     7
100
AcDbCircle
 10
1054.1986864837
 20
910.1786639437
 30
0.0
 40
2.500000000000004
100
AcDbArc
 50
331.1038811373
 51
278.8961188627
  0
ARC
  5
E6
330
1F
100
AcDbEntity
  8
0
  6
CONTINUOUS
 62
     7
100
AcDbCircle
 10
1057.0872470019
 20
906.0533719972
 30
0.0
 40
2.999999999999928
100
AcDbArc
 50
103.4898117331
 51
146.5101882669
  0
LINE
  5
E7
330
1F
100
AcDbEntity
  8
0
  6
CONTINUOUS
 62
     7
100
AcDbLine
 10
1044.5353094767
 20
913.9245467013
 30
0.0
 11
1044.6284417342
 21
915.5893938368
 31
0.0
  0
ARC
  5
E8
330
1F
100
AcDbEntity
  8
0
  6
CONTINUOUS
 62
     7
100
AcDbCircle
 10
1048.9812459664
 20
915.1961112559
 30
0.0
 40
4.370534964113721
100
AcDbArc
 50
95.1627440502
 51
174.8372559498
  0
LINE
  5
E9
330
1F
100
AcDbEntity
  8
0
  6
CONTINUOUS
 62
     7
100
AcDbLine
 10
1048.5879633855
 20
919.5489154881
 30
0.0
 11
1050.252810521
 21
919.6420477455
 31
0.0
  0
LINE
  5
EA
330
1F
100
AcDbEntity
  8
0
  6
CONTINUOUS
 62
     7
100
AcDbLine
 10
1378.9005879592
 20
536.4942567175
 30
0.0
 11
1378.8074557017
 21
534.829409582
 31
0.0
  0
ARC
  5
EB
330
1F
100
AcDbEntity
  8
0
  6
CONTINUOUS
 62
     7
100
AcDbCircle
 10
1374.4546514695
 20
535.2226921629
 30
0.0
 40
4.370534964113506
100
AcDbArc
 50
275.1627440502
 51
354.8372559498
  0
LINE
  5
EC
330
1F
100
AcDbEntity
  8
0
  6
CONTINUOUS
 62
     7
100
AcDbLine
 10
1374.8479340504
 20
530.8698879307
 30
0.0
 11
1373.1830869149
 21
530.7767556733
 31
0.0
  0
LINE
  5
ED
330
1F
100
AcDbEntity
  8
0
  6
CONTINUOUS
 62
     7
100
AcDbLine
 10
1368.3977876137
 20
542.5822304314
 30
0.0
 11
1367.3234734963
 21
541.829990012
 31
0.0
  0
ARC
  5
EE
330
1F
100
AcDbEntity
  8
0
  6
CONTINUOUS
 62
     7
100
AcDbCircle
 10
1367.4955465186
 20
541.5842395461
 30
0.0
 40
0.3000000000002121
100
AcDbArc
 50
125.0
 51
142.3414428028
  0
ARC
  5
EF
330
1F
100
AcDbEntity
  8
0
  6
CONTINUOUS
 62
     7
100
AcDbCircle
 10
1369.2372109522
 20
540.2401394751
 30
0.0
 40
2.499999999999971
100
AcDbArc
 50
142.3414428028
 51
107.6585571972
  0
ARC
  5
F0
330
1F
100
AcDbEntity
  8
0
  6
CONTINUOUS
 62
     7
100
AcDbCircle
 10
1368.5698543531
 20
542.3364779902
 30
0.0
 40
0.2999999999999885
100
AcDbArc
 50
107.6585571972
 51
125.0
  0
ELLIPSE
  5
F1
330
1F
100
AcDbEntity
  8
0
  6
CONTINUOUS
 62
     7
100
AcDbEllipse
 10
1379.6043925764
 20
528.0756987814
 30
0.0
 11
34.86812060661146
 21
-0.2448078529948816
 31
0.0
210
0.0
220
0.0
230
1.0
 40
0.0374179733
 41
1.709773931163992
 42
1.756275812523937
  0
ARC
  5
F2
330
1F
100
AcDbEntity
  8
0
  6
CONTINUOUS
 62
     7
100
AcDbCircle
 10
1363.6795511008
 20
530.6271234174
 30
0.0
 40
11.17102109558136
100
AcDbArc
 50
353.7022813311
 51
1.2452287896
  0
ARC
  5
F3
330
1F
100
AcDbEntity
  8
0
  6
CONTINUOUS
 62
     7
100
AcDbCircle
 10
1057.085933892
 20
544.3635561064
 30
0.0
 40
2.999999999999983
100
AcDbArc
 50
213.4367195484
 51
256.5632804516
  0
ARC
  5
F4
330
1F
100
AcDbEntity
  8
0
  6
CONTINUOUS
 62
     7
100
AcDbCircle
 10
1054.1986864837
 20
540.2401394751
 30
0.0
 40
2.499999999999933
100
AcDbArc
 50
81.1698938202
 51
28.8301061798
  0
LINE
  5
F5
330
1F
100
AcDbEntity
  8
0
  6
CONTINUOUS
 62
     7
100
AcDbLine
 10
1050.252810521
 20
530.7767556733
 30
0.0
 11
1048.5879633855
 21
530.8698879307
 31
0.0
  0
ARC
  5
F6
330
1F
100
AcDbEntity
  8
0
  6
CONTINUOUS
 62
     7
100
AcDbCircle
 10
1048.981261841
 20
535.2227080375
 30
0.0
 40
4.370552202822599
100
AcDbArc
 50
185.1629325876
 51
264.8370674124
  0
LINE
  5
F7
330
1F
100
AcDbEntity
  8
0
  6
CONTINUOUS
 62
     7
100
AcDbLine
 10
1044.6284417342
 20
534.829409582
 30
0.0
 11
1044.5353094767
 21
536.4942567175
 31
0.0
  0
LINE
  5
F8
330
1F
100
AcDbEntity
  8
0
  6
CONTINUOUS
 62
     7
100
AcDbLine
 10
1368.866309924
 20
907.7333079403
 30
0.0
 11
1368.8506041001
 21
907.7087359255
 31
0.0
  0
ARC
  5
F9
330
1F
100
AcDbEntity
  8
0
  6
CONTINUOUS
 62
     7
100
AcDbCircle
 10
1369.231463128
 20
910.1732034921
 30
0.0
 40
2.467068536916171
100
AcDbArc
 50
261.4883231662
 51
208.5918638004
  0
LINE
  5
FA
330
1F
100
AcDbEntity
  8
0
  6
CONTINUOUS
 62
     7
100
AcDbLine
 10
1367.065251274
 20
908.9925454682
 30
0.0
 11
1367.0484725665
 21
908.9706109589
 31
0.0
  0
ARC
  5
FB
330
1F
100
AcDbEntity
  8
0
  6
CONTINUOUS
 62
     7
100
AcDbCircle
 10
1366.3510808516
 20
906.0534585675
 30
0.0
 40
3.024610917460797
100
AcDbArc
 50
33.737825305
 51
76.3423616617
  0
ARC
  5
FC
330
1F
100
AcDbEntity
  8
0
  6
CONTINUOUS
 62
     7
100
AcDbCircle
 10
1048.6520309194
 20
915.5253263029
 30
0.0
 40
5.491755939773352
100
AcDbArc
 50
89.9926153416
 51
180.0073846584
  0
ARC
  5
FD
330
1F
100
AcDbEntity
  8
0
  6
CONTINUOUS
 62
     7
100
AcDbCircle
 10
1059.7563463349
 20
919.7916800014
 30
0.0
 40
11.17102109544741
100
AcDbArc
 50
173.702281331
 51
181.2452287896
  0
ARC
  5
FE
330
1F
100
AcDbEntity
  8
0
  6
CONTINUOUS
 62
     7
100
AcDbCircle
 10
1044.3856690362
 20
904.421196397
 30
0.0
 40
11.17083580743357
100
AcDbArc
 50
88.7547085633
 51
96.297781316
  0
ELLIPSE
  5
FF
330
1F
100
AcDbEntity
  8
0
  6
CONTINUOUS
 62
     7
100
AcDbEllipse
 10
1043.8315048595
 20
922.3431046374
 30
0.0
 11
34.86812060661168
 21
-0.2448078529948816
 31
0.0
210
0.0
220
0.0
230
1.0
 40
0.0374179733
 41
4.85136658475378
 42
4.897868466113732
  0
ELLIPSE
  5
100
330
1F
100
AcDbEntity
  8
0
  6
CONTINUOUS
 62
     7
100
AcDbEllipse
 10
1041.83424579
 20
920.3458455679
 30
0.0
 11
-0.244807852995109
 21
34.86812060661157
 31
0.0
210
0.0
220
0.0
230
1.0
 40
0.0374179733
 41
4.52690949465561
 42
4.573411376015557
  0
ARC
  5
101
330
1F
100
AcDbEntity
  8
0
  6
CONTINUOUS
 62
     7
100
AcDbCircle
 10
1048.6520138588
 20
534.8934600554
 30
0.0
 40
5.491738881437602
100
AcDbArc
 50
179.9924373244
 51
270.0075626756
  0
ARC
  5
102
330
1F
100
AcDbEntity
  8
0
  6
CONTINUOUS
 62
     7
100
AcDbCircle
 10
1044.3856690362
 20
545.9976070218
 30
0.0
 40
11.17083580743346
100
AcDbArc
 50
263.702218684
 51
271.2452914367
  0
ARC
  5
103
330
1F
100
AcDbEntity
  8
0
  6
CONTINUOUS
 62
     7
100
AcDbCircle
 10
1059.7563463349
 20
530.6271234174
 30
0.0
 40
11.17102109544741
100
AcDbArc
 50
178.7547712104
 51
186.297718669
  0
ARC
  5
104
330
1F
100
AcDbEntity
  8
0
  6
CONTINUOUS
 62
     7
100
AcDbCircle
 10
1374.7838665165
 20
534.8934771159
 30
0.0
 40
5.49175593977267
100
AcDbArc
 50
269.9926153416
 51
0.0073846584
  0
ARC
  5
105
330
1F
100
AcDbEntity
  8
0
  6
CONTINUOUS
 62
     7
100
AcDbCircle
 10
1379.0502283997
 20
545.9976070218
 30
0.0
 40
11.17083580746593
100
AcDbArc
 50
268.7547085634
 51
276.297781316
  0
LINE
  5
106
330
1F
100
AcDbEntity
  8
0
  6
CONTINUOUS
 62
     7
100
AcDbLine
 10
1056.3720319699
 20
541.4237247532
 30
0.0
 11
1056.3888255786
 21
541.4456741637
 31
0.0
  0
ARC
  5
107
330
1F
100
AcDbEntity
  8
0
  6
CONTINUOUS
 62
     7
100
AcDbCircle
 10
1057.0834889171
 20
544.363447606
 30
0.0
 40
3.02458946614543
100
AcDbArc
 50
213.6853895863
 51
256.3951550027
  0
LINE
  5
108
330
1F
100
AcDbEntity
  8
0
  6
CONTINUOUS
 62
     7
100
AcDbLine
 10
1054.5667413901
 20
542.685912711
 30
0.0
 11
1054.582447214
 21
542.7105145281
 31
0.0
  0
LINE
  5
109
330
1F
100
AcDbEntity
  8
0
  6
CONTINUOUS
 62
     7
100
AcDbLine
 10
1054.5695875119
 20
907.7333079403
 30
0.0
 11
1054.5852933358
 21
907.7087359255
 31
0.0
  0
ARC
  5
10A
330
1F
100
AcDbEntity
  8
0
  6
CONTINUOUS
 62
     7
100
AcDbCircle
 10
1057.0850578966
 20
906.053113424
 30
0.0
 40
3.025003284106433
100
AcDbArc
 50
103.6605361521
 51
146.2592768813
  0
LINE
  5
10B
330
1F
100
AcDbEntity
  8
0
  6
CONTINUOUS
 62
     7
100
AcDbLine
 10
1056.3706461619
 20
908.9925454682
 30
0.0
 11
1056.3874248694
 21
908.9706109589
 31
0.0
  0
ELLIPSE
  5
10C
330
1F
100
AcDbEntity
  8
0
  6
CONTINUOUS
 62
     7
100
AcDbEllipse
 10
1041.83424579
 20
530.0729578509
 30
0.0
 11
0.2448078529948816
 21
34.86812060661157
 31
0.0
210
0.0
220
0.0
230
1.0
 40
0.0374179733
 41
4.851366584753765
 42
4.89786846611373
  0
ELLIPSE
  5
10D
330
1F
100
AcDbEntity
  8
0
  6
CONTINUOUS
 62
     7
100
AcDbEllipse
 10
1379.6043925764
 20
922.3431046374
 30
0.0
 11
34.86812060661146
 21
0.2448078529947679
 31
0.0
210
0.0
220
0.0
230
1.0
 40
0.0374179733
 41
4.526909494655682
 42
4.573411376015622
  0
ARC
  5
10E
330
1F
100
AcDbEntity
  8
0
  6
CONTINUOUS
 62
     7
100
AcDbCircle
 10
1363.6795511008
 20
919.7916800014
 30
0.0
 40
11.17102109558204
100
AcDbArc
 50
358.7547712105
 51
6.2977186689
  0
ELLIPSE
  5
10F
330
1F
100
AcDbEntity
  8
0
  6
CONTINUOUS
 62
     7
100
AcDbEllipse
 10
1043.8315048595
 20
528.0756987814
 30
0.0
 11
34.86812060661146
 21
0.2448078529947679
 31
0.0
210
0.0
220
0.0
230
1.0
 40
0.0374179733
 41
1.385316841065859
 42
1.431818722425803
  0
ARC
  5
110
330
1F
100
AcDbEntity
  8
0
  6
CONTINUOUS
 62
     7
100
AcDbCircle
 10
1054.2043104126
 20
910.1733806967
 30
0.0
 40
2.467262129506368
100
AcDbArc
 50
331.4058998241
 51
278.5139132093
  0
ELLIPSE
  5
111
330
1F
100
AcDbEntity
  8
0
  6
CONTINUOUS
 62
     7
100
AcDbEllipse
 10
1381.6016516459
 20
920.3458455679
 30
0.0
 11
0.2448078529948816
 21
34.86812060661157
 31
0.0
210
0.0
220
0.0
230
1.0
 40
0.0374179733
 41
1.709773931164009
 42
1.756275812523952
  0
ARC
  5
112
330
1F
100
AcDbEntity
  8
0
  6
CONTINUOUS
 62
     7
100
AcDbCircle
 10
1379.0502283997
 20
904.421196397
 30
0.0
 40
11.17083580743769
100
AcDbArc
 50
83.702218684
 51
91.2452914367
  0
ELLIPSE
  5
113
330
1F
100
AcDbEntity
  8
0
  6
CONTINUOUS
 62
     7
100
AcDbEllipse
 10
1381.6016516459
 20
530.0729578509
 30
0.0
 11
-0.2448078529946542
 21
34.86812060661157
 31
0.0
210
0.0
220
0.0
230
1.0
 40
0.0374179733
 41
1.385316841065844
 42
1.431818722425809
  0
ARC
  5
114
330
1F
100
AcDbEntity
  8
0
  6
CONTINUOUS
 62
     7
100
AcDbCircle
 10
1374.7838835771
 20
915.5253433634
 30
0.0
 40
5.491738881438057
100
AcDbArc
 50
359.9924373244
 51
90.0075626756
  0
ARC
  5
115
330
1F
100
AcDbEntity
  8
0
  6
CONTINUOUS
 62
     7
100
AcDbCircle
 10
1054.2043214876
 20
540.245412882
 30
0.0
 40
2.467263180353861
100
AcDbArc
 50
81.5531748928
 51
28.5273696962
  0
ELLIPSE
  5
116
330
1F
100
AcDbEntity
  8
0
  6
CONTINUOUS
 62
     7
100
AcDbEllipse
 10
1047.8062343867
 20
534.0476873781
 30
0.0
 11
-3.899754338892989
 21
-3.899754338892876
 31
0.0
210
0.0
220
0.0
230
1.0
 40
0.9972646886
 41
5.499156671652544
 42
7.067213942706664
  0
LINE
  5
117
330
1F
100
AcDbEntity
  8
0
  6
CONTINUOUS
 62
     7
100
AcDbLine
 10
1042.298689885
 20
534.0325997895
 30
0.0
 11
1043.1602750252
 21
534.8941849297
 31
0.0
  0
LINE
  5
118
330
1F
100
AcDbEntity
  8
0
  6
CONTINUOUS
 62
     7
100
AcDbLine
 10
1048.6527387332
 20
529.4017212218
 30
0.0
 11
1047.7911535929
 21
528.5401360815
 31
0.0
  0
ELLIPSE
  5
119
330
1F
100
AcDbEntity
  8
0
  6
CONTINUOUS
 62
     7
100
AcDbEllipse
 10
1375.6296630492
 20
916.3711160407
 30
0.0
 11
3.899754338892762
 21
3.899754338892876
 31
0.0
210
0.0
220
0.0
230
0.9999999999999998
 40
0.9972646886
 41
5.499156671652537
 42
7.067213942706614
  0
LINE
  5
11A
330
1F
100
AcDbEntity
  8
0
  6
CONTINUOUS
 62
     7
100
AcDbLine
 10
1381.1372075509
 20
916.3862036293
 30
0.0
 11
1380.2756224107
 21
915.5246184891
 31
0.0
  0
LINE
  5
11B
330
1F
100
AcDbEntity
  8
0
  6
CONTINUOUS
 62
     7
100
AcDbLine
 10
1374.7831587027
 20
921.017082197
 30
0.0
 11
1375.644743843
 21
921.8786673373
 31
0.0
  0
ELLIPSE
  5
11C
330
1F
100
AcDbEntity
  8
0
  6
CONTINUOUS
 62
     7
100
AcDbEllipse
 10
1375.6296630492
 20
534.0476873781
 30
0.0
 11
3.899754338892989
 21
-3.899754338892876
 31
0.0
210
0.0
220
0.0
230
1.0
 40
0.9972646886
 41
5.499156671652555
 42
7.067213942706657
  0
LINE
  5
11D
330
1F
100
AcDbEntity
  8
0
  6
CONTINUOUS
 62
     7
100
AcDbLine
 10
1375.644743843
 20
528.5401360815
 30
0.0
 11
1374.7831587027
 21
529.4017212218
 31
0.0
  0
LINE
  5
11E
330
1F
100
AcDbEntity
  8
0
  6
CONTINUOUS
 62
     7
100
AcDbLine
 10
1380.2756224107
 20
534.8941849297
 30
0.0
 11
1381.1372075509
 21
534.0325997895
 31
0.0
  0
ELLIPSE
  5
11F
330
1F
100
AcDbEntity
  8
0
  6
CONTINUOUS
 62
     7
100
AcDbEllipse
 10
1047.8062343867
 20
916.3711160407
 30
0.0
 11
-3.899754338892989
 21
3.899754338892876
 31
0.0
210
0.0
220
0.0
230
1.0
 40
0.9972646886
 41
5.499156671652536
 42
7.067213942706656
  0
LINE
  5
120
330
1F
100
AcDbEntity
  8
0
  6
CONTINUOUS
 62
     7
100
AcDbLine
 10
1047.7911535929
 20
921.8786673373
 30
0.0
 11
1048.6527387332
 21
921.017082197
 31
0.0
  0
LINE
  5
121
330
1F
100
AcDbEntity
  8
0
  6
CONTINUOUS
 62
     7
100
AcDbLine
 10
1043.1602750252
 20
915.5246184891
 30
0.0
 11
1042.298689885
 21
916.3862036293
 31
0.0
  0
LINE
  5
122
330
1F
100
AcDbEntity
  8
0
  6
CONTINUOUS
 62
     7
100
AcDbLine
 10
1375.644743843
 20
528.5401360815
 30
0.0
 11
1047.7911535929
 21
528.5401360815
 31
0.0
  0
LINE
  5
123
330
1F
100
AcDbEntity
  8
0
  6
CONTINUOUS
 62
     7
100
AcDbLine
 10
1047.7911535929
 20
921.8786673373
 30
0.0
 11
1375.644743843
 21
921.8786673373
 31
0.0
  0
LINE
  5
124
330
1F
100
AcDbEntity
  8
0
  6
CONTINUOUS
 62
     7
100
AcDbLine
 10
1381.1372075509
 20
916.3862036293
 30
0.0
 11
1381.1372075509
 21
534.0325997895
 31
0.0
  0
LINE
  5
125
330
1F
100
AcDbEntity
  8
0
  6
CONTINUOUS
 62
     7
100
AcDbLine
 10
1042.298689885
 20
534.0325997895
 30
0.0
 11
1042.298689885
 21
916.3862036293
 31
0.0
  0
LINE
  5
126
330
1F
100
AcDbEntity
  8
0
  6
CONTINUOUS
 62
     7
100
AcDbLine
 10
1047.7911535929
 20
1094.1055559355
 30
0.0
 11
1048.6527387332
 21
1077.6654875639
 31
0.0
  0
LWPOLYLINE
  5
127
330
1F
100
AcDbEntity
  8
0
  6
CONTINUOUS
 62
     7
100
AcDbPolyline
 90
        6
 70
   128
 43
0.0
 10
1043.1602750252
 20
1077.6654875639
 10
1043.4670154284
 20
1077.6602432865
 10
1044.3546776007
 20
1077.6510464761
 10
1045.7250032853
 20
1077.6532108698
 10
1047.4240634869
 20
1077.6635662455
 10
1048.6527387332
 20
1077.6654875639
  0
LINE
  5
128
330
1F
100
AcDbEntity
  8
0
  6
CONTINUOUS
 62
     7
100
AcDbLine
 10
1043.1602750252
 20
1077.6654875639
 30
0.0
 11
1042.298689885
 21
1094.1055559355
 31
0.0
  0
LINE
  5
129
330
1F
100
AcDbEntity
  8
0
  6
CONTINUOUS
 62
     7
100
AcDbLine
 10
1042.298689885
 20
1094.1055559355
 30
0.0
 11
1047.7911535929
 21
1094.1055559355
 31
0.0
  0
LINE
  5
12A
330
1F
100
AcDbEntity
  8
0
  6
CONTINUOUS
 62
     7
100
AcDbLine
 10
1381.1372075509
 20
1094.1055559355
 30
0.0
 11
1380.2756224107
 21
1077.6654875639
 31
0.0
  0
ARC
  5
12B
330
1F
100
AcDbEntity
  8
0
  6
CONTINUOUS
 62
     7
100
AcDbCircle
 10
1377.5293905567
 20
1407.3931638625
 30
0.0
 40
329.7391124914375
100
AcDbArc
 50
269.5228066434
 51
270.4771933566
  0
LINE
  5
12C
330
1F
100
AcDbEntity
  8
0
  6
CONTINUOUS
 62
     7
100
AcDbLine
 10
1374.7831587027
 20
1077.6654875639
 30
0.0
 11
1375.644743843
 21
1094.1055559355
 31
0.0
  0
LINE
  5
12D
330
1F
100
AcDbEntity
  8
0
  6
CONTINUOUS
 62
     7
100
AcDbLine
 10
1375.644743843
 20
1094.1055559355
 30
0.0
 11
1381.1372075509
 21
1094.1055559355
 31
0.0
  0
ELLIPSE
  5
12E
330
1F
100
AcDbEntity
  8
0
  6
CONTINUOUS
 62
     7
100
AcDbEllipse
 10
1043.8315048595
 20
1102.967611916
 30
0.0
 11
34.30586911032128
 21
-9.042354694321602
 31
0.0
210
0.0
220
0.0
230
1.0
 40
0.6896927366
 41
5.030929597768989
 42
5.07743147912894
  0
ELLIPSE
  5
12F
330
1F
100
AcDbEntity
  8
0
  6
CONTINUOUS
 62
     7
100
AcDbEllipse
 10
1379.6043925764
 20
1102.967611916
 30
0.0
 11
34.30586911032128
 21
9.042354694321828
 31
0.0
210
0.0
220
0.0
230
1.0
 40
0.6896927366
 41
4.347346481640463
 42
4.393848363000414
  0
LINE
  5
130
330
1F
100
AcDbEntity
  8
0
  6
CONTINUOUS
 62
     7
100
AcDbLine
 10
1050.252810521
 20
1077.6381066802
 30
0.0
 11
1373.1830869149
 21
1077.6381066802
 31
0.0
  0
LINE
  5
131
330
1F
100
AcDbEntity
  8
0
  6
CONTINUOUS
 62
     7
100
AcDbLine
 10
1047.7911535929
 20
1094.1055559355
 30
0.0
 11
1375.644743843
 21
1094.1055559355
 31
0.0
  0
ARC
  5
132
330
1F
100
AcDbEntity
  8
0
  6
CONTINUOUS
 62
     7
100
AcDbCircle
 10
1378.2794283098
 20
1077.770454009
 30
0.0
 40
1.998951936077614
100
AcDbArc
 50
285.3165777311
 51
356.9899718484
  0
LINE
  5
133
330
1F
100
AcDbEntity
  8
0
  6
CONTINUOUS
 62
     7
100
AcDbLine
 10
1374.8479340504
 20
1075.8425027865
 30
0.0
 11
1378.8074557017
 21
1075.8425027865
 31
0.0
  0
ARC
  5
134
330
1F
100
AcDbEntity
  8
0
  6
CONTINUOUS
 62
     7
100
AcDbCircle
 10
1820.0121945219
 20
1092.5729795357
 30
0.0
 40
445.4785378144754
100
AcDbArc
 50
181.9177037654
 51
182.1523173645
  0
ARC
  5
135
330
1F
100
AcDbEntity
  8
0
  6
CONTINUOUS
 62
     7
100
AcDbCircle
 10
603.4237027279
 20
1092.5729795423
 30
0.0
 40
445.4785380007082
100
AcDbArc
 50
357.8476826356
 51
358.0822962346
  0
LINE
  5
136
330
1F
100
AcDbEntity
  8
0
  6
CONTINUOUS
 62
     7
100
AcDbLine
 10
1044.6284417342
 20
1075.8425027865
 30
0.0
 11
1048.5879633855
 21
1075.8425027865
 31
0.0
  0
ARC
  5
137
330
1F
100
AcDbEntity
  8
0
  6
CONTINUOUS
 62
     7
100
AcDbCircle
 10
1045.1564691261
 20
1077.770454009
 30
0.0
 40
1.998951936077441
100
AcDbArc
 50
183.0100281516
 51
254.6834222689
  0
LINE
  5
138
330
1F
100
AcDbEntity
  8
0
  6
CONTINUOUS
 62
     7
100
AcDbLine
 10
1050.252810521
 20
1077.6381066802
 30
0.0
 11
1050.252810521
 21
1075.8425027865
 31
0.0
  0
LINE
  5
139
330
1F
100
AcDbEntity
  8
0
  6
CONTINUOUS
 62
     7
100
AcDbLine
 10
1048.5879633855
 20
1075.8425027865
 30
0.0
 11
1050.252810521
 21
1075.8425027865
 31
0.0
  0
LINE
  5
13A
330
1F
100
AcDbEntity
  8
0
  6
CONTINUOUS
 62
     7
100
AcDbLine
 10
1373.1830869149
 20
1075.8425027865
 30
0.0
 11
1374.8479340504
 21
1075.8425027865
 31
0.0
  0
LINE
  5
13B
330
1F
100
AcDbEntity
  8
0
  6
CONTINUOUS
 62
     7
100
AcDbLine
 10
1373.1830869149
 20
1077.6381066802
 30
0.0
 11
1373.1830869149
 21
1075.8425027865
 31
0.0
  0
LINE
  5
13C
330
1F
100
AcDbEntity
  8
0
  6
CONTINUOUS
 62
     7
100
AcDbLine
 10
1050.252810521
 20
1075.8425027865
 30
0.0
 11
1063.533187313
 21
1075.8425027865
 31
0.0
  0
LINE
  5
13D
330
1F
100
AcDbEntity
  8
0
  6
CONTINUOUS
 62
     7
100
AcDbLine
 10
1359.9027101229
 20
1075.8425027865
 30
0.0
 11
1373.1830869149
 21
1075.8425027865
 31
0.0
  0
LWPOLYLINE
  5
13E
330
1F
100
AcDbEntity
  8
0
  6
CONTINUOUS
 62
     7
100
AcDbPolyline
 90
        4
 70
   128
 43
0.0
 10
1359.9027101229
 20
1075.8425027865
 10
1359.9015925358
 20
1075.8213459316
 10
1359.9006239604
 20
1075.8026654634
 10
1359.8997745942
 20
1075.7864828024
  0
LINE
  5
13F
330
1F
100
AcDbEntity
  8
0
  6
CONTINUOUS
 62
     7
100
AcDbLine
 10
1359.8997745942
 20
1075.7864828024
 30
0.0
 11
1063.5361228417
 21
1075.7864828024
 31
0.0
  0
LINE
  5
140
330
1F
100
AcDbEntity
  8
0
  6
CONTINUOUS
 62
     7
100
AcDbLine
 10
1063.533187313
 20
1075.8425027865
 30
0.0
 11
1063.5361228417
 21
1075.7864828024
 31
0.0
  0
LINE
  5
141
330
1F
100
AcDbEntity
  8
0
  6
CONTINUOUS
 62
     7
100
AcDbLine
 10
1063.6688474845
 20
1073.2541003067
 30
0.0
 11
1359.7670499514
 21
1073.2541003067
 31
0.0
  0
LINE
  5
142
330
1F
100
AcDbEntity
  8
0
  6
CONTINUOUS
 62
     7
100
AcDbLine
 10
1359.7670499514
 20
1073.2541003067
 30
0.0
 11
1359.8997745942
 21
1075.7864828024
 31
0.0
  0
LINE
  5
143
330
1F
100
AcDbEntity
  8
0
  6
CONTINUOUS
 62
     7
100
AcDbLine
 10
1063.5361228417
 20
1075.7864828024
 30
0.0
 11
1063.6688474845
 21
1073.2541003067
 31
0.0
  0
ARC
  5
144
330
1F
100
AcDbEntity
  8
0
  6
CONTINUOUS
 62
     7
100
AcDbCircle
 10
1045.158967997
 20
1077.7427782541
 30
0.0
 40
2.000000000000105
100
AcDbArc
 50
183.0
 51
251.8304520764
  0
LWPOLYLINE
  5
145
330
1F
100
AcDbEntity
  8
0
  6
CONTINUOUS
 62
     7
100
AcDbPolyline
 90
        3
 70
   128
 43
0.0
 10
1043.1617055367
 20
1077.6381066802
 10
1043.1613479089
 20
1077.6449528325
 10
1043.1602750252
 20
1077.6654875639
  0
ARC
  5
146
330
1F
100
AcDbEntity
  8
0
  6
CONTINUOUS
 62
     7
100
AcDbCircle
 10
1378.2769294389
 20
1077.7427782541
 30
0.0
 40
2.000000000000105
100
AcDbArc
 50
288.1695479236
 51
357.0
  0
LWPOLYLINE
  5
147
330
1F
100
AcDbEntity
  8
0
  6
CONTINUOUS
 62
     7
100
AcDbPolyline
 90
        3
 70
   128
 43
0.0
 10
1380.2756224107
 20
1077.6654875639
 10
1380.274549527
 20
1077.6449528325
 10
1380.2741918992
 20
1077.6381066802
  0
LINE
  5
148
330
1F
100
AcDbEntity
  8
0
  6
CONTINUOUS
 62
     7
100
AcDbLine
 10
1359.6700135897
 20
1071.4024773601
 30
0.0
 11
1063.7658838462
 21
1071.4024773601
 31
0.0
  0
LWPOLYLINE
  5
149
330
1F
100
AcDbEntity
  8
0
  6
CONTINUOUS
 62
     7
100
AcDbPolyline
 90
        8
 70
   128
 43
0.0
 10
1359.7670499514
 20
1073.2541003067
 10
1359.7612235974
 20
1073.142688981
 10
1359.7519997786
 20
1072.9669512052
 10
1359.7397510241
 20
1072.7330160129
 10
1359.7248647641
 20
1072.4490389961
 10
1359.7078774403
 20
1072.1249219764
 10
1359.6893850993
 20
1071.7719656217
 10
1359.6700135897
 20
1071.4024773601
  0
LWPOLYLINE
  5
14A
330
1F
100
AcDbEntity
  8
0
  6
CONTINUOUS
 62
     7
100
AcDbPolyline
 90
        8
 70
   128
 43
0.0
 10
1063.7658838462
 20
1071.4024773601
 10
1063.7465123366
 20
1071.7719656217
 10
1063.7280199956
 20
1072.1249219764
 10
1063.7110326718
 20
1072.4490389961
 10
1063.6961464118
 20
1072.7330160129
 10
1063.6838976573
 20
1072.9669512052
 10
1063.6746738385
 20
1073.142688981
 10
1063.6688474845
 20
1073.2541003067
  0
LINE
  5
14B
330
1F
100
AcDbEntity
  8
0
  6
CONTINUOUS
 62
     7
100
AcDbLine
 10
1062.7482686471
 20
1075.8425027865
 30
0.0
 11
1063.913777871
 21
1053.6035003874
 31
0.0
  0
LINE
  5
14C
330
1F
100
AcDbEntity
  8
0
  6
CONTINUOUS
 62
     7
100
AcDbLine
 10
1062.8516976069
 20
1053.6035003874
 30
0.0
 11
1063.913777871
 21
1053.6035003874
 31
0.0
  0
LINE
  5
14D
330
1F
100
AcDbEntity
  8
0
  6
CONTINUOUS
 62
     7
100
AcDbLine
 10
1058.5249666403
 20
1053.6035003874
 30
0.0
 11
1062.8516976069
 21
1053.6035003874
 31
0.0
  0
LINE
  5
14E
330
1F
100
AcDbEntity
  8
0
  6
CONTINUOUS
 62
     7
100
AcDbLine
 10
1058.4213141631
 20
1053.6035003874
 30
0.0
 11
1058.5249666403
 21
1053.6035003874
 31
0.0
  0
LINE
  5
14F
330
1F
100
AcDbEntity
  8
0
  6
CONTINUOUS
 62
     7
100
AcDbLine
 10
1058.4213141631
 20
1053.6035003874
 30
0.0
 11
1057.2558198403
 21
1075.8425027865
 31
0.0
  0
LINE
  5
150
330
1F
100
AcDbEntity
  8
0
  6
CONTINUOUS
 62
     7
100
AcDbLine
 10
1366.1800775956
 20
1075.8425027865
 30
0.0
 11
1365.0145832728
 21
1053.6035003874
 31
0.0
  0
LINE
  5
151
330
1F
100
AcDbEntity
  8
0
  6
CONTINUOUS
 62
     7
100
AcDbLine
 10
1364.9109307955
 20
1053.6035003874
 30
0.0
 11
1365.0145832728
 21
1053.6035003874
 31
0.0
  0
LINE
  5
152
330
1F
100
AcDbEntity
  8
0
  6
CONTINUOUS
 62
     7
100
AcDbLine
 10
1360.584199829
 20
1053.6035003874
 30
0.0
 11
1364.9109307955
 21
1053.6035003874
 31
0.0
  0
LINE
  5
153
330
1F
100
AcDbEntity
  8
0
  6
CONTINUOUS
 62
     7
100
AcDbLine
 10
1359.5221195649
 20
1053.6035003874
 30
0.0
 11
1360.584199829
 21
1053.6035003874
 31
0.0
  0
LINE
  5
154
330
1F
100
AcDbEntity
  8
0
  6
CONTINUOUS
 62
     7
100
AcDbLine
 10
1359.5221195649
 20
1053.6035003874
 30
0.0
 11
1360.6876287888
 21
1075.8425027865
 31
0.0
  0
LINE
  5
155
330
1F
100
AcDbEntity
  8
0
  6
CONTINUOUS
 62
     7
100
AcDbLine
 10
1063.913777871
 20
1053.6035003874
 30
0.0
 11
1359.5221195649
 21
1053.6035003874
 31
0.0
  0
LINE
  5
156
330
1F
100
AcDbEntity
  8
0
  6
CONTINUOUS
 62
     7
100
AcDbLine
 10
1063.913777871
 20
1052.1055537078
 30
0.0
 11
1060.0849394034
 21
1052.1055537078
 31
0.0
  0
LINE
  5
157
330
1F
100
AcDbEntity
  8
0
  6
CONTINUOUS
 62
     7
100
AcDbLine
 10
1058.4213141631
 20
1053.6035003874
 30
0.0
 11
1060.0849394034
 21
1052.1055537078
 31
0.0
  0
LINE
  5
158
330
1F
100
AcDbEntity
  8
0
  6
CONTINUOUS
 62
     7
100
AcDbLine
 10
1063.913777871
 20
1052.1055537078
 30
0.0
 11
1063.913777871
 21
1053.6035003874
 31
0.0
  0
LINE
  5
159
330
1F
100
AcDbEntity
  8
0
  6
CONTINUOUS
 62
     7
100
AcDbLine
 10
1363.3509580325
 20
1052.1055537078
 30
0.0
 11
1359.5221195649
 21
1052.1055537078
 31
0.0
  0
LINE
  5
15A
330
1F
100
AcDbEntity
  8
0
  6
CONTINUOUS
 62
     7
100
AcDbLine
 10
1359.5221195649
 20
1052.1055537078
 30
0.0
 11
1359.5221195649
 21
1053.6035003874
 31
0.0
  0
LINE
  5
15B
330
1F
100
AcDbEntity
  8
0
  6
CONTINUOUS
 62
     7
100
AcDbLine
 10
1363.3509580325
 20
1052.1055537078
 30
0.0
 11
1365.0145832728
 21
1053.6035003874
 31
0.0
  0
LINE
  5
15C
330
1F
100
AcDbEntity
  8
0
  6
CONTINUOUS
 62
     7
100
AcDbLine
 10
1359.5221195649
 20
1052.1055537078
 30
0.0
 11
1063.913777871
 21
1052.1055537078
 31
0.0
  0
LINE
  5
15D
330
1F
100
AcDbEntity
  8
0
  6
CONTINUOUS
 62
     7
100
AcDbLine
 10
1378.6927465628
 20
1075.7864828024
 30
0.0
 11
1367.5372753571
 21
1073.4153131757
 31
0.0
  0
ARC
  5
15E
330
1F
100
AcDbEntity
  8
0
  6
CONTINUOUS
 62
     7
100
AcDbCircle
 10
1367.9531009225
 20
1071.4590183819
 30
0.0
 40
1.999999999999946
100
AcDbArc
 50
102.0
 51
177.0
  0
ARC
  5
15F
330
1F
100
AcDbEntity
  8
0
  6
CONTINUOUS
 62
     7
100
AcDbCircle
 10
1055.4827965134
 20
1071.4590183819
 30
0.0
 40
1.999999999999946
100
AcDbArc
 50
3.0
 51
78.0
  0
LINE
  5
160
330
1F
100
AcDbEntity
  8
0
  6
CONTINUOUS
 62
     7
100
AcDbLine
 10
1055.8986220788
 20
1073.4153131757
 30
0.0
 11
1044.7431508731
 21
1075.7864828024
 31
0.0
  0
LINE
  5
161
330
1F
100
AcDbEntity
  8
0
  6
CONTINUOUS
 62
     7
100
AcDbLine
 10
1375.644743843
 20
356.3132474833
 30
0.0
 11
1374.7831587027
 21
372.7533158549
 31
0.0
  0
LWPOLYLINE
  5
162
330
1F
100
AcDbEntity
  8
0
  6
CONTINUOUS
 62
     7
100
AcDbPolyline
 90
        6
 70
   128
 43
0.0
 10
1380.2756224107
 20
372.7533158549
 10
1379.9688820075
 20
372.7585601323
 10
1379.0812198352
 20
372.7677569427
 10
1377.7108941506
 20
372.765592549
 10
1376.011833949
 20
372.7552371733
 10
1374.7831587027
 20
372.7533158549
  0
LINE
  5
163
330
1F
100
AcDbEntity
  8
0
  6
CONTINUOUS
 62
     7
100
AcDbLine
 10
1380.2756224107
 20
372.7533158549
 30
0.0
 11
1381.1372075509
 21
356.3132474833
 31
0.0
  0
LINE
  5
164
330
1F
100
AcDbEntity
  8
0
  6
CONTINUOUS
 62
     7
100
AcDbLine
 10
1381.1372075509
 20
356.3132474833
 30
0.0
 11
1375.644743843
 21
356.3132474833
 31
0.0
  0
LINE
  5
165
330
1F
100
AcDbEntity
  8
0
  6
CONTINUOUS
 62
     7
100
AcDbLine
 10
1048.6527387332
 20
372.7533158549
 30
0.0
 11
1047.7911535929
 21
356.3132474833
 31
0.0
  0
ELLIPSE
  5
166
330
1F
100
AcDbEntity
  8
0
  6
CONTINUOUS
 62
     7
100
AcDbEllipse
 10
1043.8315048595
 20
347.4511915028
 30
0.0
 11
34.30586911032128
 21
9.04235469432172
 31
0.0
210
0.0
220
0.0
230
1.0
 40
0.6896927366
 41
1.205753828050662
 42
1.252255709410605
  0
LINE
  5
167
330
1F
100
AcDbEntity
  8
0
  6
CONTINUOUS
 62
     7
100
AcDbLine
 10
1373.1830869149
 20
372.7806967386
 30
0.0
 11
1050.252810521
 21
372.7806967386
 31
0.0
  0
ELLIPSE
  5
168
330
1F
100
AcDbEntity
  8
0
  6
CONTINUOUS
 62
     7
100
AcDbEllipse
 10
1379.6043925764
 20
347.4511915028
 30
0.0
 11
34.30586911032128
 21
-9.04235469432172
 31
0.0
210
0.0
220
0.0
230
1.0
 40
0.6896927366
 41
1.889336944179188
 42
1.935838825539131
  0
LINE
  5
169
330
1F
100
AcDbEntity
  8
0
  6
CONTINUOUS
 62
     7
100
AcDbLine
 10
1375.644743843
 20
356.3132474833
 30
0.0
 11
1047.7911535929
 21
356.3132474833
 31
0.0
  0
LINE
  5
16A
330
1F
100
AcDbEntity
  8
0
  6
CONTINUOUS
 62
     7
100
AcDbLine
 10
1042.298689885
 20
356.3132474833
 30
0.0
 11
1043.1602750252
 21
372.7533158549
 31
0.0
  0
ARC
  5
16B
330
1F
100
AcDbEntity
  8
0
  6
CONTINUOUS
 62
     7
100
AcDbCircle
 10
1045.9065068792
 20
43.0256395564
 30
0.0
 40
329.7391124913292
100
AcDbArc
 50
89.5228066434
 51
90.4771933566
  0
LINE
  5
16C
330
1F
100
AcDbEntity
  8
0
  6
CONTINUOUS
 62
     7
100
AcDbLine
 10
1047.7911535929
 20
356.3132474833
 30
0.0
 11
1042.298689885
 21
356.3132474833
 31
0.0
  0
ARC
  5
16D
330
1F
100
AcDbEntity
  8
0
  6
CONTINUOUS
 62
     7
100
AcDbCircle
 10
1045.1564691261
 20
372.6483494098
 30
0.0
 40
1.998951936077454
100
AcDbArc
 50
105.3165777311
 51
176.9899718484
  0
LINE
  5
16E
330
1F
100
AcDbEntity
  8
0
  6
CONTINUOUS
 62
     7
100
AcDbLine
 10
1048.5879633855
 20
374.5763006323
 30
0.0
 11
1044.6284417342
 21
374.5763006323
 31
0.0
  0
ARC
  5
16F
330
1F
100
AcDbEntity
  8
0
  6
CONTINUOUS
 62
     7
100
AcDbCircle
 10
603.4237027279
 20
357.8458238766
 30
0.0
 40
445.4785380007082
100
AcDbArc
 50
1.9177037654
 51
2.1523173644
  0
ARC
  5
170
330
1F
100
AcDbEntity
  8
0
  6
CONTINUOUS
 62
     7
100
AcDbCircle
 10
1820.0121945219
 20
357.8458238831
 30
0.0
 40
445.4785378144754
100
AcDbArc
 50
177.8476826355
 51
178.0822962346
  0
LINE
  5
171
330
1F
100
AcDbEntity
  8
0
  6
CONTINUOUS
 62
     7
100
AcDbLine
 10
1378.8074557017
 20
374.5763006323
 30
0.0
 11
1374.8479340504
 21
374.5763006323
 31
0.0
  0
ARC
  5
172
330
1F
100
AcDbEntity
  8
0
  6
CONTINUOUS
 62
     7
100
AcDbCircle
 10
1378.2794283098
 20
372.6483494098
 30
0.0
 40
1.998951936077559
100
AcDbArc
 50
3.0100281516
 51
74.6834222689
  0
LINE
  5
173
330
1F
100
AcDbEntity
  8
0
  6
CONTINUOUS
 62
     7
100
AcDbLine
 10
1050.252810521
 20
374.5763006323
 30
0.0
 11
1048.5879633855
 21
374.5763006323
 31
0.0
  0
LINE
  5
174
330
1F
100
AcDbEntity
  8
0
  6
CONTINUOUS
 62
     7
100
AcDbLine
 10
1050.252810521
 20
374.5763006323
 30
0.0
 11
1050.252810521
 21
372.7806967386
 31
0.0
  0
LINE
  5
175
330
1F
100
AcDbEntity
  8
0
  6
CONTINUOUS
 62
     7
100
AcDbLine
 10
1373.1830869149
 20
374.5763006323
 30
0.0
 11
1373.1830869149
 21
372.7806967386
 31
0.0
  0
LINE
  5
176
330
1F
100
AcDbEntity
  8
0
  6
CONTINUOUS
 62
     7
100
AcDbLine
 10
1374.8479340504
 20
374.5763006323
 30
0.0
 11
1373.1830869149
 21
374.5763006323
 31
0.0
  0
LINE
  5
177
330
1F
100
AcDbEntity
  8
0
  6
CONTINUOUS
 62
     7
100
AcDbLine
 10
1063.5361228417
 20
374.6323206164
 30
0.0
 11
1359.8997745942
 21
374.6323206164
 31
0.0
  0
LINE
  5
178
330
1F
100
AcDbEntity
  8
0
  6
CONTINUOUS
 62
     7
100
AcDbLine
 10
1359.9027101229
 20
374.5763006323
 30
0.0
 11
1359.8997745942
 21
374.6323206164
 31
0.0
  0
LINE
  5
179
330
1F
100
AcDbEntity
  8
0
  6
CONTINUOUS
 62
     7
100
AcDbLine
 10
1373.1830869149
 20
374.5763006323
 30
0.0
 11
1359.9027101229
 21
374.5763006323
 31
0.0
  0
LINE
  5
17A
330
1F
100
AcDbEntity
  8
0
  6
CONTINUOUS
 62
     7
100
AcDbLine
 10
1063.533187313
 20
374.5763006323
 30
0.0
 11
1050.252810521
 21
374.5763006323
 31
0.0
  0
LWPOLYLINE
  5
17B
330
1F
100
AcDbEntity
  8
0
  6
CONTINUOUS
 62
     7
100
AcDbPolyline
 90
        4
 70
   128
 43
0.0
 10
1063.533187313
 20
374.5763006323
 10
1063.5343049
 20
374.5974574872
 10
1063.5352734755
 20
374.6161379554
 10
1063.5361228417
 20
374.6323206164
  0
LINE
  5
17C
330
1F
100
AcDbEntity
  8
0
  6
CONTINUOUS
 62
     7
100
AcDbLine
 10
1359.7670499514
 20
377.1647031121
 30
0.0
 11
1063.6688474845
 21
377.1647031121
 31
0.0
  0
LINE
  5
17D
330
1F
100
AcDbEntity
  8
0
  6
CONTINUOUS
 62
     7
100
AcDbLine
 10
1063.6688474845
 20
377.1647031121
 30
0.0
 11
1063.5361228417
 21
374.6323206164
 31
0.0
  0
LINE
  5
17E
330
1F
100
AcDbEntity
  8
0
  6
CONTINUOUS
 62
     7
100
AcDbLine
 10
1359.8997745942
 20
374.6323206164
 30
0.0
 11
1359.7670499514
 21
377.1647031121
 31
0.0
  0
ARC
  5
17F
330
1F
100
AcDbEntity
  8
0
  6
CONTINUOUS
 62
     7
100
AcDbCircle
 10
1378.2769294389
 20
372.6760251647
 30
0.0
 40
2.000000000000065
100
AcDbArc
 50
3.0
 51
71.8304520764
  0
LWPOLYLINE
  5
180
330
1F
100
AcDbEntity
  8
0
  6
CONTINUOUS
 62
     7
100
AcDbPolyline
 90
        3
 70
   128
 43
0.0
 10
1380.2741918992
 20
372.7806967386
 10
1380.274549527
 20
372.7738505863
 10
1380.2756224107
 20
372.7533158549
  0
ARC
  5
181
330
1F
100
AcDbEntity
  8
0
  6
CONTINUOUS
 62
     7
100
AcDbCircle
 10
1045.158967997
 20
372.6760251647
 30
0.0
 40
2.000000000000105
100
AcDbArc
 50
108.1695479236
 51
177.0
  0
LWPOLYLINE
  5
182
330
1F
100
AcDbEntity
  8
0
  6
CONTINUOUS
 62
     7
100
AcDbPolyline
 90
        3
 70
   128
 43
0.0
 10
1043.1602750252
 20
372.7533158549
 10
1043.1613479089
 20
372.7738505863
 10
1043.1617055367
 20
372.7806967386
  0
LINE
  5
183
330
1F
100
AcDbEntity
  8
0
  6
CONTINUOUS
 62
     7
100
AcDbLine
 10
1063.7658838462
 20
379.0163260587
 30
0.0
 11
1359.6700135897
 21
379.0163260587
 31
0.0
  0
LWPOLYLINE
  5
184
330
1F
100
AcDbEntity
  8
0
  6
CONTINUOUS
 62
     7
100
AcDbPolyline
 90
        8
 70
   128
 43
0.0
 10
1063.6688474845
 20
377.1647031121
 10
1063.6746738385
 20
377.2761144378
 10
1063.6838976573
 20
377.4518522136
 10
1063.6961464118
 20
377.6857874059
 10
1063.7110326718
 20
377.9697644227
 10
1063.7280199956
 20
378.2938814424
 10
1063.7465123366
 20
378.6468377971
 10
1063.7658838462
 20
379.0163260587
  0
LWPOLYLINE
  5
185
330
1F
100
AcDbEntity
  8
0
  6
CONTINUOUS
 62
     7
100
AcDbPolyline
 90
        8
 70
   128
 43
0.0
 10
1359.6700135897
 20
379.0163260587
 10
1359.6893850993
 20
378.6468377971
 10
1359.7078774403
 20
378.2938814424
 10
1359.7248647641
 20
377.9697644227
 10
1359.7397510241
 20
377.6857874059
 10
1359.7519997786
 20
377.4518522136
 10
1359.7612235974
 20
377.2761144378
 10
1359.7670499514
 20
377.1647031121
  0
LINE
  5
186
330
1F
100
AcDbEntity
  8
0
  6
CONTINUOUS
 62
     7
100
AcDbLine
 10
1057.2558198403
 20
374.5763006323
 30
0.0
 11
1058.4213141631
 21
396.8153030314
 31
0.0
  0
LINE
  5
187
330
1F
100
AcDbEntity
  8
0
  6
CONTINUOUS
 62
     7
100
AcDbLine
 10
1058.5249666403
 20
396.8153030314
 30
0.0
 11
1058.4213141631
 21
396.8153030314
 31
0.0
  0
LINE
  5
188
330
1F
100
AcDbEntity
  8
0
  6
CONTINUOUS
 62
     7
100
AcDbLine
 10
1062.8516976069
 20
396.8153030314
 30
0.0
 11
1058.5249666403
 21
396.8153030314
 31
0.0
  0
LINE
  5
189
330
1F
100
AcDbEntity
  8
0
  6
CONTINUOUS
 62
     7
100
AcDbLine
 10
1063.913777871
 20
396.8153030314
 30
0.0
 11
1062.8516976069
 21
396.8153030314
 31
0.0
  0
LINE
  5
18A
330
1F
100
AcDbEntity
  8
0
  6
CONTINUOUS
 62
     7
100
AcDbLine
 10
1063.913777871
 20
396.8153030314
 30
0.0
 11
1062.7482686471
 21
374.5763006323
 31
0.0
  0
LINE
  5
18B
330
1F
100
AcDbEntity
  8
0
  6
CONTINUOUS
 62
     7
100
AcDbLine
 10
1365.0145832728
 20
396.8153030314
 30
0.0
 11
1366.1800775956
 21
374.5763006323
 31
0.0
  0
LINE
  5
18C
330
1F
100
AcDbEntity
  8
0
  6
CONTINUOUS
 62
     7
100
AcDbLine
 10
1360.6876287888
 20
374.5763006323
 30
0.0
 11
1359.5221195649
 21
396.8153030314
 31
0.0
  0
LINE
  5
18D
330
1F
100
AcDbEntity
  8
0
  6
CONTINUOUS
 62
     7
100
AcDbLine
 10
1360.584199829
 20
396.8153030314
 30
0.0
 11
1359.5221195649
 21
396.8153030314
 31
0.0
  0
LINE
  5
18E
330
1F
100
AcDbEntity
  8
0
  6
CONTINUOUS
 62
     7
100
AcDbLine
 10
1364.9109307955
 20
396.8153030314
 30
0.0
 11
1360.584199829
 21
396.8153030314
 31
0.0
  0
LINE
  5
18F
330
1F
100
AcDbEntity
  8
0
  6
CONTINUOUS
 62
     7
100
AcDbLine
 10
1365.0145832728
 20
396.8153030314
 30
0.0
 11
1364.9109307955
 21
396.8153030314
 31
0.0
  0
LINE
  5
190
330
1F
100
AcDbEntity
  8
0
  6
CONTINUOUS
 62
     7
100
AcDbLine
 10
1359.5221195649
 20
396.8153030314
 30
0.0
 11
1063.913777871
 21
396.8153030314
 31
0.0
  0
LINE
  5
191
330
1F
100
AcDbEntity
  8
0
  6
CONTINUOUS
 62
     7
100
AcDbLine
 10
1058.4213141631
 20
396.8153030314
 30
0.0
 11
1060.0849394034
 21
398.313249711
 31
0.0
  0
LINE
  5
192
330
1F
100
AcDbEntity
  8
0
  6
CONTINUOUS
 62
     7
100
AcDbLine
 10
1060.0849394034
 20
398.313249711
 30
0.0
 11
1063.913777871
 21
398.313249711
 31
0.0
  0
LINE
  5
193
330
1F
100
AcDbEntity
  8
0
  6
CONTINUOUS
 62
     7
100
AcDbLine
 10
1063.913777871
 20
396.8153030314
 30
0.0
 11
1063.913777871
 21
398.313249711
 31
0.0
  0
LINE
  5
194
330
1F
100
AcDbEntity
  8
0
  6
CONTINUOUS
 62
     7
100
AcDbLine
 10
1359.5221195649
 20
398.313249711
 30
0.0
 11
1363.3509580325
 21
398.313249711
 31
0.0
  0
LINE
  5
195
330
1F
100
AcDbEntity
  8
0
  6
CONTINUOUS
 62
     7
100
AcDbLine
 10
1363.3509580325
 20
398.313249711
 30
0.0
 11
1365.0145832728
 21
396.8153030314
 31
0.0
  0
LINE
  5
196
330
1F
100
AcDbEntity
  8
0
  6
CONTINUOUS
 62
     7
100
AcDbLine
 10
1359.5221195649
 20
396.8153030314
 30
0.0
 11
1359.5221195649
 21
398.313249711
 31
0.0
  0
LINE
  5
197
330
1F
100
AcDbEntity
  8
0
  6
CONTINUOUS
 62
     7
100
AcDbLine
 10
1063.913777871
 20
398.313249711
 30
0.0
 11
1359.5221195649
 21
398.313249711
 31
0.0
  0
ARC
  5
198
330
1F
100
AcDbEntity
  8
0
  6
CONTINUOUS
 62
     7
100
AcDbCircle
 10
1367.9531009225
 20
378.9597850369
 30
0.0
 40
2.000000000000001
100
AcDbArc
 50
183.0
 51
258.0
  0
LINE
  5
199
330
1F
100
AcDbEntity
  8
0
  6
CONTINUOUS
 62
     7
100
AcDbLine
 10
1367.5372753571
 20
377.0034902432
 30
0.0
 11
1378.6927465628
 21
374.6323206164
 31
0.0
  0
LINE
  5
19A
330
1F
100
AcDbEntity
  8
0
  6
CONTINUOUS
 62
     7
100
AcDbLine
 10
1044.7431508731
 20
374.6323206164
 30
0.0
 11
1055.8986220788
 21
377.0034902432
 31
0.0
  0
ARC
  5
19B
330
1F
100
AcDbEntity
  8
0
  6
CONTINUOUS
 62
     7
100
AcDbCircle
 10
1055.4827965134
 20
378.9597850369
 30
0.0
 40
2.000000000000001
100
AcDbArc
 50
282.0
 51
357.0
  0
LINE
  5
19C
330
1F
100
AcDbEntity
  8
0
  6
CONTINUOUS
 62
     7
100
AcDbLine
 10
1554.1696584996
 20
916.3862036293
 30
0.0
 11
1537.729590128
 21
915.5246184891
 31
0.0
  0
LWPOLYLINE
  5
19D
330
1F
100
AcDbEntity
  8
0
  6
CONTINUOUS
 62
     7
100
AcDbPolyline
 90
        6
 70
   128
 43
0.0
 10
1537.729590128
 20
921.017082197
 10
1537.7243458506
 20
920.7103417939
 10
1537.7151490402
 20
919.8226647204
 10
1537.7173134339
 20
918.452353937
 10
1537.7276688096
 20
916.7532937353
 10
1537.729590128
 20
915.5246184891
  0
LINE
  5
19E
330
1F
100
AcDbEntity
  8
0
  6
CONTINUOUS
 62
     7
100
AcDbLine
 10
1537.729590128
 20
921.017082197
 30
0.0
 11
1554.1696584996
 21
921.8786673373
 31
0.0
  0
LINE
  5
19F
330
1F
100
AcDbEntity
  8
0
  6
CONTINUOUS
 62
     7
100
AcDbLine
 10
1554.1696584996
 20
921.8786673373
 30
0.0
 11
1554.1696584996
 21
916.3862036293
 31
0.0
  0
ELLIPSE
  5
1A0
330
1F
100
AcDbEntity
  8
0
  6
CONTINUOUS
 62
     7
100
AcDbEllipse
 10
1563.0317144801
 20
920.3458455679
 30
0.0
 11
9.042354694321602
 21
34.30586911032128
 31
0.0
210
0.0
220
0.0
230
1.0
 40
0.6896927366
 41
1.889336944179179
 42
1.93583882553913
  0
LINE
  5
1A1
330
1F
100
AcDbEntity
  8
0
  6
CONTINUOUS
 62
     7
100
AcDbLine
 10
1537.729590128
 20
534.8941849297
 30
0.0
 11
1554.1696584996
 21
534.0325997895
 31
0.0
  0
ELLIPSE
  5
1A2
330
1F
100
AcDbEntity
  8
0
  6
CONTINUOUS
 62
     7
100
AcDbEllipse
 10
1563.0317144801
 20
530.0729578509
 30
0.0
 11
-9.042354694321602
 21
34.30586911032117
 31
0.0
210
0.0
220
0.0
230
1.0
 40
0.6896927366
 41
1.205753828050659
 42
1.252255709410609
  0
LINE
  5
1A3
330
1F
100
AcDbEntity
  8
0
  6
CONTINUOUS
 62
     7
100
AcDbLine
 10
1537.7022092443
 20
913.9245467013
 30
0.0
 11
1537.7022092443
 21
536.4942567175
 31
0.0
  0
LINE
  5
1A4
330
1F
100
AcDbEntity
  8
0
  6
CONTINUOUS
 62
     7
100
AcDbLine
 10
1554.1696584996
 20
916.3862036293
 30
0.0
 11
1554.1696584996
 21
534.0325997895
 31
0.0
  0
LINE
  5
1A5
330
1F
100
AcDbEntity
  8
0
  6
CONTINUOUS
 62
     7
100
AcDbLine
 10
1554.1696584996
 20
528.5401360815
 30
0.0
 11
1537.729590128
 21
529.4017212218
 31
0.0
  0
ARC
  5
1A6
330
1F
100
AcDbEntity
  8
0
  6
CONTINUOUS
 62
     7
100
AcDbCircle
 10
1867.4571492904
 20
532.1479530757
 30
0.0
 40
329.7389953592664
100
AcDbArc
 50
179.5228064739
 51
180.4771935261
  0
LINE
  5
1A7
330
1F
100
AcDbEntity
  8
0
  6
CONTINUOUS
 62
     7
100
AcDbLine
 10
1554.1696584996
 20
534.0325997895
 30
0.0
 11
1554.1696584996
 21
528.5401360815
 31
0.0
  0
ARC
  5
1A8
330
1F
100
AcDbEntity
  8
0
  6
CONTINUOUS
 62
     7
100
AcDbCircle
 10
1552.6370821012
 20
1360.7536543506
 30
0.0
 40
445.478537856807
100
AcDbArc
 50
267.8476826356
 51
268.0822962346
  0
LINE
  5
1A9
330
1F
100
AcDbEntity
  8
0
  6
CONTINUOUS
 62
     7
100
AcDbLine
 10
1535.9066053507
 20
919.5489154881
 30
0.0
 11
1535.9066053507
 21
915.5893938368
 31
0.0
  0
ARC
  5
1AA
330
1F
100
AcDbEntity
  8
0
  6
CONTINUOUS
 62
     7
100
AcDbCircle
 10
1537.8345687038
 20
919.0208730338
 30
0.0
 40
1.998967614714644
100
AcDbArc
 50
93.0103527003
 51
164.6830977202
  0
ARC
  5
1AB
330
1F
100
AcDbEntity
  8
0
  6
CONTINUOUS
 62
     7
100
AcDbCircle
 10
1537.8345687038
 20
531.397930385
 30
0.0
 40
1.998967614714644
100
AcDbArc
 50
195.3169022798
 51
266.9896472997
  0
LINE
  5
1AC
330
1F
100
AcDbEntity
  8
0
  6
CONTINUOUS
 62
     7
100
AcDbLine
 10
1535.9066053507
 20
534.829409582
 30
0.0
 11
1535.9066053507
 21
530.8698879307
 31
0.0
  0
ARC
  5
1AD
330
1F
100
AcDbEntity
  8
0
  6
CONTINUOUS
 62
     7
100
AcDbCircle
 10
1552.6370821012
 20
89.6651490683
 30
0.0
 40
445.4785378568075
100
AcDbArc
 50
91.9177037654
 51
92.1523173644
  0
LINE
  5
1AE
330
1F
100
AcDbEntity
  8
0
  6
CONTINUOUS
 62
     7
100
AcDbLine
 10
1537.7022092443
 20
913.9245467013
 30
0.0
 11
1535.9066053507
 21
913.9245467013
 31
0.0
  0
LINE
  5
1AF
330
1F
100
AcDbEntity
  8
0
  6
CONTINUOUS
 62
     7
100
AcDbLine
 10
1535.9066053507
 20
915.5893938368
 30
0.0
 11
1535.9066053507
 21
913.9245467013
 31
0.0
  0
LINE
  5
1B0
330
1F
100
AcDbEntity
  8
0
  6
CONTINUOUS
 62
     7
100
AcDbLine
 10
1535.9066053507
 20
536.4942567175
 30
0.0
 11
1535.9066053507
 21
534.829409582
 31
0.0
  0
LINE
  5
1B1
330
1F
100
AcDbEntity
  8
0
  6
CONTINUOUS
 62
     7
100
AcDbLine
 10
1537.7022092443
 20
536.4942567175
 30
0.0
 11
1535.9066053507
 21
536.4942567175
 31
0.0
  0
LINE
  5
1B2
330
1F
100
AcDbEntity
  8
0
  6
CONTINUOUS
 62
     7
100
AcDbLine
 10
1535.9066053507
 20
913.9245467013
 30
0.0
 11
1535.9066053507
 21
899.8941646641
 31
0.0
  0
LINE
  5
1B3
330
1F
100
AcDbEntity
  8
0
  6
CONTINUOUS
 62
     7
100
AcDbLine
 10
1535.9066053507
 20
550.5246387547
 30
0.0
 11
1535.9066053507
 21
536.4942567175
 31
0.0
  0
LWPOLYLINE
  5
1B4
330
1F
100
AcDbEntity
  8
0
  6
CONTINUOUS
 62
     7
100
AcDbPolyline
 90
        4
 70
   128
 43
0.0
 10
1535.9066053507
 20
550.5246387547
 10
1535.8854484957
 20
550.5257563418
 10
1535.8667680275
 20
550.5267249173
 10
1535.8505853665
 20
550.5275742834
  0
LINE
  5
1B5
330
1F
100
AcDbEntity
  8
0
  6
CONTINUOUS
 62
     7
100
AcDbLine
 10
1535.8505853665
 20
550.5275742834
 30
0.0
 11
1535.8505853665
 21
899.8912291354
 31
0.0
  0
LINE
  5
1B6
330
1F
100
AcDbEntity
  8
0
  6
CONTINUOUS
 62
     7
100
AcDbLine
 10
1535.9066053507
 20
899.8941646641
 30
0.0
 11
1535.8505853665
 21
899.8912291354
 31
0.0
  0
LINE
  5
1B7
330
1F
100
AcDbEntity
  8
0
  6
CONTINUOUS
 62
     7
100
AcDbLine
 10
1533.4794157398
 20
899.766953451
 30
0.0
 11
1533.4794157398
 21
550.6518499678
 31
0.0
  0
LINE
  5
1B8
330
1F
100
AcDbEntity
  8
0
  6
CONTINUOUS
 62
     7
100
AcDbLine
 10
1533.4794157398
 20
550.6518499678
 30
0.0
 11
1535.8505853665
 21
550.5275742834
 31
0.0
  0
LINE
  5
1B9
330
1F
100
AcDbEntity
  8
0
  6
CONTINUOUS
 62
     7
100
AcDbLine
 10
1535.8505853665
 20
899.8912291354
 30
0.0
 11
1533.4794157398
 21
899.766953451
 31
0.0
  0
ARC
  5
1BA
330
1F
100
AcDbEntity
  8
0
  6
CONTINUOUS
 62
     7
100
AcDbCircle
 10
1537.8068808182
 20
919.0183824304
 30
0.0
 40
2.000000000000065
100
AcDbArc
 50
93.0
 51
161.8304520764
  0
LWPOLYLINE
  5
1BB
330
1F
100
AcDbEntity
  8
0
  6
CONTINUOUS
 62
     7
100
AcDbPolyline
 90
        3
 70
   128
 43
0.0
 10
1537.7022092443
 20
921.0156367844
 10
1537.7090553966
 20
921.0159944123
 10
1537.729590128
 20
921.017082197
  0
ARC
  5
1BC
330
1F
100
AcDbEntity
  8
0
  6
CONTINUOUS
 62
     7
100
AcDbCircle
 10
1537.8068808182
 20
531.4004209884
 30
0.0
 40
2.000000000000065
100
AcDbArc
 50
198.1695479236
 51
267.0
  0
LWPOLYLINE
  5
1BD
330
1F
100
AcDbEntity
  8
0
  6
CONTINUOUS
 62
     7
100
AcDbPolyline
 90
        3
 70
   128
 43
0.0
 10
1537.729590128
 20
529.4017212218
 10
1537.7090553966
 20
529.4028090065
 10
1537.7022092443
 20
529.4031666344
  0
LINE
  5
1BE
330
1F
100
AcDbEntity
  8
0
  6
CONTINUOUS
 62
     7
100
AcDbLine
 10
1531.6277927932
 20
550.7488863295
 30
0.0
 11
1531.6277927932
 21
899.6699170893
 31
0.0
  0
LWPOLYLINE
  5
1BF
330
1F
100
AcDbEntity
  8
0
  6
CONTINUOUS
 62
     7
100
AcDbPolyline
 90
        8
 70
   128
 43
0.0
 10
1533.4794157398
 20
550.6518499678
 10
1533.3680044141
 20
550.657691223
 10
1533.1922675696
 20
550.6669001406
 10
1532.9583323774
 20
550.6791488951
 10
1532.6743553605
 20
550.6940351551
 10
1532.3502383408
 20
550.7110224789
 10
1531.9972819862
 20
550.7295148199
 10
1531.6277927932
 20
550.7488863295
  0
LWPOLYLINE
  5
1C0
330
1F
100
AcDbEntity
  8
0
  6
CONTINUOUS
 62
     7
100
AcDbPolyline
 90
        8
 70
   128
 43
0.0
 10
1531.6277927932
 20
899.6699170893
 10
1531.9972819862
 20
899.6892885989
 10
1532.3502383408
 20
899.7077809399
 10
1532.6743553605
 20
899.7247682637
 10
1532.9583323774
 20
899.7396545237
 10
1533.1922675696
 20
899.7519032782
 10
1533.3680044141
 20
899.7611121958
 10
1533.4794157398
 20
899.766953451
  0
LINE
  5
1C1
330
1F
100
AcDbEntity
  8
0
  6
CONTINUOUS
 62
     7
100
AcDbLine
 10
1535.9066053507
 20
900.6790684288
 30
0.0
 11
1513.6676029515
 21
899.5135741061
 31
0.0
  0
LINE
  5
1C2
330
1F
100
AcDbEntity
  8
0
  6
CONTINUOUS
 62
     7
100
AcDbLine
 10
1513.6676029515
 20
900.5756543702
 30
0.0
 11
1513.6676029515
 21
899.5135741061
 31
0.0
  0
LINE
  5
1C3
330
1F
100
AcDbEntity
  8
0
  6
CONTINUOUS
 62
     7
100
AcDbLine
 10
1513.6676029515
 20
904.9023704356
 30
0.0
 11
1513.6676029515
 21
900.5756543702
 31
0.0
  0
LINE
  5
1C4
330
1F
100
AcDbEntity
  8
0
  6
CONTINUOUS
 62
     7
100
AcDbLine
 10
1513.6676029515
 20
905.006037814
 30
0.0
 11
1513.6676029515
 21
904.9023704356
 31
0.0
  0
LINE
  5
1C5
330
1F
100
AcDbEntity
  8
0
  6
CONTINUOUS
 62
     7
100
AcDbLine
 10
1513.6676029515
 20
905.006037814
 30
0.0
 11
1535.9066053507
 21
906.1715321368
 31
0.0
  0
LINE
  5
1C6
330
1F
100
AcDbEntity
  8
0
  6
CONTINUOUS
 62
     7
100
AcDbLine
 10
1513.6676029515
 20
550.9052293127
 30
0.0
 11
1535.9066053507
 21
549.73973499
 31
0.0
  0
LINE
  5
1C7
330
1F
100
AcDbEntity
  8
0
  6
CONTINUOUS
 62
     7
100
AcDbLine
 10
1513.6676029515
 20
899.5135741061
 30
0.0
 11
1513.6676029515
 21
550.9052293127
 31
0.0
  0
LINE
  5
1C8
330
1F
100
AcDbEntity
  8
0
  6
CONTINUOUS
 62
     7
100
AcDbLine
 10
1535.9066053507
 20
544.247271282
 30
0.0
 11
1513.6676029515
 21
545.4127656048
 31
0.0
  0
LINE
  5
1C9
330
1F
100
AcDbEntity
  8
0
  6
CONTINUOUS
 62
     7
100
AcDbLine
 10
1513.6676029515
 20
545.5164329832
 30
0.0
 11
1513.6676029515
 21
545.4127656048
 31
0.0
  0
LINE
  5
1CA
330
1F
100
AcDbEntity
  8
0
  6
CONTINUOUS
 62
     7
100
AcDbLine
 10
1513.6676029515
 20
549.8431490486
 30
0.0
 11
1513.6676029515
 21
545.5164329832
 31
0.0
  0
LINE
  5
1CB
330
1F
100
AcDbEntity
  8
0
  6
CONTINUOUS
 62
     7
100
AcDbLine
 10
1513.6676029515
 20
550.9052293127
 30
0.0
 11
1513.6676029515
 21
549.8431490486
 31
0.0
  0
LINE
  5
1CC
330
1F
100
AcDbEntity
  8
0
  6
CONTINUOUS
 62
     7
100
AcDbLine
 10
1512.1696562719
 20
899.5135741061
 30
0.0
 11
1512.1696562719
 21
903.3424125737
 31
0.0
  0
LINE
  5
1CD
330
1F
100
AcDbEntity
  8
0
  6
CONTINUOUS
 62
     7
100
AcDbLine
 10
1512.1696562719
 20
903.3424125737
 30
0.0
 11
1513.6676029515
 21
905.006037814
 31
0.0
  0
LINE
  5
1CE
330
1F
100
AcDbEntity
  8
0
  6
CONTINUOUS
 62
     7
100
AcDbLine
 10
1512.1696562719
 20
899.5135741061
 30
0.0
 11
1513.6676029515
 21
899.5135741061
 31
0.0
  0
LINE
  5
1CF
330
1F
100
AcDbEntity
  8
0
  6
CONTINUOUS
 62
     7
100
AcDbLine
 10
1512.1696562719
 20
547.0763908451
 30
0.0
 11
1512.1696562719
 21
550.9052293127
 31
0.0
  0
LINE
  5
1D0
330
1F
100
AcDbEntity
  8
0
  6
CONTINUOUS
 62
     7
100
AcDbLine
 10
1512.1696562719
 20
550.9052293127
 30
0.0
 11
1513.6676029515
 21
550.9052293127
 31
0.0
  0
LINE
  5
1D1
330
1F
100
AcDbEntity
  8
0
  6
CONTINUOUS
 62
     7
100
AcDbLine
 10
1513.6676029515
 20
545.4127656048
 30
0.0
 11
1512.1696562719
 21
547.0763908451
 31
0.0
  0
LINE
  5
1D2
330
1F
100
AcDbEntity
  8
0
  6
CONTINUOUS
 62
     7
100
AcDbLine
 10
1512.1696562719
 20
550.9052293127
 30
0.0
 11
1512.1696562719
 21
899.5135741061
 31
0.0
  0
LINE
  5
1D3
330
1F
100
AcDbEntity
  8
0
  6
CONTINUOUS
 62
     7
100
AcDbLine
 10
1535.8505853665
 20
530.9845970696
 30
0.0
 11
1533.3182028708
 21
542.8985224789
 31
0.0
  0
ARC
  5
1D4
330
1F
100
AcDbEntity
  8
0
  6
CONTINUOUS
 62
     7
100
AcDbCircle
 10
1531.3619076705
 20
542.4826983346
 30
0.0
 40
1.999999999999992
100
AcDbArc
 50
12.0
 51
87.0
  0
ARC
  5
1D5
330
1F
100
AcDbEntity
  8
0
  6
CONTINUOUS
 62
     7
100
AcDbCircle
 10
1531.3619076705
 20
907.9361050842
 30
0.0
 40
2.000000000000004
100
AcDbArc
 50
273.0
 51
348.0
  0
LINE
  5
1D6
330
1F
100
AcDbEntity
  8
0
  6
CONTINUOUS
 62
     7
100
AcDbLine
 10
1533.3182028708
 20
907.5202809399
 30
0.0
 11
1535.8505853665
 21
919.4342063492
 31
0.0
  0
LINE
  5
1D7
330
1F
100
AcDbEntity
  8
0
  6
CONTINUOUS
 62
     7
100
AcDbLine
 10
838.7534184234
 20
921.8786673373
 30
0.0
 11
855.193486795
 21
921.017082197
 31
0.0
  0
ARC
  5
1D8
330
1F
100
AcDbEntity
  8
0
  6
CONTINUOUS
 62
     7
100
AcDbCircle
 10
525.4659276367
 20
918.2708503431
 30
0.0
 40
329.7389953552877
100
AcDbArc
 50
359.5228064739
 51
0.4771935261
  0
LINE
  5
1D9
330
1F
100
AcDbEntity
  8
0
  6
CONTINUOUS
 62
     7
100
AcDbLine
 10
855.193486795
 20
915.5246184891
 30
0.0
 11
838.7534184234
 21
916.3862036293
 31
0.0
  0
LINE
  5
1DA
330
1F
100
AcDbEntity
  8
0
  6
CONTINUOUS
 62
     7
100
AcDbLine
 10
838.7534184234
 20
916.3862036293
 30
0.0
 11
838.7534184234
 21
921.8786673373
 31
0.0
  0
ELLIPSE
  5
1DB
330
1F
100
AcDbEntity
  8
0
  6
CONTINUOUS
 62
     7
100
AcDbEllipse
 10
829.891362443
 20
530.0729578509
 30
0.0
 11
9.042354694321602
 21
34.30586911032128
 31
0.0
210
0.0
220
0.0
230
1.0
 40
0.6896927366
 41
5.030929597768989
 42
5.077431479128939
  0
LINE
  5
1DC
330
1F
100
AcDbEntity
  8
0
  6
CONTINUOUS
 62
     7
100
AcDbLine
 10
838.7534184234
 20
534.0325997895
 30
0.0
 11
855.193486795
 21
534.8941849297
 31
0.0
  0
ELLIPSE
  5
1DD
330
1F
100
AcDbEntity
  8
0
  6
CONTINUOUS
 62
     7
100
AcDbEllipse
 10
829.891362443
 20
920.3458455679
 30
0.0
 11
-9.042354694321828
 21
34.30586911032128
 31
0.0
210
0.0
220
0.0
230
1.0
 40
0.6896927366
 41
4.347346481640462
 42
4.393848363000411
  0
LINE
  5
1DE
330
1F
100
AcDbEntity
  8
0
  6
CONTINUOUS
 62
     7
100
AcDbLine
 10
855.2208676787
 20
536.4942567175
 30
0.0
 11
855.2208676787
 21
913.9245467013
 31
0.0
  0
LINE
  5
1DF
330
1F
100
AcDbEntity
  8
0
  6
CONTINUOUS
 62
     7
100
AcDbLine
 10
838.7534184234
 20
534.0325997895
 30
0.0
 11
838.7534184234
 21
916.3862036293
 31
0.0
  0
LWPOLYLINE
  5
1E0
330
1F
100
AcDbEntity
  8
0
  6
CONTINUOUS
 62
     7
100
AcDbPolyline
 90
        6
 70
   128
 43
0.0
 10
855.193486795
 20
529.4017212218
 10
855.1987310725
 20
529.7084616249
 10
855.2079278829
 20
530.5961386984
 10
855.2057634892
 20
531.9664494818
 10
855.1954081135
 20
533.6655096835
 10
855.193486795
 20
534.8941849297
  0
LINE
  5
1E1
330
1F
100
AcDbEntity
  8
0
  6
CONTINUOUS
 62
     7
100
AcDbLine
 10
855.193486795
 20
529.4017212218
 30
0.0
 11
838.7534184234
 21
528.5401360815
 31
0.0
  0
LINE
  5
1E2
330
1F
100
AcDbEntity
  8
0
  6
CONTINUOUS
 62
     7
100
AcDbLine
 10
838.7534184234
 20
528.5401360815
 30
0.0
 11
838.7534184234
 21
534.0325997895
 31
0.0
  0
ARC
  5
1E3
330
1F
100
AcDbEntity
  8
0
  6
CONTINUOUS
 62
     7
100
AcDbCircle
 10
855.0885082193
 20
919.0208730338
 30
0.0
 40
1.998967614714764
100
AcDbArc
 50
15.3169022798
 51
86.9896472997
  0
LINE
  5
1E4
330
1F
100
AcDbEntity
  8
0
  6
CONTINUOUS
 62
     7
100
AcDbLine
 10
857.0164715724
 20
915.5893938368
 30
0.0
 11
857.0164715724
 21
919.5489154881
 31
0.0
  0
ARC
  5
1E5
330
1F
100
AcDbEntity
  8
0
  6
CONTINUOUS
 62
     7
100
AcDbCircle
 10
840.2859948216
 20
1360.7536543578
 30
0.0
 40
445.4785378640531
100
AcDbArc
 50
271.9177037654
 51
272.1523173644
  0
ARC
  5
1E6
330
1F
100
AcDbEntity
  8
0
  6
CONTINUOUS
 62
     7
100
AcDbCircle
 10
840.2859948231
 20
89.6651491042
 30
0.0
 40
445.4785378208109
100
AcDbArc
 50
87.8476826355
 51
88.0822962346
  0
LINE
  5
1E7
330
1F
100
AcDbEntity
  8
0
  6
CONTINUOUS
 62
     7
100
AcDbLine
 10
857.0164715724
 20
530.8698879307
 30
0.0
 11
857.0164715724
 21
534.829409582
 31
0.0
  0
ARC
  5
1E8
330
1F
100
AcDbEntity
  8
0
  6
CONTINUOUS
 62
     7
100
AcDbCircle
 10
855.0885082193
 20
531.397930385
 30
0.0
 40
1.998967614714145
100
AcDbArc
 50
273.0103527003
 51
344.6830977202
  0
LINE
  5
1E9
330
1F
100
AcDbEntity
  8
0
  6
CONTINUOUS
 62
     7
100
AcDbLine
 10
857.0164715724
 20
913.9245467013
 30
0.0
 11
857.0164715724
 21
915.5893938368
 31
0.0
  0
LINE
  5
1EA
330
1F
100
AcDbEntity
  8
0
  6
CONTINUOUS
 62
     7
100
AcDbLine
 10
857.0164715724
 20
913.9245467013
 30
0.0
 11
855.2208676787
 21
913.9245467013
 31
0.0
  0
LINE
  5
1EB
330
1F
100
AcDbEntity
  8
0
  6
CONTINUOUS
 62
     7
100
AcDbLine
 10
857.0164715724
 20
536.4942567175
 30
0.0
 11
855.2208676787
 21
536.4942567175
 31
0.0
  0
LINE
  5
1EC
330
1F
100
AcDbEntity
  8
0
  6
CONTINUOUS
 62
     7
100
AcDbLine
 10
857.0164715724
 20
534.829409582
 30
0.0
 11
857.0164715724
 21
536.4942567175
 31
0.0
  0
LINE
  5
1ED
330
1F
100
AcDbEntity
  8
0
  6
CONTINUOUS
 62
     7
100
AcDbLine
 10
857.0724915566
 20
899.8912291354
 30
0.0
 11
857.0724915566
 21
550.5275742834
 31
0.0
  0
LINE
  5
1EE
330
1F
100
AcDbEntity
  8
0
  6
CONTINUOUS
 62
     7
100
AcDbLine
 10
857.0164715724
 20
550.5246387547
 30
0.0
 11
857.0724915566
 21
550.5275742834
 31
0.0
  0
LINE
  5
1EF
330
1F
100
AcDbEntity
  8
0
  6
CONTINUOUS
 62
     7
100
AcDbLine
 10
857.0164715724
 20
536.4942567175
 30
0.0
 11
857.0164715724
 21
550.5246387547
 31
0.0
  0
LINE
  5
1F0
330
1F
100
AcDbEntity
  8
0
  6
CONTINUOUS
 62
     7
100
AcDbLine
 10
857.0164715724
 20
899.8941646641
 30
0.0
 11
857.0164715724
 21
913.9245467013
 31
0.0
  0
LWPOLYLINE
  5
1F1
330
1F
100
AcDbEntity
  8
0
  6
CONTINUOUS
 62
     7
100
AcDbPolyline
 90
        4
 70
   128
 43
0.0
 10
857.0164715724
 20
899.8941646641
 10
857.0376284274
 20
899.893047077
 10
857.0563088956
 20
899.8920785015
 10
857.0724915566
 20
899.8912291354
  0
LINE
  5
1F2
330
1F
100
AcDbEntity
  8
0
  6
CONTINUOUS
 62
     7
100
AcDbLine
 10
859.4436611833
 20
550.6518499678
 30
0.0
 11
859.4436611833
 21
899.766953451
 31
0.0
  0
LINE
  5
1F3
330
1F
100
AcDbEntity
  8
0
  6
CONTINUOUS
 62
     7
100
AcDbLine
 10
857.0724915566
 20
550.5275742834
 30
0.0
 11
859.4436611833
 21
550.6518499678
 31
0.0
  0
LINE
  5
1F4
330
1F
100
AcDbEntity
  8
0
  6
CONTINUOUS
 62
     7
100
AcDbLine
 10
859.4436611833
 20
899.766953451
 30
0.0
 11
857.0724915566
 21
899.8912291354
 31
0.0
  0
ARC
  5
1F5
330
1F
100
AcDbEntity
  8
0
  6
CONTINUOUS
 62
     7
100
AcDbCircle
 10
855.1161961049
 20
919.0183824304
 30
0.0
 40
2.000000000000065
100
AcDbArc
 50
18.1695479236
 51
87.0
  0
LWPOLYLINE
  5
1F6
330
1F
100
AcDbEntity
  8
0
  6
CONTINUOUS
 62
     7
100
AcDbPolyline
 90
        3
 70
   128
 43
0.0
 10
855.193486795
 20
921.017082197
 10
855.2140215265
 20
921.0159944123
 10
855.2208676787
 20
921.0156367844
  0
ARC
  5
1F7
330
1F
100
AcDbEntity
  8
0
  6
CONTINUOUS
 62
     7
100
AcDbCircle
 10
855.1161961049
 20
531.4004209884
 30
0.0
 40
2.000000000000065
100
AcDbArc
 50
273.0
 51
341.8304520764
  0
LWPOLYLINE
  5
1F8
330
1F
100
AcDbEntity
  8
0
  6
CONTINUOUS
 62
     7
100
AcDbPolyline
 90
        3
 70
   128
 43
0.0
 10
855.2208676787
 20
529.4031666344
 10
855.2140215265
 20
529.4028090065
 10
855.193486795
 20
529.4017212218
  0
LINE
  5
1F9
330
1F
100
AcDbEntity
  8
0
  6
CONTINUOUS
 62
     7
100
AcDbLine
 10
861.2952841299
 20
899.6699170893
 30
0.0
 11
861.2952841299
 21
550.7488863295
 31
0.0
  0
LWPOLYLINE
  5
1FA
330
1F
100
AcDbEntity
  8
0
  6
CONTINUOUS
 62
     7
100
AcDbPolyline
 90
        8
 70
   128
 43
0.0
 10
861.2952841299
 20
550.7488863295
 10
860.9257949369
 20
550.7295148199
 10
860.5728385823
 20
550.7110224789
 10
860.2487215625
 20
550.6940351551
 10
859.9647445457
 20
550.6791488951
 10
859.7308093535
 20
550.6669001406
 10
859.555072509
 20
550.657691223
 10
859.4436611833
 20
550.6518499678
  0
LWPOLYLINE
  5
1FB
330
1F
100
AcDbEntity
  8
0
  6
CONTINUOUS
 62
     7
100
AcDbPolyline
 90
        8
 70
   128
 43
0.0
 10
859.4436611833
 20
899.766953451
 10
859.555072509
 20
899.7611121958
 10
859.7308093535
 20
899.7519032782
 10
859.9647445457
 20
899.7396545237
 10
860.2487215625
 20
899.7247682637
 10
860.5728385823
 20
899.7077809399
 10
860.9257949369
 20
899.6892885989
 10
861.2952841299
 20
899.6699170893
  0
LINE
  5
1FC
330
1F
100
AcDbEntity
  8
0
  6
CONTINUOUS
 62
     7
100
AcDbLine
 10
857.0164715724
 20
906.1715321368
 30
0.0
 11
879.2554739716
 21
905.006037814
 31
0.0
  0
LINE
  5
1FD
330
1F
100
AcDbEntity
  8
0
  6
CONTINUOUS
 62
     7
100
AcDbLine
 10
879.2554739716
 20
904.9023704356
 30
0.0
 11
879.2554739716
 21
905.006037814
 31
0.0
  0
LINE
  5
1FE
330
1F
100
AcDbEntity
  8
0
  6
CONTINUOUS
 62
     7
100
AcDbLine
 10
879.2554739716
 20
900.5756543702
 30
0.0
 11
879.2554739716
 21
904.9023704356
 31
0.0
  0
LINE
  5
1FF
330
1F
100
AcDbEntity
  8
0
  6
CONTINUOUS
 62
     7
100
AcDbLine
 10
879.2554739716
 20
899.5135741061
 30
0.0
 11
879.2554739716
 21
900.5756543702
 31
0.0
  0
LINE
  5
200
330
1F
100
AcDbEntity
  8
0
  6
CONTINUOUS
 62
     7
100
AcDbLine
 10
879.2554739716
 20
899.5135741061
 30
0.0
 11
857.0164715724
 21
900.6790684288
 31
0.0
  0
LINE
  5
201
330
1F
100
AcDbEntity
  8
0
  6
CONTINUOUS
 62
     7
100
AcDbLine
 10
857.0164715724
 20
549.73973499
 30
0.0
 11
879.2554739716
 21
550.9052293127
 31
0.0
  0
LINE
  5
202
330
1F
100
AcDbEntity
  8
0
  6
CONTINUOUS
 62
     7
100
AcDbLine
 10
879.2554739716
 20
549.8431490486
 30
0.0
 11
879.2554739716
 21
550.9052293127
 31
0.0
  0
LINE
  5
203
330
1F
100
AcDbEntity
  8
0
  6
CONTINUOUS
 62
     7
100
AcDbLine
 10
879.2554739716
 20
545.5164329832
 30
0.0
 11
879.2554739716
 21
549.8431490486
 31
0.0
  0
LINE
  5
204
330
1F
100
AcDbEntity
  8
0
  6
CONTINUOUS
 62
     7
100
AcDbLine
 10
879.2554739716
 20
545.4127656048
 30
0.0
 11
879.2554739716
 21
545.5164329832
 31
0.0
  0
LINE
  5
205
330
1F
100
AcDbEntity
  8
0
  6
CONTINUOUS
 62
     7
100
AcDbLine
 10
879.2554739716
 20
545.4127656048
 30
0.0
 11
857.0164715724
 21
544.247271282
 31
0.0
  0
LINE
  5
206
330
1F
100
AcDbEntity
  8
0
  6
CONTINUOUS
 62
     7
100
AcDbLine
 10
879.2554739716
 20
550.9052293127
 30
0.0
 11
879.2554739716
 21
899.5135741061
 31
0.0
  0
LINE
  5
207
330
1F
100
AcDbEntity
  8
0
  6
CONTINUOUS
 62
     7
100
AcDbLine
 10
879.2554739716
 20
550.9052293127
 30
0.0
 11
880.7534206512
 21
550.9052293127
 31
0.0
  0
LINE
  5
208
330
1F
100
AcDbEntity
  8
0
  6
CONTINUOUS
 62
     7
100
AcDbLine
 10
880.7534206512
 20
550.9052293127
 30
0.0
 11
880.7534206512
 21
547.0763908451
 31
0.0
  0
LINE
  5
209
330
1F
100
AcDbEntity
  8
0
  6
CONTINUOUS
 62
     7
100
AcDbLine
 10
879.2554739716
 20
545.4127656048
 30
0.0
 11
880.7534206512
 21
547.0763908451
 31
0.0
  0
LINE
  5
20A
330
1F
100
AcDbEntity
  8
0
  6
CONTINUOUS
 62
     7
100
AcDbLine
 10
880.7534206512
 20
903.3424125737
 30
0.0
 11
880.7534206512
 21
899.5135741061
 31
0.0
  0
LINE
  5
20B
330
1F
100
AcDbEntity
  8
0
  6
CONTINUOUS
 62
     7
100
AcDbLine
 10
879.2554739716
 20
899.5135741061
 30
0.0
 11
880.7534206512
 21
899.5135741061
 31
0.0
  0
LINE
  5
20C
330
1F
100
AcDbEntity
  8
0
  6
CONTINUOUS
 62
     7
100
AcDbLine
 10
880.7534206512
 20
903.3424125737
 30
0.0
 11
879.2554739716
 21
905.006037814
 31
0.0
  0
LINE
  5
20D
330
1F
100
AcDbEntity
  8
0
  6
CONTINUOUS
 62
     7
100
AcDbLine
 10
880.7534206512
 20
899.5135741061
 30
0.0
 11
880.7534206512
 21
550.9052293127
 31
0.0
  0
ARC
  5
20E
330
1F
100
AcDbEntity
  8
0
  6
CONTINUOUS
 62
     7
100
AcDbCircle
 10
861.5611692526
 20
542.4826983346
 30
0.0
 40
1.999999999999992
100
AcDbArc
 50
93.0
 51
168.0
  0
LINE
  5
20F
330
1F
100
AcDbEntity
  8
0
  6
CONTINUOUS
 62
     7
100
AcDbLine
 10
859.6048740523
 20
542.8985224789
 30
0.0
 11
857.0724915566
 21
530.9845970696
 31
0.0
  0
LINE
  5
210
330
1F
100
AcDbEntity
  8
0
  6
CONTINUOUS
 62
     7
100
AcDbLine
 10
857.0724915566
 20
919.4342063492
 30
0.0
 11
859.6048740523
 21
907.5202809399
 31
0.0
  0
ARC
  5
211
330
1F
100
AcDbEntity
  8
0
  6
CONTINUOUS
 62
     7
100
AcDbCircle
 10
861.5611692526
 20
907.9361050842
 30
0.0
 40
1.999999999999992
100
AcDbArc
 50
192.0
 51
267.0
  0
ELLIPSE
  5
212
330
1F
100
AcDbEntity
  8
0
  6
CONTINUOUS
 62
     7
100
AcDbEllipse
 10
584.3305177501
 20
534.0476873781
 30
0.0
 11
3.899754338892876
 21
-3.899754338892876
 31
-1.421085471520200E-13
210
3.649035898903349E-14
220
4.997459488110867E-17
230
0.9999999999999998
 40
0.9972646886
 41
5.499156671652529
 42
7.067213942706671
  0
LINE
  5
213
330
1F
100
AcDbEntity
  8
0
  6
CONTINUOUS
 62
     7
100
AcDbLine
 10
256.4920082938
 20
528.5401360815
 30
0.0
 11
584.3455985438
 21
528.5401360815
 31
0.0
  0
ELLIPSE
  5
214
330
1F
100
AcDbEntity
  8
0
  6
CONTINUOUS
 62
     7
100
AcDbEllipse
 10
256.5070890875
 20
534.0476873781
 30
0.0
 11
-3.899754338892847
 21
-3.899754338892876
 31
1.421085471520200E-13
210
3.649035898903310E-14
220
-4.997459488044602E-17
230
1.0
 40
0.9972646886
 41
5.499156671652548
 42
7.067213942706655
  0
LINE
  5
215
330
1F
100
AcDbEntity
  8
0
  6
CONTINUOUS
 62
     7
100
AcDbLine
 10
250.9995445859
 20
916.3862036293
 30
0.0
 11
250.9995445859
 21
534.0325997895
 31
0.0
  0
ELLIPSE
  5
216
330
1F
100
AcDbEntity
  8
0
  6
CONTINUOUS
 62
     7
100
AcDbEllipse
 10
256.5070890875
 20
916.3711160407
 30
0.0
 11
-3.899754338892876
 21
3.899754338892876
 31
1.421085471520200E-13
210
3.649035898903296E-14
220
4.997459488057855E-17
230
0.9999999999999998
 40
0.9972646886
 41
5.49915667165254
 42
7.067213942706671
  0
LINE
  5
217
330
1F
100
AcDbEntity
  8
0
  6
CONTINUOUS
 62
     7
100
AcDbLine
 10
584.3455985438
 20
921.8786673373
 30
0.0
 11
256.4920082938
 21
921.8786673373
 31
0.0
  0
ELLIPSE
  5
218
330
1F
100
AcDbEntity
  8
0
  6
CONTINUOUS
 62
     7
100
AcDbEllipse
 10
584.3305177501
 20
916.3711160407
 30
0.0
 11
3.899754338892876
 21
3.899754338892876
 31
-1.421085471520200E-13
210
3.649035898903243E-14
220
-4.997459488004528E-17
230
0.9999999999999998
 40
0.9972646886
 41
5.499156671652544
 42
7.067213942706656
  0
LINE
  5
219
330
1F
100
AcDbEntity
  8
0
  6
CONTINUOUS
 62
     7
100
AcDbLine
 10
589.8380622517
 20
534.0325997895
 30
0.0
 11
589.8380622517
 21
916.3862036293
 31
0.0
  0
ELLIPSE
  5
21A
330
1F
100
AcDbEntity
  8
0
  6
CONTINUOUS
 62
     7
100
AcDbEllipse
 10
584.3305177501
 20
916.3711160407
 30
0.0
 11
1.772615608587671
 21
1.772615608587785
 31
-7.105427357601002E-14
210
4.013939488793532E-14
220
-5.497205436769230E-17
230
1.0
 40
0.9972646886
 41
5.499156671652512
 42
7.067213942706624
  0
LINE
  5
21B
330
1F
100
AcDbEntity
  8
0
  6
CONTINUOUS
 62
     7
100
AcDbLine
 10
584.3373731028
 20
918.8745485371
 30
0.0
 11
256.5002337348
 21
918.8745485371
 31
0.0
  0
ELLIPSE
  5
21C
330
1F
100
AcDbEntity
  8
0
  6
CONTINUOUS
 62
     7
100
AcDbEllipse
 10
256.5070890875
 20
916.3711160407
 30
0.0
 11
-1.772615608587643
 21
1.772615608587558
 31
7.105427357601003E-14
210
4.013939488793631E-14
220
5.497205436802677E-17
230
1.0
 40
0.9972646886
 41
5.49915667165255
 42
7.067213942706603
  0
LINE
  5
21D
330
1F
100
AcDbEntity
  8
0
  6
CONTINUOUS
 62
     7
100
AcDbLine
 10
254.003663386
 20
916.3779781884
 30
0.0
 11
254.003663386
 21
534.0408252304
 31
0.0
  0
ELLIPSE
  5
21E
330
1F
100
AcDbEntity
  8
0
  6
CONTINUOUS
 62
     7
100
AcDbEllipse
 10
256.5070890875
 20
534.0476873781
 30
0.0
 11
-1.772615608587643
 21
-1.772615608587671
 31
7.105427357601002E-14
210
4.013939488793629E-14
220
-5.497205436802362E-17
230
0.9999999999999998
 40
0.9972646886
 41
5.49915667165255
 42
7.067213942706635
  0
LINE
  5
21F
330
1F
100
AcDbEntity
  8
0
  6
CONTINUOUS
 62
     7
100
AcDbLine
 10
256.5002337348
 20
531.5442548817
 30
0.0
 11
584.3373731028
 21
531.5442548817
 31
0.0
  0
ELLIPSE
  5
220
330
1F
100
AcDbEntity
  8
0
  6
CONTINUOUS
 62
     7
100
AcDbEllipse
 10
584.3305177501
 20
534.0476873781
 30
0.0
 11
1.772615608587558
 21
-1.772615608587558
 31
-7.105427357601002E-14
210
4.013939488793790E-14
220
5.497205436770807E-17
230
0.9999999999999998
 40
0.9972646886
 41
5.499156671652577
 42
7.067213942706623
  0
LINE
  5
221
330
1F
100
AcDbEntity
  8
0
  6
CONTINUOUS
 62
     7
100
AcDbLine
 10
586.8339434516
 20
534.0408252304
 30
0.0
 11
586.8339434516
 21
916.3779781884
 31
0.0
  0
ARC
  5
222
330
1F
100
AcDbEntity
  8
0
  6
CONTINUOUS
 62
     7
100
AcDbCircle
 10
257.2763576853
 20
915.6018542378
 30
0.0
 40
2.488281224551474
100
AcDbArc
 50
89.8088132401
 51
180.1911867599
  0
LINE
  5
223
330
1F
100
AcDbEntity
  8
0
  6
CONTINUOUS
 62
     7
100
AcDbLine
 10
254.003663386
 20
916.3779781884
 30
0.0
 11
254.7880903136
 21
915.5935512608
 31
0.0
  0
LINE
  5
224
330
1F
100
AcDbEntity
  8
0
  6
CONTINUOUS
 62
     7
100
AcDbLine
 10
257.2846606623
 20
918.0901216095
 30
0.0
 11
256.5002337348
 21
918.8745485371
 31
0.0
  0
LINE
  5
225
330
1F
100
AcDbEntity
  8
0
  6
CONTINUOUS
 62
     7
100
AcDbLine
 10
254.7912046563
 20
913.3050309246
 30
0.0
 11
254.7912046563
 21
537.1137724942
 31
0.0
  0
ELLIPSE
  5
226
330
1F
100
AcDbEntity
  8
0
  6
CONTINUOUS
 62
     7
100
AcDbEllipse
 10
253.5450124723
 20
531.0856107629
 30
0.0
 11
0.2298196170971778
 21
32.73333771232922
 31
0.0
210
0.0
220
0.0
230
1.0
 40
0.0374179733
 41
4.827147552885453
 42
4.897868466113756
  0
LINE
  5
227
330
1F
100
AcDbEntity
  8
0
  6
CONTINUOUS
 62
     7
100
AcDbLine
 10
254.7880903136
 20
534.825252158
 30
0.0
 11
254.003663386
 21
534.0408252304
 31
0.0
  0
ELLIPSE
  5
228
330
1F
100
AcDbEntity
  8
0
  6
CONTINUOUS
 62
     7
100
AcDbEllipse
 10
253.5450124723
 20
919.3331926559
 30
0.0
 11
-0.2298196170971778
 21
32.73333771232922
 31
0.0
210
0.0
220
0.0
230
1.0
 40
0.0374179733
 41
4.52690949465566
 42
4.597630407883941
  0
ARC
  5
229
330
1F
100
AcDbEntity
  8
0
  6
CONTINUOUS
 62
     7
100
AcDbCircle
 10
257.276339198
 20
534.8169306936
 30
0.0
 40
2.48826279908202
100
AcDbArc
 50
179.808386125
 51
270.191613875
  0
LINE
  5
22A
330
1F
100
AcDbEntity
  8
0
  6
CONTINUOUS
 62
     7
100
AcDbLine
 10
256.5002337348
 20
531.5442548817
 30
0.0
 11
257.2846606623
 21
532.3286818093
 31
0.0
  0
ELLIPSE
  5
22B
330
1F
100
AcDbEntity
  8
0
  6
CONTINUOUS
 62
     7
100
AcDbEllipse
 10
253.5450124723
 20
531.0856107629
 30
0.0
 11
32.73333771232919
 21
0.2298196170971778
 31
0.0
210
0.0
220
0.0
230
1.0
 40
0.0374179733
 41
1.385316841065857
 42
1.45603775429415
  0
LINE
  5
22C
330
1F
100
AcDbEntity
  8
0
  6
CONTINUOUS
 62
     7
100
AcDbLine
 10
259.5731660973
 20
532.331796152
 30
0.0
 11
581.2644407403
 21
532.331796152
 31
0.0
  0
ELLIPSE
  5
22D
330
1F
100
AcDbEntity
  8
0
  6
CONTINUOUS
 62
     7
100
AcDbEllipse
 10
587.2925943653
 20
531.0856107629
 30
0.0
 11
32.73333771232922
 21
-0.2298196170971778
 31
0.0
210
0.0
220
0.0
230
1.0
 40
0.0374179733
 41
1.685554899295656
 42
1.756275812523946
  0
LINE
  5
22E
330
1F
100
AcDbEntity
  8
0
  6
CONTINUOUS
 62
     7
100
AcDbLine
 10
583.5529461753
 20
532.3286818093
 30
0.0
 11
584.3373731028
 21
531.5442548817
 31
0.0
  0
LINE
  5
22F
330
1F
100
AcDbEntity
  8
0
  6
CONTINUOUS
 62
     7
100
AcDbLine
 10
584.3373731028
 20
918.8745485371
 30
0.0
 11
583.5529461753
 21
918.0901216095
 31
0.0
  0
ELLIPSE
  5
230
330
1F
100
AcDbEntity
  8
0
  6
CONTINUOUS
 62
     7
100
AcDbEllipse
 10
587.2925943653
 20
919.3331926559
 30
0.0
 11
32.73333771232922
 21
0.2298196170971778
 31
0.0
210
0.0
220
0.0
230
1.0
 40
0.0374179733
 41
4.526909494655634
 42
4.597630407883917
  0
LINE
  5
231
330
1F
100
AcDbEntity
  8
0
  6
CONTINUOUS
 62
     7
100
AcDbLine
 10
581.2644407403
 20
918.0870072668
 30
0.0
 11
259.5731660973
 21
918.0870072668
 31
0.0
  0
ELLIPSE
  5
232
330
1F
100
AcDbEntity
  8
0
  6
CONTINUOUS
 62
     7
100
AcDbEllipse
 10
253.5450124723
 20
919.3331926559
 30
0.0
 11
32.73333771232913
 21
-0.2298196170970641
 31
0.0
210
0.0
220
0.0
230
1.0
 40
0.0374179733
 41
4.827147552885451
 42
4.897868466113756
  0
ARC
  5
233
330
1F
100
AcDbEntity
  8
0
  6
CONTINUOUS
 62
     7
100
AcDbCircle
 10
583.5612491523
 20
534.816949181
 30
0.0
 40
2.488281224551162
100
AcDbArc
 50
269.8088132401
 51
0.1911867599
  0
LINE
  5
234
330
1F
100
AcDbEntity
  8
0
  6
CONTINUOUS
 62
     7
100
AcDbLine
 10
586.8339434516
 20
534.0408252304
 30
0.0
 11
586.049516524
 21
534.825252158
 31
0.0
  0
ARC
  5
235
330
1F
100
AcDbEntity
  8
0
  6
CONTINUOUS
 62
     7
100
AcDbCircle
 10
583.5612676396
 20
915.6018727252
 30
0.0
 40
2.488262799082275
100
AcDbArc
 50
359.808386125
 51
90.191613875
  0
LINE
  5
236
330
1F
100
AcDbEntity
  8
0
  6
CONTINUOUS
 62
     7
100
AcDbLine
 10
586.049516524
 20
915.5935512608
 30
0.0
 11
586.8339434516
 21
916.3779781884
 31
0.0
  0
LINE
  5
237
330
1F
100
AcDbEntity
  8
0
  6
CONTINUOUS
 62
     7
100
AcDbLine
 10
586.0464021813
 20
537.1137724942
 30
0.0
 11
586.0464021813
 21
913.3050309246
 31
0.0
  0
ELLIPSE
  5
238
330
1F
100
AcDbEntity
  8
0
  6
CONTINUOUS
 62
     7
100
AcDbEllipse
 10
587.2925943653
 20
919.3331926559
 30
0.0
 11
0.2298196170971778
 21
32.73333771232933
 31
0.0
210
0.0
220
0.0
230
1.0
 40
0.0374179733
 41
1.685554899295634
 42
1.756275812523921
  0
ELLIPSE
  5
239
330
1F
100
AcDbEntity
  8
0
  6
CONTINUOUS
 62
     7
100
AcDbEllipse
 10
587.2925943653
 20
531.0856107629
 30
0.0
 11
-0.2298196170971778
 21
32.73333771232922
 31
0.0
210
0.0
220
0.0
230
1.0
 40
0.0374179733
 41
1.385316841065818
 42
1.456037754294123
  0
LINE
  5
23A
330
1F
100
AcDbEntity
  8
0
  6
CONTINUOUS
 62
     7
100
AcDbLine
 10
577.0986423146
 20
907.8365729874
 30
0.0
 11
576.0243281972
 21
908.5888134068
 31
0.0
  0
ARC
  5
23B
330
1F
100
AcDbEntity
  8
0
  6
CONTINUOUS
 62
     7
100
AcDbCircle
 10
577.270709054
 20
908.0823254286
 30
0.0
 40
0.3000000000000537
100
AcDbArc
 50
235.0
 51
252.3414428028
  0
ARC
  5
23C
330
1F
100
AcDbEntity
  8
0
  6
CONTINUOUS
 62
     7
100
AcDbCircle
 10
577.9380656531
 20
910.1786639437
 30
0.0
 40
2.500000000000006
100
AcDbArc
 50
252.3414428028
 51
260.1131852542
  0
ELLIPSE
  5
23D
330
1F
100
AcDbEntity
  8
0
  6
CONTINUOUS
 62
     7
100
AcDbEllipse
 10
571.4770025465
 20
901.2937488891
 30
0.0
 11
-6.284122227538205
 21
-6.17538971408635
 31
2.131628207280301E-13
210
3.423458816216937E-14
220
-3.192536477459269E-16
230
1.0
 40
0.9988036078
 41
2.365519593132424
 42
3.181691522389633
  0
LINE
  5
23E
330
1F
100
AcDbEntity
  8
0
  6
CONTINUOUS
 62
     7
100
AcDbLine
 10
580.2823648106
 20
549.1145120686
 30
0.0
 11
580.2823648106
 21
901.3042913502
 31
0.0
  0
ELLIPSE
  5
23F
330
1F
100
AcDbEntity
  8
0
  6
CONTINUOUS
 62
     7
100
AcDbEllipse
 10
571.4770025465
 20
549.1250545297
 30
0.0
 11
-6.284122227538206
 21
6.175389714086236
 31
2.131628207280301E-13
210
3.423458816216935E-14
220
3.192536477459269E-16
230
0.9999999999999998
 40
0.9988036078
 41
3.10149378478995
 42
3.917665714047145
  0
ARC
  5
240
330
1F
100
AcDbEntity
  8
0
  6
CONTINUOUS
 62
     7
100
AcDbCircle
 10
577.9380656531
 20
540.2401394751
 30
0.0
 40
2.500000000000016
100
AcDbArc
 50
99.8868147458
 51
107.6585571972
  0
ARC
  5
241
330
1F
100
AcDbEntity
  8
0
  6
CONTINUOUS
 62
     7
100
AcDbCircle
 10
577.270709054
 20
542.3364779902
 30
0.0
 40
0.3000000000000537
100
AcDbArc
 50
107.6585571972
 51
125.0
  0
LINE
  5
242
330
1F
100
AcDbEntity
  8
0
  6
CONTINUOUS
 62
     7
100
AcDbLine
 10
577.0986423146
 20
542.5822304314
 30
0.0
 11
576.0243281972
 21
541.829990012
 31
0.0
  0
ARC
  5
243
330
1F
100
AcDbEntity
  8
0
  6
CONTINUOUS
 62
     7
100
AcDbCircle
 10
576.1964012195
 20
541.5842395461
 30
0.0
 40
0.3000000000001469
100
AcDbArc
 50
125.0
 51
142.3414428028
  0
ARC
  5
244
330
1F
100
AcDbEntity
  8
0
  6
CONTINUOUS
 62
     7
100
AcDbCircle
 10
577.9380656531
 20
540.2401394751
 30
0.0
 40
2.500000000000015
100
AcDbArc
 50
142.3414428028
 51
152.1266123039
  0
ELLIPSE
  5
245
330
1F
100
AcDbEntity
  8
0
  6
CONTINUOUS
 62
     7
100
AcDbEllipse
 10
571.4770025465
 20
549.1250545297
 30
0.0
 11
-6.284122227538206
 21
6.175389714086236
 31
2.131628207280301E-13
210
3.423458816216935E-14
220
3.192536477459269E-16
230
0.9999999999999998
 40
0.9988036078
 41
2.365519593132441
 42
2.850702565503411
  0
LINE
  5
246
330
1F
100
AcDbEntity
  8
0
  6
CONTINUOUS
 62
     7
100
AcDbLine
 10
420.4188034188
 20
537.6816259449
 30
0.0
 11
571.6412112366
 21
540.3212176388
 31
0.0
  0
LINE
  5
247
330
1F
100
AcDbEntity
  8
0
  6
CONTINUOUS
 62
     7
100
AcDbLine
 10
269.196395601
 20
540.3212176388
 30
0.0
 11
420.4188034188
 21
537.6816259449
 31
0.0
  0
ELLIPSE
  5
248
330
1F
100
AcDbEntity
  8
0
  6
CONTINUOUS
 62
     7
100
AcDbEllipse
 10
269.3606042911
 20
549.1250545297
 30
0.0
 11
6.284122227538205
 21
6.17538971408635
 31
-2.131628207280301E-13
210
3.423458816216936E-14
220
-3.192536477459175E-16
230
1.0
 40
0.9988036078
 41
3.432482741676206
 42
3.917665714047148
  0
ARC
  5
249
330
1F
100
AcDbEntity
  8
0
  6
CONTINUOUS
 62
     7
100
AcDbCircle
 10
264.6412056181
 20
541.5842395461
 30
0.0
 40
0.3000000000001469
100
AcDbArc
 50
37.6585571973
 51
55.0
  0
LINE
  5
24A
330
1F
100
AcDbEntity
  8
0
  6
CONTINUOUS
 62
     7
100
AcDbLine
 10
264.8132786404
 20
541.829990012
 30
0.0
 11
263.738964523
 21
542.5822304314
 31
0.0
  0
ARC
  5
24B
330
1F
100
AcDbEntity
  8
0
  6
CONTINUOUS
 62
     7
100
AcDbCircle
 10
263.5668977836
 20
542.3364779902
 30
0.0
 40
0.2999999999999559
100
AcDbArc
 50
55.0
 51
72.3414428028
  0
ELLIPSE
  5
24C
330
1F
100
AcDbEntity
  8
0
  6
CONTINUOUS
 62
     7
100
AcDbEllipse
 10
269.3606042911
 20
549.1250545297
 30
0.0
 11
6.284122227538205
 21
6.17538971408635
 31
-2.131628207280301E-13
210
3.423458816216936E-14
220
-3.192536477459175E-16
230
1.0
 40
0.9988036078
 41
2.365519593132428
 42
3.181691522389633
  0
LINE
  5
24D
330
1F
100
AcDbEntity
  8
0
  6
CONTINUOUS
 62
     7
100
AcDbLine
 10
260.555242027
 20
901.3042913502
 30
0.0
 11
260.555242027
 21
549.1145120686
 31
0.0
  0
ELLIPSE
  5
24E
330
1F
100
AcDbEntity
  8
0
  6
CONTINUOUS
 62
     7
100
AcDbEllipse
 10
269.3606042911
 20
901.2937488891
 30
0.0
 11
6.284122227538262
 21
-6.17538971408635
 31
-2.131628207280301E-13
210
3.423458816216921E-14
220
3.192536477460847E-16
230
1.0
 40
0.9988036078
 41
3.101493784789953
 42
3.917665714047179
  0
ARC
  5
24F
330
1F
100
AcDbEntity
  8
0
  6
CONTINUOUS
 62
     7
100
AcDbCircle
 10
262.8995411845
 20
910.1786639437
 30
0.0
 40
2.500000000000073
100
AcDbArc
 50
279.8868147458
 51
287.6585571972
  0
ARC
  5
250
330
1F
100
AcDbEntity
  8
0
  6
CONTINUOUS
 62
     7
100
AcDbCircle
 10
263.5668977836
 20
908.0823254286
 30
0.0
 40
0.3000000000001632
100
AcDbArc
 50
287.6585571972
 51
305.0
  0
LINE
  5
251
330
1F
100
AcDbEntity
  8
0
  6
CONTINUOUS
 62
     7
100
AcDbLine
 10
264.8132786404
 20
908.5888134068
 30
0.0
 11
263.738964523
 21
907.8365729874
 31
0.0
  0
ARC
  5
252
330
1F
100
AcDbEntity
  8
0
  6
CONTINUOUS
 62
     7
100
AcDbCircle
 10
264.6412056181
 20
908.8345638727
 30
0.0
 40
0.3000000000000733
100
AcDbArc
 50
305.0
 51
322.3414428027
  0
ARC
  5
253
330
1F
100
AcDbEntity
  8
0
  6
CONTINUOUS
 62
     7
100
AcDbCircle
 10
262.8995411845
 20
910.1786639437
 30
0.0
 40
2.500000000000059
100
AcDbArc
 50
322.3414428028
 51
332.1266123039
  0
ELLIPSE
  5
254
330
1F
100
AcDbEntity
  8
0
  6
CONTINUOUS
 62
     7
100
AcDbEllipse
 10
269.3606042911
 20
901.2937488891
 30
0.0
 11
6.284122227538262
 21
-6.17538971408635
 31
-2.131628207280301E-13
210
3.423458816216921E-14
220
3.192536477460847E-16
230
1.0
 40
0.9988036078
 41
2.365519593132436
 42
2.850702565503378
  0
LINE
  5
255
330
1F
100
AcDbEntity
  8
0
  6
CONTINUOUS
 62
     7
100
AcDbLine
 10
420.4188034188
 20
912.7371774739
 30
0.0
 11
269.196395601
 21
910.09758578
 31
0.0
  0
LINE
  5
256
330
1F
100
AcDbEntity
  8
0
  6
CONTINUOUS
 62
     7
100
AcDbLine
 10
571.6412112366
 20
910.09758578
 30
0.0
 11
420.4188034188
 21
912.7371774739
 31
0.0
  0
ELLIPSE
  5
257
330
1F
100
AcDbEntity
  8
0
  6
CONTINUOUS
 62
     7
100
AcDbEllipse
 10
571.4770025465
 20
901.2937488891
 30
0.0
 11
-6.284122227538205
 21
-6.17538971408635
 31
2.131628207280301E-13
210
3.423458816216937E-14
220
-3.192536477459269E-16
230
1.0
 40
0.9988036078
 41
3.432482741676179
 42
3.917665714047159
  0
ARC
  5
258
330
1F
100
AcDbEntity
  8
0
  6
CONTINUOUS
 62
     7
100
AcDbCircle
 10
577.9380656531
 20
910.1786639437
 30
0.0
 40
2.500000000000015
100
AcDbArc
 50
207.8733876961
 51
217.6585571972
  0
ARC
  5
259
330
1F
100
AcDbEntity
  8
0
  6
CONTINUOUS
 62
     7
100
AcDbCircle
 10
576.1964012195
 20
908.8345638727
 30
0.0
 40
0.3000000000000537
100
AcDbArc
 50
217.6585571972
 51
235.0
  0
ELLIPSE
  5
25A
330
1F
100
AcDbEntity
  8
0
  6
CONTINUOUS
 62
     7
100
AcDbEllipse
 10
271.4561546177
 20
899.2344573185
 30
0.0
 11
1.071157197875834
 21
-1.052623246719463
 31
-2.842170943040400E-14
210
2.677905562907439E-14
220
2.497272977921116E-16
230
1.0
 40
0.9988036078
 41
2.365519593132442
 42
3.917665714047435
  0
LINE
  5
25B
330
1F
100
AcDbEntity
  8
0
  6
CONTINUOUS
 62
     7
100
AcDbLine
 10
269.9552372348
 20
899.2362485951
 30
0.0
 11
269.9552372348
 21
549.7093962258
 31
0.0
  0
LINE
  5
25C
330
1F
100
AcDbEntity
  8
0
  6
CONTINUOUS
 62
     7
100
AcDbLine
 10
269.9552372348
 20
549.7093962258
 30
0.0
 11
420.4188034188
 21
547.0830516642
 31
0.0
  0
LINE
  5
25D
330
1F
100
AcDbEntity
  8
0
  6
CONTINUOUS
 62
     7
100
AcDbLine
 10
420.4188034188
 20
547.0830516642
 30
0.0
 11
569.4094494235
 21
549.6836917227
 31
0.0
  0
ELLIPSE
  5
25E
330
1F
100
AcDbEntity
  8
0
  6
CONTINUOUS
 62
     7
100
AcDbEllipse
 10
569.3814522199
 20
551.1843461003
 30
0.0
 11
1.071157197875891
 21
-1.052623246719236
 31
-4.263256414560601E-14
210
4.016858344361152E-14
220
3.745909466903288E-16
230
0.9999999999999999
 40
0.9988036078
 41
5.507112246722128
 42
7.059258367636964
  0
LINE
  5
25F
330
1F
100
AcDbEntity
  8
0
  6
CONTINUOUS
 62
     7
100
AcDbLine
 10
570.8823696028
 20
551.1825548237
 30
0.0
 11
570.8823696028
 21
899.2362485951
 31
0.0
  0
ELLIPSE
  5
260
330
1F
100
AcDbEntity
  8
0
  6
CONTINUOUS
 62
     7
100
AcDbEllipse
 10
569.3814522199
 20
899.2344573185
 30
0.0
 11
-1.071157197875891
 21
-1.052623246719463
 31
2.842170943040401E-14
210
3.341940211141069E-14
220
-7.006992970114437E-15
230
0.9999999999999998
 40
0.9988036078
 41
2.365519593132219
 42
3.91766571404712
  0
LINE
  5
261
330
1F
100
AcDbEntity
  8
0
  6
CONTINUOUS
 62
     7
100
AcDbLine
 10
569.4094494235
 20
900.7351116961
 30
0.0
 11
420.4188034188
 21
903.3357517546
 31
0.0
  0
LINE
  5
262
330
1F
100
AcDbEntity
  8
0
  6
CONTINUOUS
 62
     7
100
AcDbLine
 10
420.4188034188
 20
903.3357517546
 30
0.0
 11
271.4281574141
 21
900.7351116961
 31
0.0
  0
ARC
  5
263
330
1F
100
AcDbEntity
  8
0
  6
CONTINUOUS
 62
     7
100
AcDbCircle
 10
262.8995411845
 20
540.2401394751
 30
0.0
 40
2.500000000000059
100
AcDbArc
 50
27.8733876961
 51
37.6585571972
  0
ARC
  5
264
330
1F
100
AcDbEntity
  8
0
  6
CONTINUOUS
 62
     7
100
AcDbCircle
 10
262.8995411845
 20
540.2401394751
 30
0.0
 40
2.500000000000006
100
AcDbArc
 50
72.3414428028
 51
80.1131852542
  0
LINE
  5
265
330
1F
100
AcDbEntity
  8
0
  6
CONTINUOUS
 62
     7
100
AcDbLine
 10
260.555242027
 20
901.3042913502
 30
0.0
 11
260.2691844355
 21
901.5854017561
 31
0.0
  0
ELLIPSE
  5
266
330
1F
100
AcDbEntity
  8
0
  6
CONTINUOUS
 62
     7
100
AcDbEllipse
 10
269.009669216
 20
901.6386118269
 30
0.0
 11
2.961928728213536
 21
8.302218762427515
 31
0.0
210
0.0
220
0.0
230
0.9999999999999999
 40
0.9904973314
 41
1.338313449148067
 42
1.916516772877611
  0
LINE
  5
267
330
1F
100
AcDbEntity
  8
0
  6
CONTINUOUS
 62
     7
100
AcDbLine
 10
261.689980353
 20
906.4062552279
 30
0.0
 11
262.6976862799
 21
907.6868312186
 31
0.0
  0
LWPOLYLINE
  5
268
330
1F
100
AcDbEntity
  8
0
  6
CONTINUOUS
 62
     7
100
AcDbPolyline
 90
        3
 70
   128
 43
0.0
 10
263.32879516
 20
907.7157990759
 10
263.188649739
 20
907.6954440897
 10
262.6976862799
 20
907.6868312186
  0
LWPOLYLINE
  5
269
330
1F
100
AcDbEntity
  8
0
  6
CONTINUOUS
 62
     7
100
AcDbPolyline
 90
        3
 70
   128
 43
0.0
 10
262.6976862799
 20
542.7319722002
 10
262.4613985669
 20
542.9905669516
 10
261.689980353
 20
544.0125481909
  0
ELLIPSE
  5
26A
330
1F
100
AcDbEntity
  8
0
  6
CONTINUOUS
 62
     7
100
AcDbEllipse
 10
269.009669216
 20
548.7801915919
 30
0.0
 11
-2.961928728213536
 21
8.302218762427515
 31
0.0
210
0.0
220
0.0
230
1.0
 40
0.9904973314
 41
1.225075880712168
 42
1.803279204441728
  0
LINE
  5
26B
330
1F
100
AcDbEntity
  8
0
  6
CONTINUOUS
 62
     7
100
AcDbLine
 10
260.2691844355
 20
548.8334016627
 30
0.0
 11
260.555242027
 21
549.1145120686
 31
0.0
  0
LWPOLYLINE
  5
26C
330
1F
100
AcDbEntity
  8
0
  6
CONTINUOUS
 62
     7
100
AcDbPolyline
 90
        3
 70
   128
 43
0.0
 10
263.32879516
 20
542.7030043429
 10
263.188649739
 20
542.7233593291
 10
262.6976862799
 20
542.7319722002
  0
LINE
  5
26D
330
1F
100
AcDbEntity
  8
0
  6
CONTINUOUS
 62
     7
100
AcDbLine
 10
260.2691844355
 20
548.8334016627
 30
0.0
 11
260.2691844355
 21
901.5854017561
 31
0.0
  0
LINE
  5
26E
330
1F
100
AcDbEntity
  8
0
  6
CONTINUOUS
 62
     7
100
AcDbLine
 10
269.196395601
 20
540.3212176388
 30
0.0
 11
268.8939020287
 21
540.0239543742
 31
0.0
  0
ELLIPSE
  5
26F
330
1F
100
AcDbEntity
  8
0
  6
CONTINUOUS
 62
     7
100
AcDbEllipse
 10
268.9932371541
 20
548.7640438496
 30
0.0
 11
8.278868221046366
 21
-3.028430899496925
 31
0.0
210
0.0
220
0.0
230
1.0
 40
0.9904809187
 41
4.879827987689628
 42
5.048715692216314
  0
LINE
  5
270
330
1F
100
AcDbEntity
  8
0
  6
CONTINUOUS
 62
     7
100
AcDbLine
 10
267.4153194081
 20
540.1739494627
 30
0.0
 11
265.3255358588
 21
540.84390567
 31
0.0
  0
LWPOLYLINE
  5
271
330
1F
100
AcDbEntity
  8
0
  6
CONTINUOUS
 62
     7
100
AcDbPolyline
 90
        3
 70
   128
 43
0.0
 10
265.3255358588
 20
540.84390567
 10
265.2643814933
 20
541.0510318106
 10
265.1094988238
 20
541.4089428013
  0
ELLIPSE
  5
272
330
1F
100
AcDbEntity
  8
0
  6
CONTINUOUS
 62
     7
100
AcDbEllipse
 10
268.9932371541
 20
901.6547595692
 30
0.0
 11
8.278868221046366
 21
3.028430899496925
 31
0.0
210
0.0
220
0.0
230
1.0
 40
0.9904809187
 41
1.234469614963285
 42
1.403357319489983
  0
LINE
  5
273
330
1F
100
AcDbEntity
  8
0
  6
CONTINUOUS
 62
     7
100
AcDbLine
 10
268.8939020287
 20
910.3948490446
 30
0.0
 11
269.196395601
 21
910.09758578
 31
0.0
  0
LWPOLYLINE
  5
274
330
1F
100
AcDbEntity
  8
0
  6
CONTINUOUS
 62
     7
100
AcDbPolyline
 90
        3
 70
   128
 43
0.0
 10
265.3255358588
 20
909.5748977488
 10
266.1210492503
 20
909.8989384001
 10
267.4153194081
 20
910.2448539561
  0
LWPOLYLINE
  5
275
330
1F
100
AcDbEntity
  8
0
  6
CONTINUOUS
 62
     7
100
AcDbPolyline
 90
        3
 70
   128
 43
0.0
 10
265.3255358588
 20
909.5748977488
 10
265.2643814933
 20
909.3677716082
 10
265.1094988238
 20
909.0098606175
  0
LINE
  5
276
330
1F
100
AcDbEntity
  8
0
  6
CONTINUOUS
 62
     7
100
AcDbLine
 10
420.4188034188
 20
537.3985634869
 30
0.0
 11
420.4188034188
 21
537.6816259449
 31
0.0
  0
LINE
  5
277
330
1F
100
AcDbEntity
  8
0
  6
CONTINUOUS
 62
     7
100
AcDbLine
 10
420.4188034188
 20
537.3985634869
 30
0.0
 11
268.8939020287
 21
540.0239543742
 31
0.0
  0
LINE
  5
278
330
1F
100
AcDbEntity
  8
0
  6
CONTINUOUS
 62
     7
100
AcDbLine
 10
420.4188034188
 20
913.0202399319
 30
0.0
 11
420.4188034188
 21
912.7371774739
 31
0.0
  0
LINE
  5
279
330
1F
100
AcDbEntity
  8
0
  6
CONTINUOUS
 62
     7
100
AcDbLine
 10
268.8939020287
 20
910.3948490446
 30
0.0
 11
420.4188034188
 21
913.0202399319
 31
0.0
  0
LINE
  5
27A
330
1F
100
AcDbEntity
  8
0
  6
CONTINUOUS
 62
     7
100
AcDbLine
 10
271.0168257605
 20
550.752626521
 30
0.0
 11
269.9552372348
 21
549.7093962258
 31
0.0
  0
LINE
  5
27B
330
1F
100
AcDbEntity
  8
0
  6
CONTINUOUS
 62
     7
100
AcDbLine
 10
271.0168257605
 20
898.1930332011
 30
0.0
 11
269.9552372348
 21
899.2362485951
 31
0.0
  0
LINE
  5
27C
330
1F
100
AcDbEntity
  8
0
  6
CONTINUOUS
 62
     7
100
AcDbLine
 10
271.0168257605
 20
898.1930332011
 30
0.0
 11
271.0168257605
 21
550.752626521
 31
0.0
  0
LINE
  5
27D
330
1F
100
AcDbEntity
  8
0
  6
CONTINUOUS
 62
     7
100
AcDbLine
 10
420.4188034188
 20
547.4099384373
 30
0.0
 11
420.4188034188
 21
547.0830516642
 31
0.0
  0
LINE
  5
27E
330
1F
100
AcDbEntity
  8
0
  6
CONTINUOUS
 62
     7
100
AcDbLine
 10
271.0168257605
 20
550.752626521
 30
0.0
 11
382.4585981917
 21
548.8073991364
 31
0.0
  0
LINE
  5
27F
330
1F
100
AcDbEntity
  8
0
  6
CONTINUOUS
 62
     7
100
AcDbLine
 10
402.5838606309
 20
547.7542893713
 30
0.0
 11
382.4585981917
 21
548.8073991364
 31
0.0
  0
LINE
  5
280
330
1F
100
AcDbEntity
  8
0
  6
CONTINUOUS
 62
     7
100
AcDbLine
 10
402.5838606309
 20
547.7542893713
 30
0.0
 11
420.4188034188
 21
547.4099384373
 31
0.0
  0
LINE
  5
281
330
1F
100
AcDbEntity
  8
0
  6
CONTINUOUS
 62
     7
100
AcDbLine
 10
271.4281574141
 20
900.7351116961
 30
0.0
 11
272.4897608411
 21
899.6918814009
 31
0.0
  0
ELLIPSE
  5
282
330
1F
100
AcDbEntity
  8
0
  6
CONTINUOUS
 62
     7
100
AcDbEllipse
 10
272.5177460102
 20
898.1912343625
 30
0.0
 11
1.071157197875777
 21
-1.052623246719236
 31
-4.263256414560600E-14
210
4.016858344361368E-14
220
3.745909466882084E-16
230
1.0
 40
0.9988036078
 41
2.365519593132514
 42
3.917665714047122
  0
LINE
  5
283
330
1F
100
AcDbEntity
  8
0
  6
CONTINUOUS
 62
     7
100
AcDbLine
 10
420.4188034188
 20
902.9781536883
 30
0.0
 11
420.4188034188
 21
903.3357517546
 31
0.0
  0
LINE
  5
284
330
1F
100
AcDbEntity
  8
0
  6
CONTINUOUS
 62
     7
100
AcDbLine
 10
402.5838606309
 20
902.6645140475
 30
0.0
 11
420.4188034188
 21
902.9781536883
 31
0.0
  0
LINE
  5
285
330
1F
100
AcDbEntity
  8
0
  6
CONTINUOUS
 62
     7
100
AcDbLine
 10
382.4585981917
 20
901.6114042824
 30
0.0
 11
402.5838606309
 21
902.6645140475
 31
0.0
  0
LINE
  5
286
330
1F
100
AcDbEntity
  8
0
  6
CONTINUOUS
 62
     7
100
AcDbLine
 10
382.4585981917
 20
901.6114042824
 30
0.0
 11
272.4897608411
 21
899.6918814009
 31
0.0
  0
LINE
  5
287
330
1F
100
AcDbEntity
  8
0
  6
CONTINUOUS
 62
     7
100
AcDbLine
 10
571.9437048089
 20
540.0239543742
 30
0.0
 11
571.6412112366
 21
540.3212176388
 31
0.0
  0
LINE
  5
288
330
1F
100
AcDbEntity
  8
0
  6
CONTINUOUS
 62
     7
100
AcDbLine
 10
571.9437048089
 20
540.0239543742
 30
0.0
 11
420.4188034188
 21
537.3985634869
 31
0.0
  0
LINE
  5
289
330
1F
100
AcDbEntity
  8
0
  6
CONTINUOUS
 62
     7
100
AcDbLine
 10
420.4188034188
 20
913.0202399319
 30
0.0
 11
571.9437048089
 21
910.3948490446
 31
0.0
  0
LINE
  5
28A
330
1F
100
AcDbEntity
  8
0
  6
CONTINUOUS
 62
     7
100
AcDbLine
 10
571.6412112366
 20
910.09758578
 30
0.0
 11
571.9437048089
 21
910.3948490446
 31
0.0
  0
LINE
  5
28B
330
1F
100
AcDbEntity
  8
0
  6
CONTINUOUS
 62
     7
100
AcDbLine
 10
458.3790086459
 20
548.8073991364
 30
0.0
 11
568.3478459965
 21
550.7269220179
 31
0.0
  0
LINE
  5
28C
330
1F
100
AcDbEntity
  8
0
  6
CONTINUOUS
 62
     7
100
AcDbLine
 10
569.4094494235
 20
549.6836917227
 30
0.0
 11
568.3478459965
 21
550.7269220179
 31
0.0
  0
LINE
  5
28D
330
1F
100
AcDbEntity
  8
0
  6
CONTINUOUS
 62
     7
100
AcDbLine
 10
438.2537462067
 20
547.7542893713
 30
0.0
 11
420.4188034188
 21
547.4099384373
 31
0.0
  0
LINE
  5
28E
330
1F
100
AcDbEntity
  8
0
  6
CONTINUOUS
 62
     7
100
AcDbLine
 10
458.3790086459
 20
548.8073991364
 30
0.0
 11
438.2537462067
 21
547.7542893713
 31
0.0
  0
LINE
  5
28F
330
1F
100
AcDbEntity
  8
0
  6
CONTINUOUS
 62
     7
100
AcDbLine
 10
438.2537462067
 20
902.6645140475
 30
0.0
 11
458.3790086459
 21
901.6114042824
 31
0.0
  0
LINE
  5
290
330
1F
100
AcDbEntity
  8
0
  6
CONTINUOUS
 62
     7
100
AcDbLine
 10
420.4188034188
 20
902.9781536883
 30
0.0
 11
438.2537462067
 21
902.6645140475
 31
0.0
  0
LINE
  5
291
330
1F
100
AcDbEntity
  8
0
  6
CONTINUOUS
 62
     7
100
AcDbLine
 10
568.3478459965
 20
899.6918814009
 30
0.0
 11
569.4094494235
 21
900.7351116961
 31
0.0
  0
LINE
  5
292
330
1F
100
AcDbEntity
  8
0
  6
CONTINUOUS
 62
     7
100
AcDbLine
 10
568.3478459965
 20
899.6918814009
 30
0.0
 11
458.3790086459
 21
901.6114042824
 31
0.0
  0
ELLIPSE
  5
293
330
1F
100
AcDbEntity
  8
0
  6
CONTINUOUS
 62
     7
100
AcDbEllipse
 10
568.3198608274
 20
552.2275690564
 30
0.0
 11
1.071157197875891
 21
-1.052623246719122
 31
-2.842170943040401E-14
210
2.677905562907290E-14
220
2.497272977921100E-16
230
1.0
 40
0.9988036078
 41
5.50711224672223
 42
7.059258367636907
  0
LINE
  5
294
330
1F
100
AcDbEntity
  8
0
  6
CONTINUOUS
 62
     7
100
AcDbLine
 10
569.8207810771
 20
552.2257702177
 30
0.0
 11
570.8823696028
 21
551.1825548237
 31
0.0
  0
LINE
  5
295
330
1F
100
AcDbEntity
  8
0
  6
CONTINUOUS
 62
     7
100
AcDbLine
 10
570.8823696028
 20
899.2362485951
 30
0.0
 11
569.8207810771
 21
898.1930332011
 31
0.0
  0
ELLIPSE
  5
296
330
1F
100
AcDbEntity
  8
0
  6
CONTINUOUS
 62
     7
100
AcDbEllipse
 10
568.3198608274
 20
898.1912343625
 30
0.0
 11
-1.071157197875777
 21
-1.052623246719236
 31
4.263256414560600E-14
210
3.352823696127557E-14
220
6.382674725635252E-15
230
1.0
 40
0.9988036078
 41
2.365519593132429
 42
3.917665714047098
  0
LINE
  5
297
330
1F
100
AcDbEntity
  8
0
  6
CONTINUOUS
 62
     7
100
AcDbLine
 10
569.8207810771
 20
552.2257702177
 30
0.0
 11
569.8207810771
 21
898.1930332011
 31
0.0
  0
ELLIPSE
  5
298
330
1F
100
AcDbEntity
  8
0
  6
CONTINUOUS
 62
     7
100
AcDbEllipse
 10
571.8443696835
 20
901.6547595692
 30
0.0
 11
8.278868221046764
 21
-3.028430899496015
 31
0.0
210
0.0
220
0.0
230
1.0
 40
0.9904809187
 41
1.7382353340997
 42
1.907123038626398
  0
LINE
  5
299
330
1F
100
AcDbEntity
  8
0
  6
CONTINUOUS
 62
     7
100
AcDbLine
 10
573.4222874295
 20
910.2448539561
 30
0.0
 11
575.5120709788
 21
909.5748977488
 31
0.0
  0
LWPOLYLINE
  5
29A
330
1F
100
AcDbEntity
  8
0
  6
CONTINUOUS
 62
     7
100
AcDbPolyline
 90
        3
 70
   128
 43
0.0
 10
575.7281080138
 20
909.0098606175
 10
575.6950125348
 20
909.0747253722
 10
575.5120709788
 20
909.5748977488
  0
LWPOLYLINE
  5
29B
330
1F
100
AcDbEntity
  8
0
  6
CONTINUOUS
 62
     7
100
AcDbPolyline
 90
        3
 70
   128
 43
0.0
 10
575.5120709788
 20
540.84390567
 10
574.7165575873
 20
540.5198650187
 10
573.4222874295
 20
540.1739494627
  0
ELLIPSE
  5
29C
330
1F
100
AcDbEntity
  8
0
  6
CONTINUOUS
 62
     7
100
AcDbEllipse
 10
571.8443696835
 20
548.7640438496
 30
0.0
 11
8.278868221046764
 21
3.028430899496015
 31
0.0
210
0.0
220
0.0
230
1.0
 40
0.9904809187
 41
4.376062268553204
 42
4.544949973079875
  0
LWPOLYLINE
  5
29D
330
1F
100
AcDbEntity
  8
0
  6
CONTINUOUS
 62
     7
100
AcDbPolyline
 90
        3
 70
   128
 43
0.0
 10
575.7281080138
 20
541.4089428013
 10
575.6950125348
 20
541.3440780466
 10
575.5120709788
 20
540.84390567
  0
ELLIPSE
  5
29E
330
1F
100
AcDbEntity
  8
0
  6
CONTINUOUS
 62
     7
100
AcDbEllipse
 10
571.8279376216
 20
901.6386118269
 30
0.0
 11
-2.961928728214503
 21
8.302218762427287
 31
0.0
210
0.0
220
0.0
230
1.0
 40
0.9904973314
 41
4.366668534301878
 42
4.944871858031423
  0
LINE
  5
29F
330
1F
100
AcDbEntity
  8
0
  6
CONTINUOUS
 62
     7
100
AcDbLine
 10
580.5684224021
 20
901.5854017561
 30
0.0
 11
580.2823648106
 21
901.3042913502
 31
0.0
  0
LWPOLYLINE
  5
2A0
330
1F
100
AcDbEntity
  8
0
  6
CONTINUOUS
 62
     7
100
AcDbPolyline
 90
        3
 70
   128
 43
0.0
 10
578.1399205577
 20
907.6868312186
 10
578.3762082707
 20
907.4282364672
 10
579.1476264846
 20
906.4062552279
  0
LWPOLYLINE
  5
2A1
330
1F
100
AcDbEntity
  8
0
  6
CONTINUOUS
 62
     7
100
AcDbPolyline
 90
        3
 70
   128
 43
0.0
 10
578.1399205577
 20
907.6868312186
 10
577.9169991862
 20
907.6787547892
 10
577.5088116776
 20
907.7157990759
  0
LINE
  5
2A2
330
1F
100
AcDbEntity
  8
0
  6
CONTINUOUS
 62
     7
100
AcDbLine
 10
580.2823648106
 20
549.1145120686
 30
0.0
 11
580.5684224021
 21
548.8334016627
 31
0.0
  0
ELLIPSE
  5
2A3
330
1F
100
AcDbEntity
  8
0
  6
CONTINUOUS
 62
     7
100
AcDbEllipse
 10
571.8279376216
 20
548.7801915919
 30
0.0
 11
2.961928728214389
 21
8.30221876242706
 31
0.0
210
0.0
220
0.0
230
0.9999999999999999
 40
0.9904973314
 41
4.479906102737948
 42
5.058109426467531
  0
LINE
  5
2A4
330
1F
100
AcDbEntity
  8
0
  6
CONTINUOUS
 62
     7
100
AcDbLine
 10
579.1476264846
 20
544.0125481909
 30
0.0
 11
578.1399205577
 21
542.7319722002
 31
0.0
  0
LWPOLYLINE
  5
2A5
330
1F
100
AcDbEntity
  8
0
  6
CONTINUOUS
 62
     7
100
AcDbPolyline
 90
        3
 70
   128
 43
0.0
 10
578.1399205577
 20
542.7319722002
 10
577.9169991862
 20
542.7400486296
 10
577.5088116776
 20
542.7030043429
  0
LINE
  5
2A6
330
1F
100
AcDbEntity
  8
0
  6
CONTINUOUS
 62
     7
100
AcDbLine
 10
580.5684224021
 20
901.5854017561
 30
0.0
 11
580.5684224021
 21
548.8334016627
 31
0.0
  0
ARC
  5
2A7
330
1F
100
AcDbEntity
  8
0
  6
CONTINUOUS
 62
     7
100
AcDbCircle
 10
265.7856712851
 20
906.0534585675
 30
0.0
 40
3.024610917459299
100
AcDbArc
 50
103.6576383383
 51
146.262174695
  0
ARC
  5
2A8
330
1F
100
AcDbEntity
  8
0
  6
CONTINUOUS
 62
     7
100
AcDbCircle
 10
262.9052890088
 20
910.1732034921
 30
0.0
 40
2.46706853691633
100
AcDbArc
 50
331.4081361996
 51
278.5116768338
  0
LINE
  5
2A9
330
1F
100
AcDbEntity
  8
0
  6
CONTINUOUS
 62
     7
100
AcDbLine
 10
254.7912046563
 20
913.3050309246
 30
0.0
 11
261.689980353
 21
906.4062552279
 31
0.0
  0
LINE
  5
2AA
330
1F
100
AcDbEntity
  8
0
  6
CONTINUOUS
 62
     7
100
AcDbLine
 10
267.4153194081
 20
910.2448539561
 30
0.0
 11
259.5731660973
 21
918.0870072668
 31
0.0
  0
LINE
  5
2AB
330
1F
100
AcDbEntity
  8
0
  6
CONTINUOUS
 62
     7
100
AcDbLine
 10
259.5731660973
 20
532.331796152
 30
0.0
 11
267.4153194081
 21
540.1739494627
 31
0.0
  0
LINE
  5
2AC
330
1F
100
AcDbEntity
  8
0
  6
CONTINUOUS
 62
     7
100
AcDbLine
 10
261.689980353
 20
544.0125481909
 30
0.0
 11
254.7912046563
 21
537.1137724942
 31
0.0
  0
ARC
  5
2AD
330
1F
100
AcDbEntity
  8
0
  6
CONTINUOUS
 62
     7
100
AcDbCircle
 10
262.8995397457
 20
540.240135342
 30
0.0
 40
2.499999149975845
100
AcDbArc
 50
94.6311834821
 51
13.9755734377
  0
ARC
  5
2AE
330
1F
100
AcDbEntity
  8
0
  6
CONTINUOUS
 62
     7
100
AcDbCircle
 10
575.0532632196
 20
544.363447606
 30
0.0
 40
3.024589466147573
100
AcDbArc
 50
283.6048449973
 51
326.3146104137
  0
ARC
  5
2AF
330
1F
100
AcDbEntity
  8
0
  6
CONTINUOUS
 62
     7
100
AcDbCircle
 10
577.9324306492
 20
540.245412882
 30
0.0
 40
2.467263180353553
100
AcDbArc
 50
151.4726303038
 51
98.4468251072
  0
LINE
  5
2B0
330
1F
100
AcDbEntity
  8
0
  6
CONTINUOUS
 62
     7
100
AcDbLine
 10
586.0464021813
 20
537.1137724942
 30
0.0
 11
579.1476264846
 21
544.0125481909
 31
0.0
  0
LINE
  5
2B1
330
1F
100
AcDbEntity
  8
0
  6
CONTINUOUS
 62
     7
100
AcDbLine
 10
573.4222874295
 20
540.1739494627
 30
0.0
 11
581.2644407403
 21
532.331796152
 31
0.0
  0
ARC
  5
2B2
330
1F
100
AcDbEntity
  8
0
  6
CONTINUOUS
 62
     7
100
AcDbCircle
 10
575.0516942402
 20
906.053113424
 30
0.0
 40
3.025003284111914
100
AcDbArc
 50
33.7407231187
 51
76.3394638479
  0
ARC
  5
2B3
330
1F
100
AcDbEntity
  8
0
  6
CONTINUOUS
 62
     7
100
AcDbCircle
 10
577.9324417242
 20
910.1733806967
 30
0.0
 40
2.467262129506334
100
AcDbArc
 50
261.4860867907
 51
208.5941001759
  0
LINE
  5
2B4
330
1F
100
AcDbEntity
  8
0
  6
CONTINUOUS
 62
     7
100
AcDbLine
 10
581.2644407403
 20
918.0870072668
 30
0.0
 11
573.4222874295
 21
910.2448539561
 31
0.0
  0
LINE
  5
2B5
330
1F
100
AcDbEntity
  8
0
  6
CONTINUOUS
 62
     7
100
AcDbLine
 10
579.1476264846
 20
906.4062552279
 30
0.0
 11
586.0464021813
 21
913.3050309246
 31
0.0
  0
ARC
  5
2B6
330
1F
100
AcDbEntity
  8
0
  6
CONTINUOUS
 62
     7
100
AcDbCircle
 10
583.84415806
 20
765.9876391996
 30
0.0
 40
0.919210857134922
100
AcDbArc
 50
359.4260369908
 51
68.86524348
  0
LWPOLYLINE
  5
2B7
330
1F
100
AcDbEntity
  8
0
  6
CONTINUOUS
 62
     7
100
AcDbPolyline
 90
        3
 70
   128
 43
0.0
 10
584.1755911957
 20
766.8450193232
 10
583.7006315839
 20
766.9722826904
 10
583.3149150264
 20
766.9978642588
  0
LWPOLYLINE
  5
2B8
330
1F
100
AcDbEntity
  8
0
  6
CONTINUOUS
 62
     7
100
AcDbPolyline
 90
        5
 70
   128
 43
0.0
 10
583.3149150264
 20
766.9978642588
 10
582.3566958558
 20
766.7986804372
 10
582.1550831448
 20
766.6538895791
 10
581.9998726498
 20
766.4586284881
 10
581.8665072572
 20
765.9784311181
  0
LWPOLYLINE
  5
2B9
330
1F
100
AcDbEntity
  8
0
  6
CONTINUOUS
 62
     7
100
AcDbPolyline
 90
        5
 70
   128
 43
0.0
 10
581.8665072572
 20
765.9784311181
 10
581.9982037198
 20
765.4977867132
 10
582.1515664708
 20
765.3009423738
 10
582.3520615947
 20
765.154601795
 10
583.3149150264
 20
764.9786339825
  0
LWPOLYLINE
  5
2BA
330
1F
100
AcDbEntity
  8
0
  6
CONTINUOUS
 62
     7
100
AcDbPolyline
 90
        5
 70
   128
 43
0.0
 10
583.3149150264
 20
764.9786339825
 10
584.2778727662
 20
765.1540131992
 10
584.4780996691
 20
765.3006555265
 10
584.6311643969
 20
765.4978127902
 10
584.7633227956
 20
765.9784311181
  0
ARC
  5
2BB
330
1F
100
AcDbEntity
  8
0
  6
CONTINUOUS
 62
     7
100
AcDbCircle
 10
583.0092346325
 20
766.0385568488
 30
0.0
 40
1.495628402828235
100
AcDbArc
 50
182.787810418
 51
281.8470139427
  0
LWPOLYLINE
  5
2BC
330
1F
100
AcDbEntity
  8
0
  6
CONTINUOUS
 62
     7
100
AcDbPolyline
 90
        5
 70
   128
 43
0.0
 10
581.5153762948
 20
765.9658135599
 10
581.593786205
 20
766.4497920996
 10
581.8353340279
 20
766.8730223304
 10
582.2135702025
 20
767.1747484928
 10
583.3162859332
 20
767.4017080789
  0
ARC
  5
2BD
330
1F
100
AcDbEntity
  8
0
  6
CONTINUOUS
 62
     7
100
AcDbCircle
 10
583.5911997087
 20
765.9021138096
 30
0.0
 40
1.5245853720339
100
AcDbArc
 50
2.3946114407
 51
100.3884201294
  0
LWPOLYLINE
  5
2BE
330
1F
100
AcDbEntity
  8
0
  6
CONTINUOUS
 62
     7
100
AcDbPolyline
 90
        5
 70
   128
 43
0.0
 10
585.1144537579
 20
765.9658135599
 10
585.036341871
 20
765.4866406446
 10
584.7941383969
 20
765.0693112737
 10
584.413652147
 20
764.7786454981
 10
583.3162859332
 20
764.5747864371
  0
ARC
  5
2BF
330
1F
100
AcDbEntity
  8
0
  6
CONTINUOUS
 62
     7
100
AcDbCircle
 10
583.8441526705
 20
769.1735336099
 30
0.0
 40
0.9192162097878552
100
AcDbArc
 50
359.4262681805
 51
68.8650122903
  0
LWPOLYLINE
  5
2C0
330
1F
100
AcDbEntity
  8
0
  6
CONTINUOUS
 62
     7
100
AcDbPolyline
 90
        3
 70
   128
 43
0.0
 10
584.1755911957
 20
770.0309173888
 10
583.7006315839
 20
770.1581807559
 10
583.3149150264
 20
770.1837623244
  0
LWPOLYLINE
  5
2C1
330
1F
100
AcDbEntity
  8
0
  6
CONTINUOUS
 62
     7
100
AcDbPolyline
 90
        5
 70
   128
 43
0.0
 10
583.3149150264
 20
770.1837623244
 10
582.3566958558
 20
769.9845785027
 10
582.1550831448
 20
769.8397876447
 10
581.9998726498
 20
769.6445265537
 10
581.8665072572
 20
769.1643291837
  0
LWPOLYLINE
  5
2C2
330
1F
100
AcDbEntity
  8
0
  6
CONTINUOUS
 62
     7
100
AcDbPolyline
 90
        5
 70
   128
 43
0.0
 10
581.8665072572
 20
769.1643291837
 10
581.9982037198
 20
768.6836847788
 10
582.1515664708
 20
768.4868404394
 10
582.3520615947
 20
768.3404998606
 10
583.3149150264
 20
768.1645283228
  0
LWPOLYLINE
  5
2C3
330
1F
100
AcDbEntity
  8
0
  6
CONTINUOUS
 62
     7
100
AcDbPolyline
 90
        5
 70
   128
 43
0.0
 10
583.3149150264
 20
768.1645283228
 10
584.2778727662
 20
768.3399075395
 10
584.4780996691
 20
768.486553592
 10
584.6311643969
 20
768.6837108558
 10
584.7633227956
 20
769.1643291837
  0
ARC
  5
2C4
330
1F
100
AcDbEntity
  8
0
  6
CONTINUOUS
 62
     7
100
AcDbCircle
 10
583.0092346539
 20
769.2244551369
 30
0.0
 40
1.495628616194742
100
AcDbArc
 50
182.7879614342
 51
281.8470113913
  0
LWPOLYLINE
  5
2C5
330
1F
100
AcDbEntity
  8
0
  6
CONTINUOUS
 62
     7
100
AcDbPolyline
 90
        5
 70
   128
 43
0.0
 10
581.5153762948
 20
769.1517079001
 10
581.593786205
 20
769.6356901651
 10
581.8353340279
 20
770.0589203959
 10
582.2135702025
 20
770.3606428331
 10
583.3162859332
 20
770.5876061445
  0
ARC
  5
2C6
330
1F
100
AcDbEntity
  8
0
  6
CONTINUOUS
 62
     7
100
AcDbCircle
 10
583.5911997301
 20
769.0880120672
 30
0.0
 40
1.524585187008763
100
AcDbArc
 50
2.3944643852
 51
100.3884222209
  0
LWPOLYLINE
  5
2C7
330
1F
100
AcDbEntity
  8
0
  6
CONTINUOUS
 62
     7
100
AcDbPolyline
 90
        5
 70
   128
 43
0.0
 10
585.1144537579
 20
769.1517079001
 10
585.036341871
 20
768.6725387102
 10
584.7941383969
 20
768.2552093392
 10
584.413652147
 20
767.9645435637
 10
583.3162859332
 20
767.7606845027
  0
LINE
  5
2C8
330
1F
100
AcDbEntity
  8
0
  6
CONTINUOUS
 62
     7
100
AcDbLine
 10
582.3932037007
 20
761.9273492819
 30
0.0
 11
582.3932037007
 21
761.5235054618
 31
0.0
  0
ARC
  5
2C9
330
1F
100
AcDbEntity
  8
0
  6
CONTINUOUS
 62
     7
100
AcDbCircle
 10
582.7329081516
 20
762.6965618314
 30
0.0
 40
1.221253601968421
100
AcDbArc
 50
175.5257693154
 51
253.8495547793
  0
ARC
  5
2CA
330
1F
100
AcDbEntity
  8
0
  6
CONTINUOUS
 62
     7
100
AcDbCircle
 10
582.6170436729
 20
762.9445514663
 30
0.0
 40
1.112202335152625
100
AcDbArc
 50
100.9983759622
 51
187.8923351245
  0
ARC
  5
2CB
330
1F
100
AcDbEntity
  8
0
  6
CONTINUOUS
 62
     7
100
AcDbCircle
 10
582.3741630313
 20
763.2539405604
 30
0.0
 40
0.7829867936285156
100
AcDbArc
 50
20.1609662159
 51
87.7534082125
  0
LWPOLYLINE
  5
2CC
330
1F
100
AcDbEntity
  8
0
  6
CONTINUOUS
 62
     7
100
AcDbPolyline
 90
        3
 70
   128
 43
0.0
 10
583.1091746938
 20
763.5238038128
 10
583.2463398825
 20
763.7921588248
 10
583.4013268601
 20
763.9697173363
  0
LWPOLYLINE
  5
2CD
330
1F
100
AcDbEntity
  8
0
  6
CONTINUOUS
 62
     7
100
AcDbPolyline
 90
        3
 70
   128
 43
0.0
 10
583.4013268601
 20
763.9697173363
 10
583.7205246341
 20
764.1662040478
 10
584.0096369635
 20
764.2158137387
  0
LWPOLYLINE
  5
2CE
330
1F
100
AcDbEntity
  8
0
  6
CONTINUOUS
 62
     7
100
AcDbPolyline
 90
        4
 70
   128
 43
0.0
 10
584.0096369635
 20
764.2158137387
 10
584.5327124249
 20
764.0475013977
 10
584.9079683673
 20
763.6346311992
 10
585.1144537579
 20
762.7764099961
  0
ARC
  5
2CF
330
1F
100
AcDbEntity
  8
0
  6
CONTINUOUS
 62
     7
100
AcDbCircle
 10
583.8258317362
 20
762.6529589618
 30
0.0
 40
1.294521870293555
100
AcDbArc
 50
282.4520466423
 51
5.4722817407
  0
LINE
  5
2D0
330
1F
100
AcDbEntity
  8
0
  6
CONTINUOUS
 62
     7
100
AcDbLine
 10
584.1049596917
 20
761.3888883716
 30
0.0
 11
584.1049596917
 21
761.7927359169
 31
0.0
  0
LWPOLYLINE
  5
2D1
330
1F
100
AcDbEntity
  8
0
  6
CONTINUOUS
 62
     7
100
AcDbPolyline
 90
        3
 70
   128
 43
0.0
 10
584.1049596917
 20
761.7927359169
 10
584.3954578292
 20
761.9325386113
 10
584.5781609666
 20
762.1096426373
  0
LWPOLYLINE
  5
2D2
330
1F
100
AcDbEntity
  8
0
  6
CONTINUOUS
 62
     7
100
AcDbPolyline
 90
        3
 70
   128
 43
0.0
 10
584.5781609666
 20
762.1096426373
 10
584.7321942698
 20
762.4726572758
 10
584.7633227956
 20
762.7834209925
  0
ARC
  5
2D3
330
1F
100
AcDbEntity
  8
0
  6
CONTINUOUS
 62
     7
100
AcDbCircle
 10
583.8788171218
 20
762.9298676413
 30
0.0
 40
0.896547214497987
100
AcDbArc
 50
350.5988850378
 51
79.6997004448
  0
LWPOLYLINE
  5
2D4
330
1F
100
AcDbEntity
  8
0
  6
CONTINUOUS
 62
     7
100
AcDbPolyline
 90
        5
 70
   128
 43
0.0
 10
584.0391263615
 20
763.8119661933
 10
583.8500753295
 20
763.7771794325
 10
583.6824521672
 20
763.6808620518
 10
583.4468350064
 20
763.3730562156
 10
583.3149150264
 20
762.6004272824
  0
LINE
  5
2D5
330
1F
100
AcDbEntity
  8
0
  6
CONTINUOUS
 62
     7
100
AcDbLine
 10
583.3149150264
 20
762.6004272824
 30
0.0
 11
582.963784064
 21
762.6004272824
 31
0.0
  0
LWPOLYLINE
  5
2D6
330
1F
100
AcDbEntity
  8
0
  6
CONTINUOUS
 62
     7
100
AcDbPolyline
 90
        5
 70
   128
 43
0.0
 10
582.963784064
 20
762.6004272824
 10
582.8546330582
 20
763.2352465516
 10
582.6886043202
 20
763.5088095194
 10
582.5576976191
 20
763.599300546
 10
582.4034855019
 20
763.6324779814
  0
LWPOLYLINE
  5
2D7
330
1F
100
AcDbEntity
  8
0
  6
CONTINUOUS
 62
     7
100
AcDbPolyline
 90
        5
 70
   128
 43
0.0
 10
582.4034855019
 20
763.6324779814
 10
582.2713122021
 20
763.6088670915
 10
582.1548000228
 20
763.5407054549
 10
581.9849863898
 20
763.3286805576
 10
581.8665072572
 20
762.7967426306
  0
ARC
  5
2D8
330
1F
100
AcDbEntity
  8
0
  6
CONTINUOUS
 62
     7
100
AcDbCircle
 10
582.765316099
 20
762.7470211221
 30
0.0
 40
0.9001830717425828
100
AcDbArc
 50
176.8336627868
 51
245.5830303448
  0
LWPOLYLINE
  5
2D9
330
1F
100
AcDbEntity
  8
0
  6
CONTINUOUS
 62
     7
100
AcDbPolyline
 90
        4
 70
   128
 43
0.0
 10
582.5468197715
 20
773.1901721781
 10
582.2233453643
 20
773.0850109583
 10
581.9966987025
 20
772.8226350373
 10
581.8665072572
 20
772.2913341349
  0
ARC
  5
2DA
330
1F
100
AcDbEntity
  8
0
  6
CONTINUOUS
 62
     7
100
AcDbCircle
 10
582.664412396
 20
772.1908599785
 30
0.0
 40
0.8042062339160261
100
AcDbArc
 50
172.8229511553
 51
261.5919524926
  0
LWPOLYLINE
  5
2DB
330
1F
100
AcDbEntity
  8
0
  6
CONTINUOUS
 62
     7
100
AcDbPolyline
 90
        4
 70
   128
 43
0.0
 10
582.5468197715
 20
771.39529751
 10
582.8720972192
 20
771.5027311569
 10
583.0980733287
 20
771.7693576342
 10
583.2271322858
 20
772.3053561276
  0
ARC
  5
2DC
330
1F
100
AcDbEntity
  8
0
  6
CONTINUOUS
 62
     7
100
AcDbCircle
 10
582.4463884884
 20
772.4090076203
 30
0.0
 40
0.7875941271091709
100
AcDbArc
 50
352.4376387248
 51
82.6738935069
  0
LINE
  5
2DD
330
1F
100
AcDbEntity
  8
0
  6
CONTINUOUS
 62
     7
100
AcDbLine
 10
585.1144537579
 20
771.844016177
 30
0.0
 11
584.9416300904
 21
771.4976647621
 31
0.0
  0
LINE
  5
2DE
330
1F
100
AcDbEntity
  8
0
  6
CONTINUOUS
 62
     7
100
AcDbLine
 10
584.9416300904
 20
771.4976647621
 30
0.0
 11
583.5487738501
 21
772.6489061242
 31
0.0
  0
LWPOLYLINE
  5
2DF
330
1F
100
AcDbEntity
  8
0
  6
CONTINUOUS
 62
     7
100
AcDbPolyline
 90
        3
 70
   128
 43
0.0
 10
583.5487738501
 20
772.6489061242
 10
583.5720196616
 20
772.4086994058
 10
583.5782632481
 20
772.2191156572
  0
ARC
  5
2E0
330
1F
100
AcDbEntity
  8
0
  6
CONTINUOUS
 62
     7
100
AcDbCircle
 10
582.4689424385
 20
772.1028003832
 30
0.0
 40
1.115402125569552
100
AcDbArc
 50
274.8873354259
 51
5.9857447732
  0
LWPOLYLINE
  5
2E1
330
1F
100
AcDbEntity
  8
0
  6
CONTINUOUS
 62
     7
100
AcDbPolyline
 90
        4
 70
   128
 43
0.0
 10
582.563971008
 20
770.9914536899
 10
582.0730224501
 20
771.1346314972
 10
581.721265639
 20
771.51579575
 10
581.5153762948
 20
772.3102623349
  0
ARC
  5
2E2
330
1F
100
AcDbEntity
  8
0
  6
CONTINUOUS
 62
     7
100
AcDbCircle
 10
582.6775385643
 20
772.4308202034
 30
0.0
 40
1.168398622168297
100
AcDbArc
 50
95.4090763406
 51
185.9224418684
  0
LWPOLYLINE
  5
2E3
330
1F
100
AcDbEntity
  8
0
  6
CONTINUOUS
 62
     7
100
AcDbPolyline
 90
        3
 70
   128
 43
0.0
 10
582.5673982751
 20
773.5940159982
 10
583.1665739667
 20
773.409647656
 10
583.5727796208
 20
773.1172533458
  0
LINE
  5
2E4
330
1F
100
AcDbEntity
  8
0
  6
CONTINUOUS
 62
     7
100
AcDbLine
 10
583.5727796208
 20
773.1172533458
 30
0.0
 11
585.1144537579
 21
771.844016177
 31
0.0
  0
LINE
  5
2E5
330
1F
100
AcDbEntity
  8
0
  6
CONTINUOUS
 62
     7
100
AcDbLine
 10
585.1144537579
 20
769.1517079001
 30
0.0
 11
585.1560428988
 21
769.1517079001
 31
0.0
  0
LINE
  5
2E6
330
1F
100
AcDbEntity
  8
0
  6
CONTINUOUS
 62
     7
100
AcDbLine
 10
583.3162859332
 20
770.5876061445
 30
0.0
 11
583.3578750741
 21
770.5876061445
 31
0.0
  0
ARC
  5
2E7
330
1F
100
AcDbEntity
  8
0
  6
CONTINUOUS
 62
     7
100
AcDbCircle
 10
583.6327734051
 20
769.0879926993
 30
0.0
 40
1.524601448697837
100
AcDbArc
 50
2.3951673274
 51
100.3877192787
  0
LINE
  5
2E8
330
1F
100
AcDbEntity
  8
0
  6
CONTINUOUS
 62
     7
100
AcDbLine
 10
583.3162859332
 20
767.7606845027
 30
0.0
 11
583.3578750741
 21
767.7606845027
 31
0.0
  0
LWPOLYLINE
  5
2E9
330
1F
100
AcDbEntity
  8
0
  6
CONTINUOUS
 62
     7
100
AcDbPolyline
 90
        5
 70
   128
 43
0.0
 10
585.1560428988
 20
769.1517079001
 10
585.0779310118
 20
768.6725387102
 10
584.8357126366
 20
768.2552093392
 10
584.4552412879
 20
767.9645435637
 10
583.3578750741
 20
767.7606845027
  0
LINE
  5
2EA
330
1F
100
AcDbEntity
  8
0
  6
CONTINUOUS
 62
     7
100
AcDbLine
 10
583.3162859332
 20
764.5747864371
 30
0.0
 11
583.3578750741
 21
764.5747864371
 31
0.0
  0
LINE
  5
2EB
330
1F
100
AcDbEntity
  8
0
  6
CONTINUOUS
 62
     7
100
AcDbLine
 10
585.1144537579
 20
765.9658135599
 30
0.0
 11
585.1560428988
 21
765.9658135599
 31
0.0
  0
LWPOLYLINE
  5
2EC
330
1F
100
AcDbEntity
  8
0
  6
CONTINUOUS
 62
     7
100
AcDbPolyline
 90
        5
 70
   128
 43
0.0
 10
585.1560428988
 20
765.9658135599
 10
585.0779310118
 20
765.4866406446
 10
584.8357126366
 20
765.0693112737
 10
584.4552412879
 20
764.7786454981
 10
583.3578750741
 20
764.5747864371
  0
LINE
  5
2ED
330
1F
100
AcDbEntity
  8
0
  6
CONTINUOUS
 62
     7
100
AcDbLine
 10
583.3162859332
 20
767.4017080789
 30
0.0
 11
583.3578750741
 21
767.4017080789
 31
0.0
  0
ARC
  5
2EE
330
1F
100
AcDbEntity
  8
0
  6
CONTINUOUS
 62
     7
100
AcDbCircle
 10
583.6327733836
 20
765.9020944416
 30
0.0
 40
1.524601633831272
100
AcDbArc
 50
2.3953143856
 51
100.3877171844
  0
LINE
  5
2EF
330
1F
100
AcDbEntity
  8
0
  6
CONTINUOUS
 62
     7
100
AcDbLine
 10
585.1144537579
 20
771.844016177
 30
0.0
 11
585.1560428988
 21
771.844016177
 31
0.0
  0
LINE
  5
2F0
330
1F
100
AcDbEntity
  8
0
  6
CONTINUOUS
 62
     7
100
AcDbLine
 10
583.5727796208
 20
773.1172533458
 30
0.0
 11
583.6143538605
 21
773.1172533458
 31
0.0
  0
LINE
  5
2F1
330
1F
100
AcDbEntity
  8
0
  6
CONTINUOUS
 62
     7
100
AcDbLine
 10
583.6143538605
 20
773.1172533458
 30
0.0
 11
585.1560428988
 21
771.844016177
 31
0.0
  0
LINE
  5
2F2
330
1F
100
AcDbEntity
  8
0
  6
CONTINUOUS
 62
     7
100
AcDbLine
 10
585.1144537579
 20
762.7764099961
 30
0.0
 11
585.1560428988
 21
762.7764099961
 31
0.0
  0
LINE
  5
2F3
330
1F
100
AcDbEntity
  8
0
  6
CONTINUOUS
 62
     7
100
AcDbLine
 10
584.0096369635
 20
764.2158137387
 30
0.0
 11
584.0512112033
 21
764.2158137387
 31
0.0
  0
LWPOLYLINE
  5
2F4
330
1F
100
AcDbEntity
  8
0
  6
CONTINUOUS
 62
     7
100
AcDbPolyline
 90
        4
 70
   128
 43
0.0
 10
584.0512112033
 20
764.2158137387
 10
584.5742866647
 20
764.0475013977
 10
584.9495575082
 20
763.6346311992
 10
585.1560428988
 20
762.7764099961
  0
LINE
  5
2F5
330
1F
100
AcDbEntity
  8
0
  6
CONTINUOUS
 62
     7
100
AcDbLine
 10
584.1049596917
 20
761.3888883716
 30
0.0
 11
584.1465339314
 21
761.3888883716
 31
0.0
  0
ARC
  5
2F6
330
1F
100
AcDbEntity
  8
0
  6
CONTINUOUS
 62
     7
100
AcDbCircle
 10
583.8674086862
 20
762.652970829
 30
0.0
 40
1.294532873968587
100
AcDbArc
 50
282.4518162538
 51
5.4717074385
  0
LINE
  5
2F7
330
1F
100
AcDbEntity
  8
0
  6
CONTINUOUS
 62
     7
100
AcDbLine
 10
584.9416300904
 20
771.4976647621
 30
0.0
 11
584.9832192313
 21
771.4976647621
 31
0.0
  0
LINE
  5
2F8
330
1F
100
AcDbEntity
  8
0
  6
CONTINUOUS
 62
     7
100
AcDbLine
 10
585.1560428988
 20
771.844016177
 30
0.0
 11
584.9832192313
 21
771.4976647621
 31
0.0
  0
LINE
  5
2F9
330
1F
100
AcDbEntity
  8
0
  6
CONTINUOUS
 62
     7
100
AcDbLine
 10
585.0682601582
 20
776.9594022756
 30
0.0
 11
585.0682601582
 21
774.1324769085
 31
0.0
  0
LINE
  5
2FA
330
1F
100
AcDbEntity
  8
0
  6
CONTINUOUS
 62
     7
100
AcDbLine
 10
583.8235214602
 20
776.0872075086
 30
0.0
 11
584.675540055
 21
775.1265780753
 31
0.0
  0
ARC
  5
2FB
330
1F
100
AcDbEntity
  8
0
  6
CONTINUOUS
 62
     7
100
AcDbCircle
 10
582.3083231894
 20
775.1593913387
 30
0.0
 40
1.77670161959525
100
AcDbArc
 50
31.4807931747
 51
81.0646180293
  0
LINE
  5
2FC
330
1F
100
AcDbEntity
  8
0
  6
CONTINUOUS
 62
     7
100
AcDbLine
 10
582.6981261622
 20
774.6709415441
 30
0.0
 11
582.6981261622
 21
774.2670939988
 31
0.0
  0
ARC
  5
2FD
330
1F
100
AcDbEntity
  8
0
  6
CONTINUOUS
 62
     7
100
AcDbCircle
 10
582.7763290123
 20
775.5395498658
 30
0.0
 40
0.8721216097233613
100
AcDbArc
 50
174.5974959513
 51
264.8553967166
  0
ARC
  5
2FE
330
1F
100
AcDbEntity
  8
0
  6
CONTINUOUS
 62
     7
100
AcDbCircle
 10
582.7223584213
 20
775.7013958479
 30
0.0
 40
0.8181714020846483
100
AcDbArc
 50
98.4509345428
 51
185.5925839159
  0
LWPOLYLINE
  5
2FF
330
1F
100
AcDbEntity
  8
0
  6
CONTINUOUS
 62
     7
100
AcDbPolyline
 90
        3
 70
   128
 43
0.0
 10
582.6089725148
 20
773.5940159982
 10
583.2081631076
 20
773.409647656
 10
583.6143538605
 20
773.1172533458
  0
ARC
  5
300
330
1F
100
AcDbEntity
  8
0
  6
CONTINUOUS
 62
     7
100
AcDbCircle
 10
582.5105273384
 20
772.1028050404
 30
0.0
 40
1.115405857724567
100
AcDbArc
 50
274.8867694439
 51
5.9854841282
  0
LWPOLYLINE
  5
301
330
1F
100
AcDbEntity
  8
0
  6
CONTINUOUS
 62
     7
100
AcDbPolyline
 90
        3
 70
   128
 43
0.0
 10
583.593969072
 20
772.6115489131
 10
583.6136088025
 20
772.4086994058
 10
583.619852389
 20
772.2191156572
  0
LWPOLYLINE
  5
302
330
1F
100
AcDbEntity
  8
0
  6
CONTINUOUS
 62
     7
100
AcDbPolyline
 90
        5
 70
   128
 43
0.0
 10
584.0807006013
 20
763.8119661933
 10
583.8916644704
 20
763.7771794325
 10
583.7240264069
 20
763.6808620518
 10
583.4884241473
 20
763.3730562156
 10
583.3565041672
 20
762.6004272824
  0
ARC
  5
303
330
1F
100
AcDbEntity
  8
0
  6
CONTINUOUS
 62
     7
100
AcDbCircle
 10
582.4157417101
 20
763.2539261833
 30
0.0
 40
0.7830015698602767
100
AcDbArc
 50
20.1616899393
 51
87.7526844891
  0
LINE
  5
304
330
1F
100
AcDbEntity
  8
0
  6
CONTINUOUS
 62
     7
100
AcDbLine
 10
582.4347779404
 20
761.9273492819
 30
0.0
 11
582.4347779404
 21
761.5235054618
 31
0.0
  0
ARC
  5
305
330
1F
100
AcDbEntity
  8
0
  6
CONTINUOUS
 62
     7
100
AcDbCircle
 10
582.8069643624
 20
762.7470659671
 30
0.0
 40
0.900254506673974
100
AcDbArc
 50
176.8367727666
 51
245.579920365
  0
LWPOLYLINE
  5
306
330
1F
100
AcDbEntity
  8
0
  6
CONTINUOUS
 62
     7
100
AcDbPolyline
 90
        5
 70
   128
 43
0.0
 10
582.4450746428
 20
763.6324779814
 10
582.312901343
 20
763.6088670915
 10
582.1963742625
 20
763.5407054549
 10
582.0265755307
 20
763.3286805576
 10
581.9080814969
 20
762.7967426306
  0
LINE
  5
307
330
1F
100
AcDbEntity
  8
0
  6
CONTINUOUS
 62
     7
100
AcDbLine
 10
582.6565519225
 20
774.6709415441
 30
0.0
 11
582.6565519225
 21
774.2670939988
 31
0.0
  0
ARC
  5
308
330
1F
100
AcDbEntity
  8
0
  6
CONTINUOUS
 62
     7
100
AcDbCircle
 10
582.7816312937
 20
775.5318962511
 30
0.0
 40
1.270971906303093
100
AcDbArc
 50
175.0622086557
 51
264.3522443703
  0
ARC
  5
309
330
1F
100
AcDbEntity
  8
0
  6
CONTINUOUS
 62
     7
100
AcDbCircle
 10
582.6484407692
 20
775.7781409971
 30
0.0
 40
1.141298474488589
100
AcDbArc
 50
95.315695657
 51
186.8866005921
  0
ARC
  5
30A
330
1F
100
AcDbEntity
  8
0
  6
CONTINUOUS
 62
     7
100
AcDbCircle
 10
582.2667489497
 20
775.1593913387
 30
0.0
 40
1.77670161959525
100
AcDbArc
 50
31.4807931747
 51
81.0646180293
  0
LINE
  5
30B
330
1F
100
AcDbEntity
  8
0
  6
CONTINUOUS
 62
     7
100
AcDbLine
 10
583.7819472205
 20
776.0872075086
 30
0.0
 11
584.675540055
 21
775.0796952968
 31
0.0
  0
LINE
  5
30C
330
1F
100
AcDbEntity
  8
0
  6
CONTINUOUS
 62
     7
100
AcDbLine
 10
584.675540055
 20
775.0796952968
 30
0.0
 11
584.675540055
 21
776.9594022756
 31
0.0
  0
LINE
  5
30D
330
1F
100
AcDbEntity
  8
0
  6
CONTINUOUS
 62
     7
100
AcDbLine
 10
584.675540055
 20
776.9594022756
 30
0.0
 11
585.0266710173
 21
776.9594022756
 31
0.0
  0
LINE
  5
30E
330
1F
100
AcDbEntity
  8
0
  6
CONTINUOUS
 62
     7
100
AcDbLine
 10
585.0266710173
 20
776.9594022756
 30
0.0
 11
585.0266710173
 21
774.1324769085
 31
0.0
  0
LINE
  5
30F
330
1F
100
AcDbEntity
  8
0
  6
CONTINUOUS
 62
     7
100
AcDbLine
 10
585.0266710173
 20
774.1324769085
 30
0.0
 11
583.6098090064
 21
775.7310362285
 31
0.0
  0
ARC
  5
310
330
1F
100
AcDbEntity
  8
0
  6
CONTINUOUS
 62
     7
100
AcDbCircle
 10
582.3006005447
 20
775.0649568786
 30
0.0
 40
1.468907245688088
100
AcDbArc
 50
26.9653957886
 51
79.8076395115
  0
ARC
  5
311
330
1F
100
AcDbEntity
  8
0
  6
CONTINUOUS
 62
     7
100
AcDbCircle
 10
582.6807802943
 20
775.7014008981
 30
0.0
 40
0.8181680254536822
100
AcDbArc
 50
98.4517494357
 51
185.5929624222
  0
ARC
  5
312
330
1F
100
AcDbEntity
  8
0
  6
CONTINUOUS
 62
     7
100
AcDbCircle
 10
582.7347472686
 20
775.53954363
 30
0.0
 40
0.8721147262545553
100
AcDbArc
 50
174.5970416824
 51
264.8558509854
  0
LINE
  5
313
330
1F
100
AcDbEntity
  8
0
  6
CONTINUOUS
 62
     7
100
AcDbLine
 10
585.0266710173
 20
776.9594022756
 30
0.0
 11
585.0682601582
 21
776.9594022756
 31
0.0
  0
LINE
  5
314
330
1F
100
AcDbEntity
  8
0
  6
CONTINUOUS
 62
     7
100
AcDbLine
 10
585.0266710173
 20
774.1324769085
 30
0.0
 11
585.0682601582
 21
774.1324769085
 31
0.0
  0
LINE
  5
315
330
1F
100
AcDbEntity
  8
0
  6
CONTINUOUS
 62
     7
100
AcDbLine
 10
583.7819472205
 20
776.0872075086
 30
0.0
 11
583.8235214602
 21
776.0872075086
 31
0.0
  0
LINE
  5
316
330
1F
100
AcDbEntity
  8
0
  6
CONTINUOUS
 62
     7
100
AcDbLine
 10
583.3149150264
 20
762.6004272824
 30
0.0
 11
583.3565041672
 21
762.6004272824
 31
0.0
  0
LWPOLYLINE
  5
317
330
1F
100
AcDbEntity
  8
0
  6
CONTINUOUS
 62
     7
100
AcDbPolyline
 90
        5
 70
   128
 43
0.0
 10
581.9080814969
 20
765.9784311181
 10
582.0397779595
 20
765.4977867132
 10
582.1931407105
 20
765.3009423738
 10
582.3936358344
 20
765.154601795
 10
583.3565041672
 20
764.9786339825
  0
LWPOLYLINE
  5
318
330
1F
100
AcDbEntity
  8
0
  6
CONTINUOUS
 62
     7
100
AcDbPolyline
 90
        5
 70
   128
 43
0.0
 10
583.3565041672
 20
766.9978642588
 10
582.3982700955
 20
766.7986804372
 10
582.1966573846
 20
766.6538895791
 10
582.0414617907
 20
766.4586284881
 10
581.9080814969
 20
765.9784311181
  0
LWPOLYLINE
  5
319
330
1F
100
AcDbEntity
  8
0
  6
CONTINUOUS
 62
     7
100
AcDbPolyline
 90
        5
 70
   128
 43
0.0
 10
581.9080814969
 20
769.1643291837
 10
582.0397779595
 20
768.6836847788
 10
582.1931407105
 20
768.4868404394
 10
582.3936358344
 20
768.3404998606
 10
583.3565041672
 20
768.1645283228
  0
LWPOLYLINE
  5
31A
330
1F
100
AcDbEntity
  8
0
  6
CONTINUOUS
 62
     7
100
AcDbPolyline
 90
        5
 70
   128
 43
0.0
 10
583.3565041672
 20
770.1837623244
 10
582.3982700955
 20
769.9845785027
 10
582.1966573846
 20
769.8397876447
 10
582.0414617907
 20
769.6445265537
 10
581.9080814969
 20
769.1643291837
  0
LINE
  5
31B
330
1F
100
AcDbEntity
  8
0
  6
CONTINUOUS
 62
     7
100
AcDbLine
 10
582.542707051
 20
776.914531154
 30
0.0
 11
582.5842812907
 21
776.914531154
 31
0.0
  0
LINE
  5
31C
330
1F
100
AcDbEntity
  8
0
  6
CONTINUOUS
 62
     7
100
AcDbLine
 10
582.563971008
 20
770.9914536899
 30
0.0
 11
582.6055452477
 21
770.9914536899
 31
0.0
  0
LINE
  5
31D
330
1F
100
AcDbEntity
  8
0
  6
CONTINUOUS
 62
     7
100
AcDbLine
 10
583.5782632481
 20
772.2191156572
 30
0.0
 11
583.619852389
 21
772.2191156572
 31
0.0
  0
LINE
  5
31E
330
1F
100
AcDbEntity
  8
0
  6
CONTINUOUS
 62
     7
100
AcDbLine
 10
582.5673982751
 20
773.5940159982
 30
0.0
 11
582.6089725148
 21
773.5940159982
 31
0.0
  0
LINE
  5
31F
330
1F
100
AcDbEntity
  8
0
  6
CONTINUOUS
 62
     7
100
AcDbLine
 10
581.8665072572
 20
769.1643291837
 30
0.0
 11
581.9080814969
 21
769.1643291837
 31
0.0
  0
LINE
  5
320
330
1F
100
AcDbEntity
  8
0
  6
CONTINUOUS
 62
     7
100
AcDbLine
 10
581.8665072572
 20
765.9784311181
 30
0.0
 11
581.9080814969
 21
765.9784311181
 31
0.0
  0
LINE
  5
321
330
1F
100
AcDbEntity
  8
0
  6
CONTINUOUS
 62
     7
100
AcDbLine
 10
582.4048564088
 20
764.0363255268
 30
0.0
 11
582.4464455497
 21
764.0363255268
 31
0.0
  0
LINE
  5
322
330
1F
100
AcDbEntity
  8
0
  6
CONTINUOUS
 62
     7
100
AcDbLine
 10
582.6565519225
 20
774.6709415441
 30
0.0
 11
582.6981261622
 21
774.6709415441
 31
0.0
  0
LINE
  5
323
330
1F
100
AcDbEntity
  8
0
  6
CONTINUOUS
 62
     7
100
AcDbLine
 10
581.8665072572
 20
775.6216617053
 30
0.0
 11
581.9080814969
 21
775.6216617053
 31
0.0
  0
LINE
  5
324
330
1F
100
AcDbEntity
  8
0
  6
CONTINUOUS
 62
     7
100
AcDbLine
 10
582.6565519225
 20
774.2670939988
 30
0.0
 11
582.6981261622
 21
774.2670939988
 31
0.0
  0
LINE
  5
325
330
1F
100
AcDbEntity
  8
0
  6
CONTINUOUS
 62
     7
100
AcDbLine
 10
581.8665072572
 20
772.2913341349
 30
0.0
 11
581.9080814969
 21
772.2913341349
 31
0.0
  0
ARC
  5
326
330
1F
100
AcDbEntity
  8
0
  6
CONTINUOUS
 62
     7
100
AcDbCircle
 10
582.7060086933
 20
772.1908786814
 30
0.0
 40
0.8042257822577622
100
AcDbArc
 50
172.8244695067
 51
261.5916429621
  0
LWPOLYLINE
  5
327
330
1F
100
AcDbEntity
  8
0
  6
CONTINUOUS
 62
     7
100
AcDbPolyline
 90
        4
 70
   128
 43
0.0
 10
582.5884089123
 20
773.1901721781
 10
582.264919604
 20
773.0850109583
 10
582.0382878434
 20
772.8226350373
 10
581.9080814969
 20
772.2913341349
  0
LINE
  5
328
330
1F
100
AcDbEntity
  8
0
  6
CONTINUOUS
 62
     7
100
AcDbLine
 10
581.8665072572
 20
762.7967426306
 30
0.0
 11
581.9080814969
 21
762.7967426306
 31
0.0
  0
LINE
  5
329
330
1F
100
AcDbEntity
  8
0
  6
CONTINUOUS
 62
     7
100
AcDbLine
 10
582.3932037007
 20
761.9273492819
 30
0.0
 11
582.4347779404
 21
761.9273492819
 31
0.0
  0
LINE
  5
32A
330
1F
100
AcDbEntity
  8
0
  6
CONTINUOUS
 62
     7
100
AcDbLine
 10
582.3932037007
 20
761.5235054618
 30
0.0
 11
582.4347779404
 21
761.5235054618
 31
0.0
  0
LINE
  5
32B
330
1F
100
AcDbEntity
  8
0
  6
CONTINUOUS
 62
     7
100
AcDbLine
 10
402.5838606309
 20
547.7542893713
 30
0.0
 11
438.2537462067
 21
547.7542893713
 31
0.0
  0
LINE
  5
32C
330
1F
100
AcDbEntity
  8
0
  6
CONTINUOUS
 62
     7
100
AcDbLine
 10
438.2537462067
 20
902.6645140475
 30
0.0
 11
402.5838606309
 21
902.6645140475
 31
0.0
  0
LINE
  5
32D
330
1F
100
AcDbEntity
  8
0
  6
CONTINUOUS
 62
     7
100
AcDbLine
 10
458.3790086459
 20
901.6114042824
 30
0.0
 11
382.4585981917
 21
901.6114042824
 31
0.0
  0
LINE
  5
32E
330
1F
100
AcDbEntity
  8
0
  6
CONTINUOUS
 62
     7
100
AcDbLine
 10
382.4585981917
 20
548.8073991364
 30
0.0
 11
458.3790086459
 21
548.8073991364
 31
0.0
  0
CIRCLE
  5
32F
330
1F
100
AcDbEntity
  8
0
  6
CONTINUOUS
 62
     7
100
AcDbCircle
 10
280.7188034188
 20
890.3094017094
 30
0.0
 40
3.75
  0
CIRCLE
  5
330
330
1F
100
AcDbEntity
  8
0
  6
CONTINUOUS
 62
     7
100
AcDbCircle
 10
280.7188034188
 20
890.3094017094
 30
0.0
 40
1.700000000000045
  0
CIRCLE
  5
331
330
1F
100
AcDbEntity
  8
0
  6
CONTINUOUS
 62
     7
100
AcDbCircle
 10
280.7188034188
 20
560.1094017094
 30
0.0
 40
1.700000000000045
  0
CIRCLE
  5
332
330
1F
100
AcDbEntity
  8
0
  6
CONTINUOUS
 62
     7
100
AcDbCircle
 10
280.7188034188
 20
560.1094017094
 30
0.0
 40
3.75
  0
CIRCLE
  5
333
330
1F
100
AcDbEntity
  8
0
  6
CONTINUOUS
 62
     7
100
AcDbCircle
 10
560.1188034188
 20
560.1094017094
 30
0.0
 40
3.75
  0
CIRCLE
  5
334
330
1F
100
AcDbEntity
  8
0
  6
CONTINUOUS
 62
     7
100
AcDbCircle
 10
560.1188034188
 20
560.1094017094
 30
0.0
 40
1.700000000000045
  0
CIRCLE
  5
335
330
1F
100
AcDbEntity
  8
0
  6
CONTINUOUS
 62
     7
100
AcDbCircle
 10
560.1188034188
 20
890.3094017094
 30
0.0
 40
1.699999999999932
  0
CIRCLE
  5
336
330
1F
100
AcDbEntity
  8
0
  6
CONTINUOUS
 62
     7
100
AcDbCircle
 10
560.1188034188
 20
890.3094017094
 30
0.0
 40
3.75
  0
ENDSEC
  0
SECTION
  2
OBJECTS
  0
DICTIONARY
  5
C
330
0
100
AcDbDictionary
  3
ACAD_GROUP
350
D
  3
ACAD_LAYOUT
350
1A
  3
ACAD_MLEADERSTYLE
350
35A
  3
ACAD_MLINESTYLE
350
17
  3
ACAD_PLOTSETTINGS
350
19
  3
ACAD_SCALELIST
350
3B
  3
ACAD_TABLESTYLE
350
359
  3
ACAD_VISUALSTYLE
350
2A
  3
ACDBHEADERROUNDTRIPXREC
350
337
  3
ACDBVARIABLEDICTIONARY
350
357
  0
DICTIONARY
  5
D
102
{ACAD_REACTORS
330
C
102
}
330
C
100
AcDbDictionary
  0
DICTIONARY
  5
1A
102
{ACAD_REACTORS
330
C
102
}
330
C
100
AcDbDictionary
  0
DICTIONARY
  5
35A
102
{ACAD_REACTORS
330
C
102
}
330
C
100
AcDbDictionary
  0
DICTIONARY
  5
17
102
{ACAD_REACTORS
330
C
102
}
330
C
100
AcDbDictionary
  3
STANDARD
350
18
  0
DICTIONARY
  5
19
102
{ACAD_REACTORS
330
C
102
}
330
C
100
AcDbDictionary
  0
DICTIONARY
  5
3B
102
{ACAD_REACTORS
330
C
102
}
330
C
100
AcDbDictionary
  3
A0
350
3C
  3
A1
350
3D
  3
A2
350
3E
  3
A3
350
3F
  3
A4
350
40
  3
A5
350
41
  3
A6
350
42
  3
A7
350
43
  3
A8
350
44
  3
A9
350
45
  3
B0
350
46
  3
B1
350
47
  3
B2
350
48
  3
B3
350
49
  3
B4
350
4A
  3
B5
350
4B
  3
B6
350
4C
  3
B7
350
4D
  3
B8
350
4E
  3
B9
350
4F
  3
C0
350
50
  3
C1
350
51
  3
C2
350
52
  3
C3
350
53
  3
C4
350
54
  3
C5
350
55
  3
C6
350
56
  3
C7
350
57
  3
C8
350
58
  3
C9
350
59
  3
D0
350
5A
  3
D1
350
5B
  3
D2
350
5C
  0
DICTIONARY
  5
359
102
{ACAD_REACTORS
330
C
102
}
330
C
100
AcDbDictionary
  0
DICTIONARY
  5
2A
102
{ACAD_REACTORS
330
C
102
}
330
C
100
AcDbDictionary
  3
2DWIREFRAME
350
2F
  3
3D_HIDDEN
350
31
  3
3DWIREFRAME
350
30
  3
BASIC
350
32
  3
BRIGHTEN
350
36
  3
COLORCHANGE
350
3A
  3
CONCEPTUAL
350
34
  3
DIM
350
35
  3
FACEPATTERN
350
39
  3
FLAT
350
2B
  3
FLATWITHEDGES
350
2C
  3
GOURAUD
350
2D
  3
GOURAUDWITHEDGES
350
2E
  3
LINEPATTERN
350
38
  3
REALISTIC
350
33
  3
THICKEN
350
37
  0
DICTIONARY
  5
337
102
{ACAD_REACTORS
330
C
102
}
330
C
100
AcDbDictionary
  3
CEPSNTYPE
350
340
  3
DIMSTYLEDATA
350
356
  3
FINGERPRINTGUID
350
341
  3
HYPERLINKBASE
350
33A
  3
INSUNITS
350
33F
  3
LAYOUTDICT
350
33C
  3
LWETCUNION
350
33E
  3
PLOTSETDICT
350
33D
  3
PSVPSCALE
350
343
  3
PUCSBASE
350
346
  3
PUCSORGBACK
350
34C
  3
PUCSORGBOTTOM
350
348
  3
PUCSORGFRONT
350
34B
  3
PUCSORGLEFT
350
349
  3
PUCSORGRIGHT
350
34A
  3
PUCSORGTOP
350
347
  3
PUCSORTHOREF
350
344
  3
PUCSORTHOVIEW
350
345
  3
STYLESHEET
350
33B
  3
TSTACKALIGN
350
338
  3
TSTACKSIZE
350
339
  3
UCSBASE
350
34F
  3
UCSORGBACK
350
355
  3
UCSORGBOTTOM
350
351
  3
UCSORGFRONT
350
354
  3
UCSORGLEFT
350
352
  3
UCSORGRIGHT
350
353
  3
UCSORGTOP
350
350
  3
UCSORTHOREF
350
34D
  3
UCSORTHOVIEW
350
34E
  3
VERSIONGUID
350
342
  0
DICTIONARY
  5
357
102
{ACAD_REACTORS
330
C
102
}
330
C
100
AcDbDictionary
  3
CANNOSCALE
350
358
  3
PSOLHEIGHT
350
35C
  3
PSOLWIDTH
350
35B
  0
MLINESTYLE
  5
18
102
{ACAD_REACTORS
330
17
102
}
330
17
100
AcDbMlineStyle
  2
Standard
 70
     0
  3

 62
   256
 51
90.0
 52
90.0
 71
     2
 49
0.5
 62
   256
  6
BYLAYER
 49
-0.5
 62
   256
  6
BYLAYER
  0
SCALE
  5
3C
102
{ACAD_REACTORS
330
3B
102
}
330
3B
100
AcDbScale
 70
     0
300
1:1
140
1.0
141
1.0
290
     1
  0
SCALE
  5
3D
102
{ACAD_REACTORS
330
3B
102
}
330
3B
100
AcDbScale
 70
     0
300
1:2
140
1.0
141
2.0
290
     0
  0
SCALE
  5
3E
102
{ACAD_REACTORS
330
3B
102
}
330
3B
100
AcDbScale
 70
     0
300
1:4
140
1.0
141
4.0
290
     0
  0
SCALE
  5
3F
102
{ACAD_REACTORS
330
3B
102
}
330
3B
100
AcDbScale
 70
     0
300
1:5
140
1.0
141
5.0
290
     0
  0
SCALE
  5
40
102
{ACAD_REACTORS
330
3B
102
}
330
3B
100
AcDbScale
 70
     0
300
1:8
140
1.0
141
8.0
290
     0
  0
SCALE
  5
41
102
{ACAD_REACTORS
330
3B
102
}
330
3B
100
AcDbScale
 70
     0
300
1:10
140
1.0
141
10.0
290
     0
  0
SCALE
  5
42
102
{ACAD_REACTORS
330
3B
102
}
330
3B
100
AcDbScale
 70
     0
300
1:16
140
1.0
141
16.0
290
     0
  0
SCALE
  5
43
102
{ACAD_REACTORS
330
3B
102
}
330
3B
100
AcDbScale
 70
     0
300
1:20
140
1.0
141
20.0
290
     0
  0
SCALE
  5
44
102
{ACAD_REACTORS
330
3B
102
}
330
3B
100
AcDbScale
 70
     0
300
1:30
140
1.0
141
30.0
290
     0
  0
SCALE
  5
45
102
{ACAD_REACTORS
330
3B
102
}
330
3B
100
AcDbScale
 70
     0
300
1:40
140
1.0
141
40.0
290
     0
  0
SCALE
  5
46
102
{ACAD_REACTORS
330
3B
102
}
330
3B
100
AcDbScale
 70
     0
300
1:50
140
1.0
141
50.0
290
     0
  0
SCALE
  5
47
102
{ACAD_REACTORS
330
3B
102
}
330
3B
100
AcDbScale
 70
     0
300
1:100
140
1.0
141
100.0
290
     0
  0
SCALE
  5
48
102
{ACAD_REACTORS
330
3B
102
}
330
3B
100
AcDbScale
 70
     0
300
2:1
140
2.0
141
1.0
290
     0
  0
SCALE
  5
49
102
{ACAD_REACTORS
330
3B
102
}
330
3B
100
AcDbScale
 70
     0
300
4:1
140
4.0
141
1.0
290
     0
  0
SCALE
  5
4A
102
{ACAD_REACTORS
330
3B
102
}
330
3B
100
AcDbScale
 70
     0
300
8:1
140
8.0
141
1.0
290
     0
  0
SCALE
  5
4B
102
{ACAD_REACTORS
330
3B
102
}
330
3B
100
AcDbScale
 70
     0
300
10:1
140
10.0
141
1.0
290
     0
  0
SCALE
  5
4C
102
{ACAD_REACTORS
330
3B
102
}
330
3B
100
AcDbScale
 70
     0
300
100:1
140
100.0
141
1.0
290
     0
  0
SCALE
  5
4D
102
{ACAD_REACTORS
330
3B
102
}
330
3B
100
AcDbScale
 70
     0
300
1/128" = 1'-0"
140
0.0078125
141
12.0
290
     0
  0
SCALE
  5
4E
102
{ACAD_REACTORS
330
3B
102
}
330
3B
100
AcDbScale
 70
     0
300
1/64" = 1'-0"
140
0.015625
141
12.0
290
     0
  0
SCALE
  5
4F
102
{ACAD_REACTORS
330
3B
102
}
330
3B
100
AcDbScale
 70
     0
300
1/32" = 1'-0"
140
0.03125
141
12.0
290
     0
  0
SCALE
  5
50
102
{ACAD_REACTORS
330
3B
102
}
330
3B
100
AcDbScale
 70
     0
300
1/16" = 1'-0"
140
0.0625
141
12.0
290
     0
  0
SCALE
  5
51
102
{ACAD_REACTORS
330
3B
102
}
330
3B
100
AcDbScale
 70
     0
300
3/32" = 1'-0"
140
0.09375
141
12.0
290
     0
  0
SCALE
  5
52
102
{ACAD_REACTORS
330
3B
102
}
330
3B
100
AcDbScale
 70
     0
300
1/8" = 1'-0"
140
0.125
141
12.0
290
     0
  0
SCALE
  5
53
102
{ACAD_REACTORS
330
3B
102
}
330
3B
100
AcDbScale
 70
     0
300
3/16" = 1'-0"
140
0.1875
141
12.0
290
     0
  0
SCALE
  5
54
102
{ACAD_REACTORS
330
3B
102
}
330
3B
100
AcDbScale
 70
     0
300
1/4" = 1'-0"
140
0.25
141
12.0
290
     0
  0
SCALE
  5
55
102
{ACAD_REACTORS
330
3B
102
}
330
3B
100
AcDbScale
 70
     0
300
3/8" = 1'-0"
140
0.375
141
12.0
290
     0
  0
SCALE
  5
56
102
{ACAD_REACTORS
330
3B
102
}
330
3B
100
AcDbScale
 70
     0
300
1/2" = 1'-0"
140
0.5
141
12.0
290
     0
  0
SCALE
  5
57
102
{ACAD_REACTORS
330
3B
102
}
330
3B
100
AcDbScale
 70
     0
300
3/4" = 1'-0"
140
0.75
141
12.0
290
     0
  0
SCALE
  5
58
102
{ACAD_REACTORS
330
3B
102
}
330
3B
100
AcDbScale
 70
     0
300
1" = 1'-0"
140
1.0
141
12.0
290
     0
  0
SCALE
  5
59
102
{ACAD_REACTORS
330
3B
102
}
330
3B
100
AcDbScale
 70
     0
300
1-1/2" = 1'-0"
140
1.5
141
12.0
290
     0
  0
SCALE
  5
5A
102
{ACAD_REACTORS
330
3B
102
}
330
3B
100
AcDbScale
 70
     0
300
3" = 1'-0"
140
3.0
141
12.0
290
     0
  0
SCALE
  5
5B
102
{ACAD_REACTORS
330
3B
102
}
330
3B
100
AcDbScale
 70
     0
300
6" = 1'-0"
140
6.0
141
12.0
290
     0
  0
SCALE
  5
5C
102
{ACAD_REACTORS
330
3B
102
}
330
3B
100
AcDbScale
 70
     0
300
1'-0" = 1'-0"
140
12.0
141
12.0
290
     0
  0
VISUALSTYLE
  5
2F
102
{ACAD_REACTORS
330
2A
102
}
330
2A
100
AcDbVisualStyle
  2
2dWireframe
 70
     4
 71
     0
 72
     2
 73
     0
 90
        0
 40
-0.6
 41
-30.0
 62
     5
 63
     7
 74
     1
 91
        4
 64
     7
 65
   257
 75
     1
175
     1
 42
1.0
 92
        0
 66
   257
 43
1.0
 76
     1
 77
     6
 78
     2
 67
     7
 79
     5
170
     0
171
     0
290
     0
174
     0
 93
        1
 44
0.0
173
     0
291
     0
 45
0.0
1001
ACAD
1000
AcDbSavedByObjectVersion
1070
     0
  0
VISUALSTYLE
  5
31
102
{ACAD_REACTORS
330
2A
102
}
330
2A
100
AcDbVisualStyle
  2
3D Hidden
 70
     6
 71
     1
 72
     2
 73
     2
 90
        0
 40
-0.6
 41
-30.0
 62
     5
 63
     7
 74
     2
 91
        2
 64
     7
 65
   257
 75
     2
175
     1
 42
40.0
 92
        0
 66
   257
 43
1.0
 76
     1
 77
     6
 78
     2
 67
     7
 79
     3
170
     0
171
     0
290
     0
174
     0
 93
        1
 44
0.0
173
     0
291
     0
 45
0.0
1001
ACAD
1000
AcDbSavedByObjectVersion
1070
     0
  0
VISUALSTYLE
  5
30
102
{ACAD_REACTORS
330
2A
102
}
330
2A
100
AcDbVisualStyle
  2
3dWireframe
 70
     5
 71
     0
 72
     2
 73
     0
 90
        0
 40
-0.6
 41
-30.0
 62
     5
 63
     7
 74
     1
 91
        4
 64
     7
 65
   257
 75
     1
175
     1
 42
1.0
 92
        0
 66
   257
 43
1.0
 76
     1
 77
     6
 78
     2
 67
     7
 79
     5
170
     0
171
     0
290
     0
174
     0
 93
        1
 44
0.0
173
     0
291
     0
 45
0.0
1001
ACAD
1000
AcDbSavedByObjectVersion
1070
     0
  0
VISUALSTYLE
  5
32
102
{ACAD_REACTORS
330
2A
102
}
330
2A
100
AcDbVisualStyle
  2
Basic
 70
     7
 71
     1
 72
     0
 73
     1
 90
        0
 40
-0.6
 41
-30.0
 62
     5
 63
     7
 74
     0
 91
        4
 64
     7
 65
   257
 75
     1
175
     1
 42
1.0
 92
        8
 66
     7
 43
1.0
 76
     1
 77
     6
 78
     2
 67
     7
 79
     5
170
     0
171
     0
290
     0
174
     0
 93
        1
 44
0.0
173
     0
291
     1
 45
0.0
1001
ACAD
1000
AcDbSavedByObjectVersion
1070
     0
  0
VISUALSTYLE
  5
36
102
{ACAD_REACTORS
330
2A
102
}
330
2A
100
AcDbVisualStyle
  2
Brighten
 70
    12
 71
     2
 72
     2
 73
     0
 90
        0
 40
-0.6
 41
-30.0
 62
     5
 63
     7
 74
     1
 91
        4
 64
     7
 65
   257
 75
     1
175
     1
 42
1.0
 92
        8
 66
     7
 43
1.0
 76
     1
 77
     6
 78
     2
 67
     7
 79
     5
170
     0
171
     0
290
     0
174
     0
 93
        1
 44
50.0
173
     0
291
     1
 45
0.0
1001
ACAD
1000
AcDbSavedByObjectVersion
1070
     0
  0
VISUALSTYLE
  5
3A
102
{ACAD_REACTORS
330
2A
102
}
330
2A
100
AcDbVisualStyle
  2
ColorChange
 70
    16
 71
     2
 72
     2
 73
     3
 90
        0
 40
-0.6
 41
-30.0
 62
     5
 63
     8
 74
     1
 91
        4
 64
     7
 65
   257
 75
     1
175
     1
 42
1.0
 92
        8
 66
     8
 43
1.0
 76
     1
 77
     6
 78
     2
 67
     7
 79
     5
170
     0
171
     0
290
     0
174
     0
 93
        1
 44
0.0
173
     0
291
     1
 45
0.0
1001
ACAD
1000
AcDbSavedByObjectVersion
1070
     0
  0
VISUALSTYLE
  5
34
102
{ACAD_REACTORS
330
2A
102
}
330
2A
100
AcDbVisualStyle
  2
Conceptual
 70
     9
 71
     3
 72
     2
 73
     0
 90
        0
 40
-0.6
 41
-30.0
 62
     5
 63
     7
 74
     2
 91
        2
 64
     7
 65
   257
 75
     1
175
     1
 42
40.0
 92
        8
 66
     7
 43
1.0
 76
     1
 77
     6
 78
     2
 67
     7
 79
     3
170
     0
171
     0
290
     0
174
     0
 93
        1
 44
0.0
173
     0
291
     0
 45
0.0
1001
ACAD
1000
AcDbSavedByObjectVersion
1070
     0
  0
VISUALSTYLE
  5
35
102
{ACAD_REACTORS
330
2A
102
}
330
2A
100
AcDbVisualStyle
  2
Dim
 70
    11
 71
     2
 72
     2
 73
     0
 90
        0
 40
-0.6
 41
-30.0
 62
     5
 63
     7
 74
     1
 91
        4
 64
     7
 65
   257
 75
     1
175
     1
 42
1.0
 92
        8
 66
     7
 43
1.0
 76
     1
 77
     6
 78
     2
 67
     7
 79
     5
170
     0
171
     0
290
     0
174
     0
 93
        1
 44
-50.0
173
     0
291
     1
 45
0.0
1001
ACAD
1000
AcDbSavedByObjectVersion
1070
     0
  0
VISUALSTYLE
  5
39
102
{ACAD_REACTORS
330
2A
102
}
330
2A
100
AcDbVisualStyle
  2
Facepattern
 70
    15
 71
     2
 72
     2
 73
     0
 90
        0
 40
-0.6
 41
-30.0
 62
     5
 63
     7
 74
     1
 91
        4
 64
     7
 65
   257
 75
     1
175
     1
 42
1.0
 92
        8
 66
     7
 43
1.0
 76
     1
 77
     6
 78
     2
 67
     7
 79
     5
170
     0
171
     0
290
     0
174
     0
 93
        1
 44
0.0
173
     0
291
     1
 45
0.0
1001
ACAD
1000
AcDbSavedByObjectVersion
1070
     0
  0
VISUALSTYLE
  5
2B
102
{ACAD_REACTORS
330
2A
102
}
330
2A
100
AcDbVisualStyle
  2
Flat
 70
     0
 71
     2
 72
     1
 73
     1
 90
        2
 40
-0.6
 41
30.0
 62
     5
 63
     7
 74
     0
 91
        4
 64
     7
 65
   257
 75
     1
175
     1
 42
1.0
 92
        8
 66
     7
 43
1.0
 76
     1
 77
     6
 78
     2
 67
     7
 79
     5
170
     0
171
     0
290
     0
174
     0
 93
       13
 44
0.0
173
     0
291
     1
 45
0.0
1001
ACAD
1000
AcDbSavedByObjectVersion
1070
     0
  0
VISUALSTYLE
  5
2C
102
{ACAD_REACTORS
330
2A
102
}
330
2A
100
AcDbVisualStyle
  2
FlatWithEdges
 70
     1
 71
     2
 72
     1
 73
     1
 90
        2
 40
-0.6
 41
30.0
 62
     5
 63
     7
 74
     1
 91
        4
 64
     7
 65
   257
 75
     1
175
     1
 42
1.0
 92
        0
 66
   257
 43
1.0
 76
     1
 77
     6
 78
     2
 67
     7
 79
     5
170
     0
171
     0
290
     0
174
     0
 93
       13
 44
0.0
173
     0
291
     1
 45
0.0
1001
ACAD
1000
AcDbSavedByObjectVersion
1070
     0
  0
VISUALSTYLE
  5
2D
102
{ACAD_REACTORS
330
2A
102
}
330
2A
100
AcDbVisualStyle
  2
Gouraud
 70
     2
 71
     2
 72
     2
 73
     1
 90
        2
 40
-0.6
 41
30.0
 62
     5
 63
     7
 74
     0
 91
        4
 64
     7
 65
   257
 75
     1
175
     1
 42
1.0
 92
        0
 66
     7
 43
1.0
 76
     1
 77
     6
 78
     2
 67
     7
 79
     5
170
     0
171
     0
290
     0
174
     0
 93
       13
 44
0.0
173
     0
291
     1
 45
0.0
1001
ACAD
1000
AcDbSavedByObjectVersion
1070
     0
  0
VISUALSTYLE
  5
2E
102
{ACAD_REACTORS
330
2A
102
}
330
2A
100
AcDbVisualStyle
  2
GouraudWithEdges
 70
     3
 71
     2
 72
     2
 73
     1
 90
        2
 40
-0.6
 41
30.0
 62
     5
 63
     7
 74
     1
 91
        4
 64
     7
 65
   257
 75
     1
175
     1
 42
1.0
 92
        0
 66
   257
 43
1.0
 76
     1
 77
     6
 78
     2
 67
     7
 79
     5
170
     0
171
     0
290
     0
174
     0
 93
       13
 44
0.0
173
     0
291
     1
 45
0.0
1001
ACAD
1000
AcDbSavedByObjectVersion
1070
     0
  0
VISUALSTYLE
  5
38
102
{ACAD_REACTORS
330
2A
102
}
330
2A
100
AcDbVisualStyle
  2
Linepattern
 70
    14
 71
     2
 72
     2
 73
     0
 90
        0
 40
-0.6
 41
-30.0
 62
     5
 63
     7
 74
     1
 91
        4
 64
     7
 65
   257
 75
     7
175
     7
 42
1.0
 92
        8
 66
     7
 43
1.0
 76
     1
 77
     6
 78
     2
 67
     7
 79
     5
170
     0
171
     0
290
     0
174
     0
 93
        1
 44
0.0
173
     0
291
     1
 45
0.0
1001
ACAD
1000
AcDbSavedByObjectVersion
1070
     0
  0
VISUALSTYLE
  5
33
102
{ACAD_REACTORS
330
2A
102
}
330
2A
100
AcDbVisualStyle
  2
Realistic
 70
     8
 71
     2
 72
     2
 73
     0
 90
        0
 40
-0.6
 41
-30.0
 62
     5
 63
     7
 74
     1
 91
        0
 64
     7
 65
   257
 75
     1
175
     1
 42
1.0
 92
        8
 66
     8
 43
1.0
 76
     1
 77
     6
 78
     2
 67
     7
 79
     5
170
     0
171
     0
290
     0
174
     0
 93
       13
 44
0.0
173
     0
291
     0
 45
0.0
1001
ACAD
1000
AcDbSavedByObjectVersion
1070
     0
  0
VISUALSTYLE
  5
37
102
{ACAD_REACTORS
330
2A
102
}
330
2A
100
AcDbVisualStyle
  2
Thicken
 70
    13
 71
     2
 72
     2
 73
     0
 90
        0
 40
-0.6
 41
-30.0
 62
     5
 63
     7
 74
     1
 91
        4
 64
     7
 65
   257
 75
     1
175
     1
 42
1.0
 92
       12
 66
     7
 43
1.0
 76
     1
 77
     6
 78
     2
 67
     7
 79
     5
170
     0
171
     0
290
     0
174
     0
 93
        1
 44
0.0
173
     0
291
     1
 45
0.0
1001
ACAD
1000
AcDbSavedByObjectVersion
1070
     0
  0
XRECORD
  5
340
102
{ACAD_REACTORS
330
337
102
}
330
337
100
AcDbXrecord
 90
        0
  0
XRECORD
  5
356
102
{ACAD_REACTORS
330
337
102
}
330
337
100
AcDbXrecord
1000
DSTYLE
1002
{
1070
   143
 40
0.0393700787
1070
    41
 40
30.0
1070
    44
 40
5.0
1070
    42
 40
5.0
1070
   147
 40
7.62
1070
    73
 70
     1
1070
    74
 70
     1
1070
   340
340
11
1070
   140
 40
17.5
1070
   284
 70
     0
1070
    78
 70
     0
1002
}
  0
XRECORD
  5
341
102
{ACAD_REACTORS
330
337
102
}
330
337
100
AcDbXrecord
  1
{9EC4026B-F374-4189-A87D-54C4DFB9C6DB}
  0
XRECORD
  5
33A
102
{ACAD_REACTORS
330
337
102
}
330
337
100
AcDbXrecord
  1

  0
XRECORD
  5
33F
102
{ACAD_REACTORS
330
337
102
}
330
337
100
AcDbXrecord
 90
        4
  0
XRECORD
  5
33C
102
{ACAD_REACTORS
330
337
102
}
330
337
100
AcDbXrecord
340
1A
  0
XRECORD
  5
33E
102
{ACAD_REACTORS
330
337
102
}
330
337
100
AcDbXrecord
 90
    10269
  0
XRECORD
  5
33D
102
{ACAD_REACTORS
330
337
102
}
330
337
100
AcDbXrecord
340
19
  0
XRECORD
  5
343
102
{ACAD_REACTORS
330
337
102
}
330
337
100
AcDbXrecord
 40
0.0
  0
XRECORD
  5
346
102
{ACAD_REACTORS
330
337
102
}
330
337
100
AcDbXrecord
340
0
  0
XRECORD
  5
34C
102
{ACAD_REACTORS
330
337
102
}
330
337
100
AcDbXrecord
 10
0.0
 20
0.0
 30
0.0
  0
XRECORD
  5
348
102
{ACAD_REACTORS
330
337
102
}
330
337
100
AcDbXrecord
 10
0.0
 20
0.0
 30
0.0
  0
XRECORD
  5
34B
102
{ACAD_REACTORS
330
337
102
}
330
337
100
AcDbXrecord
 10
0.0
 20
0.0
 30
0.0
  0
XRECORD
  5
349
102
{ACAD_REACTORS
330
337
102
}
330
337
100
AcDbXrecord
 10
0.0
 20
0.0
 30
0.0
  0
XRECORD
  5
34A
102
{ACAD_REACTORS
330
337
102
}
330
337
100
AcDbXrecord
 10
0.0
 20
0.0
 30
0.0
  0
XRECORD
  5
347
102
{ACAD_REACTORS
330
337
102
}
330
337
100
AcDbXrecord
 10
0.0
 20
0.0
 30
0.0
  0
XRECORD
  5
344
102
{ACAD_REACTORS
330
337
102
}
330
337
100
AcDbXrecord
340
0
  0
XRECORD
  5
345
102
{ACAD_REACTORS
330
337
102
}
330
337
100
AcDbXrecord
 70
     0
  0
XRECORD
  5
33B
102
{ACAD_REACTORS
330
337
102
}
330
337
100
AcDbXrecord
  1

  0
XRECORD
  5
338
102
{ACAD_REACTORS
330
337
102
}
330
337
100
AcDbXrecord
 90
        1
  0
XRECORD
  5
339
102
{ACAD_REACTORS
330
337
102
}
330
337
100
AcDbXrecord
 90
       70
  0
XRECORD
  5
34F
102
{ACAD_REACTORS
330
337
102
}
330
337
100
AcDbXrecord
340
0
  0
XRECORD
  5
355
102
{ACAD_REACTORS
330
337
102
}
330
337
100
AcDbXrecord
 10
0.0
 20
0.0
 30
0.0
  0
XRECORD
  5
351
102
{ACAD_REACTORS
330
337
102
}
330
337
100
AcDbXrecord
 10
0.0
 20
0.0
 30
0.0
  0
XRECORD
  5
354
102
{ACAD_REACTORS
330
337
102
}
330
337
100
AcDbXrecord
 10
0.0
 20
0.0
 30
0.0
  0
XRECORD
  5
352
102
{ACAD_REACTORS
330
337
102
}
330
337
100
AcDbXrecord
 10
0.0
 20
0.0
 30
0.0
  0
XRECORD
  5
353
102
{ACAD_REACTORS
330
337
102
}
330
337
100
AcDbXrecord
 10
0.0
 20
0.0
 30
0.0
  0
XRECORD
  5
350
102
{ACAD_REACTORS
330
337
102
}
330
337
100
AcDbXrecord
 10
0.0
 20
0.0
 30
0.0
  0
XRECORD
  5
34D
102
{ACAD_REACTORS
330
337
102
}
330
337
100
AcDbXrecord
340
0
  0
XRECORD
  5
34E
102
{ACAD_REACTORS
330
337
102
}
330
337
100
AcDbXrecord
 70
     0
  0
XRECORD
  5
342
102
{ACAD_REACTORS
330
337
102
}
330
337
100
AcDbXrecord
  1
{FAEB1C32-E019-11D5-929B-00C0DF256EC4}
  0
DICTIONARYVAR
  5
358
102
{ACAD_REACTORS
330
357
102
}
330
357
100
DictionaryVariables
280
     0
  1
1:1
  0
DICTIONARYVAR
  5
35C
102
{ACAD_REACTORS
330
357
102
}
330
357
100
DictionaryVariables
280
     0
  1
80.000000
  0
DICTIONARYVAR
  5
35B
102
{ACAD_REACTORS
330
357
102
}
330
357
100
DictionaryVariables
280
     0
  1
5.000000
  0
ENDSEC
  0
EOF
