  0
SECTION
  2
HEADER
  9
$ACADVER
  1
AC1014
  9
$ACADMAINTVER
 70
     9
  9
$DWGCODEPAGE
  3
ANSI_1252
  9
$INSBASE
 10
0.0
 20
0.0
 30
0.0
  9
$EXTMIN
 10
0.0
 20
0.0
 30
0.0
  9
$EXTMAX
 10
2100.0
 20
1485.0
 30
0.0
  9
$LIMMIN
 10
0.0
 20
0.0
  9
$LIMMAX
 10
2100.0
 20
1485.0
  9
$ORTHOMODE
 70
     0
  9
$REGENMODE
 70
     1
  9
$FILLMODE
 70
     1
  9
$QTEXTMODE
 70
     0
  9
$MIRRTEXT
 70
     1
  9
$DRAGMODE
 70
     2
  9
$LTSCALE
 40
1.0
  9
$OSMODE
 70
    37
  9
$ATTMODE
 70
     1
  9
$TEXTSIZE
 40
17.5
  9
$TRACEWID
 40
1.0
  9
$TEXTSTYLE
  7
STANDARD
  9
$CLAYER
  8
0
  9
$CELTYPE
  6
BYLAYER
  9
$CECOLOR
 62
   256
  9
$CELTSCALE
 40
1.0
  9
$DELOBJ
 70
     1
  9
$DISPSILH
 70
     0
  9
$DIMSCALE
 40
1.0
  9
$DIMASZ
 40
30.0
  9
$DIMEXO
 40
5.0
  9
$DIMDLI
 40
3.75
  9
$DIMRND
 40
0.0
  9
$DIMDLE
 40
0.0
  9
$DIMEXE
 40
5.0
  9
$DIMTP
 40
0.0
  9
$DIMTM
 40
0.0
  9
$DIMTXT
 40
17.5
  9
$DIMCEN
 40
2.5
  9
$DIMTSZ
 40
0.0
  9
$DIMTOL
 70
     0
  9
$DIMLIM
 70
     0
  9
$DIMTIH
 70
     1
  9
$DIMTOH
 70
     1
  9
$DIMSE1
 70
     0
  9
$DIMSE2
 70
     0
  9
$DIMTAD
 70
     1
  9
$DIMZIN
 70
     0
  9
$DIMBLK
  1

  9
$DIMASO
 70
     1
  9
$DIMSHO
 70
     1
  9
$DIMPOST
  1

  9
$DIMAPOST
  1

  9
$DIMALT
 70
     0
  9
$DIMALTD
 70
     3
  9
$DIMALTF
 40
0.0393700787
  9
$DIMLFAC
 40
1.0
  9
$DIMTOFL
 70
     1
  9
$DIMTVP
 40
0.0
  9
$DIMTIX
 70
     0
  9
$DIMSOXD
 70
     0
  9
$DIMSAH
 70
     0
  9
$DIMBLK1
  1

  9
$DIMBLK2
  1

  9
$DIMSTYLE
  2
ISO-25
  9
$DIMCLRD
 70
     0
  9
$DIMCLRE
 70
     0
  9
$DIMCLRT
 70
     0
  9
$DIMTFAC
 40
1.0
  9
$DIMGAP
 40
7.62
  9
$DIMJUST
 70
     0
  9
$DIMSD1
 70
     0
  9
$DIMSD2
 70
     0
  9
$DIMTOLJ
 70
     0
  9
$DIMTZIN
 70
     0
  9
$DIMALTZ
 70
     0
  9
$DIMALTTZ
 70
     0
  9
$DIMFIT
 70
     3
  9
$DIMUPT
 70
     0
  9
$DIMUNIT
 70
     2
  9
$DIMDEC
 70
     2
  9
$DIMTDEC
 70
     2
  9
$DIMALTU
 70
     2
  9
$DIMALTTD
 70
     3
  9
$DIMTXSTY
  7
STANDARD
  9
$DIMAUNIT
 70
     0
  9
$LUNITS
 70
     2
  9
$LUPREC
 70
     2
  9
$SKETCHINC
 40
1.0
  9
$FILLETRAD
 40
10.0
  9
$AUNITS
 70
     0
  9
$AUPREC
 70
     0
  9
$MENU
  1
.
  9
$ELEVATION
 40
0.0
  9
$PELEVATION
 40
0.0
  9
$THICKNESS
 40
0.0
  9
$LIMCHECK
 70
     0
  9
$CHAMFERA
 40
10.0
  9
$CHAMFERB
 40
10.0
  9
$CHAMFERC
 40
20.0
  9
$CHAMFERD
 40
0.0
  9
$SKPOLY
 70
     0
  9
$TDCREATE
 40
2455014.560155613
  9
$TDUPDATE
 40
2455014.560155625
  9
$TDINDWG
 40
0.0000000116
  9
$TDUSRTIMER
 40
0.0000000116
  9
$USRTIMER
 70
     1
  9
$ANGBASE
 50
0.0
  9
$ANGDIR
 70
     0
  9
$PDMODE
 70
     0
  9
$PDSIZE
 40
-1.0
  9
$PLINEWID
 40
0.0
  9
$COORDS
 70
     1
  9
$SPLFRAME
 70
     0
  9
$SPLINETYPE
 70
     6
  9
$SPLINESEGS
 70
     8
  9
$ATTDIA
 70
     0
  9
$ATTREQ
 70
     1
  9
$HANDLING
 70
     1
  9
$HANDSEED
  5
438
  9
$SURFTAB1
 70
     6
  9
$SURFTAB2
 70
     6
  9
$SURFTYPE
 70
     6
  9
$SURFU
 70
     6
  9
$SURFV
 70
     6
  9
$UCSNAME
  2

  9
$UCSORG
 10
0.0
 20
0.0
 30
0.0
  9
$UCSXDIR
 10
1.0
 20
0.0
 30
0.0
  9
$UCSYDIR
 10
0.0
 20
1.0
 30
0.0
  9
$PUCSNAME
  2

  9
$PUCSORG
 10
0.0
 20
0.0
 30
0.0
  9
$PUCSXDIR
 10
1.0
 20
0.0
 30
0.0
  9
$PUCSYDIR
 10
0.0
 20
1.0
 30
0.0
  9
$USERI1
 70
     0
  9
$USERI2
 70
     0
  9
$USERI3
 70
     0
  9
$USERI4
 70
     0
  9
$USERI5
 70
     0
  9
$USERR1
 40
0.0
  9
$USERR2
 40
0.0
  9
$USERR3
 40
0.0
  9
$USERR4
 40
0.0
  9
$USERR5
 40
0.0
  9
$WORLDVIEW
 70
     1
  9
$SHADEDGE
 70
     3
  9
$SHADEDIF
 70
    70
  9
$TILEMODE
 70
     1
  9
$MAXACTVP
 70
    64
  9
$PINSBASE
 10
0.0
 20
0.0
 30
0.0
  9
$PLIMCHECK
 70
     0
  9
$PEXTMIN
 10
1.0000000000E+20
 20
1.0000000000E+20
 30
1.0000000000E+20
  9
$PEXTMAX
 10
-1.0000000000E+20
 20
-1.0000000000E+20
 30
-1.0000000000E+20
  9
$PLIMMIN
 10
0.0
 20
0.0
  9
$PLIMMAX
 10
420.0
 20
297.0
  9
$UNITMODE
 70
     0
  9
$VISRETAIN
 70
     1
  9
$PLINEGEN
 70
     0
  9
$PSLTSCALE
 70
     1
  9
$TREEDEPTH
 70
  3020
  9
$PICKSTYLE
 70
     1
  9
$CMLSTYLE
  2
STANDARD
  9
$CMLJUST
 70
     0
  9
$CMLSCALE
 40
20.0
  9
$PROXYGRAPHICS
 70
     1
  9
$MEASUREMENT
 70
     1
  0
ENDSEC
  0
SECTION
  2
CLASSES
  0
CLASS
  1
ACDBDICTIONARYWDFLT
  2
AcDbDictionaryWithDefault
  3
ObjectDBX Classes
 90
        0
280
     0
281
     0
  0
CLASS
  1
VISUALSTYLE
  2
AcDbVisualStyle
  3
ObjectDBX Classes
 90
     4095
280
     0
281
     0
  0
CLASS
  1
SCALE
  2
AcDbScale
  3
ObjectDBX Classes
 90
     1153
280
     0
281
     0
  0
CLASS
  1
DICTIONARYVAR
  2
AcDbDictionaryVar
  3
ObjectDBX Classes
 90
        0
280
     0
281
     0
  0
CLASS
  1
XRECORD
  2
AcDbXrecord
  3
AutoCAD 2000
 90
        0
280
     0
281
     0
  0
CLASS
  1
LWPOLYLINE
  2
AcDbPolyline
  3
AutoCAD 2000
 90
        0
280
     0
281
     1
  0
CLASS
  1
HATCH
  2
AcDbHatch
  3
AutoCAD 2000
 90
        0
280
     0
281
     1
  0
CLASS
  1
ACDBPLACEHOLDER
  2
AcDbPlaceHolder
  3
ObjectDBX Classes
 90
        0
280
     0
281
     0
  0
CLASS
  1
LAYOUT
  2
AcDbLayout
  3
ObjectDBX Classes
 90
        0
280
     0
281
     0
  0
ENDSEC
  0
SECTION
  2
TABLES
  0
TABLE
  2
VPORT
  5
8
330
0
100
AcDbSymbolTable
 70
     1
  0
VPORT
  5
29
330
8
100
AcDbSymbolTableRecord
100
AcDbViewportTableRecord
  2
*ACTIVE
 70
     0
 10
0.0
 20
0.0
 11
1.0
 21
1.0
 12
1050.0
 22
742.5
 13
0.0
 23
0.0
 14
10.0
 24
10.0
 15
10.0
 25
10.0
 16
0.0
 26
0.0
 36
1.0
 17
0.0
 27
0.0
 37
0.0
 40
1485.0
 41
1.4141414141
 42
50.0
 43
0.0
 44
0.0
 50
0.0
 51
0.0
 71
     0
 72
  2000
 73
     1
 74
     3
 75
     0
 76
     0
 77
     0
 78
     0
  0
ENDTAB
  0
TABLE
  2
LTYPE
  5
5
330
0
100
AcDbSymbolTable
 70
     6
  0
LTYPE
  5
14
330
5
100
AcDbSymbolTableRecord
100
AcDbLinetypeTableRecord
  2
BYBLOCK
 70
     0
  3

 72
    65
 73
     0
 40
0.0
  0
LTYPE
  5
15
330
5
100
AcDbSymbolTableRecord
100
AcDbLinetypeTableRecord
  2
BYLAYER
 70
     0
  3

 72
    65
 73
     0
 40
0.0
  0
LTYPE
  5
16
330
5
100
AcDbSymbolTableRecord
100
AcDbLinetypeTableRecord
  2
CONTINUOUS
 70
     0
  3
Solid line
 72
    65
 73
     0
 40
0.0
  0
LTYPE
  5
5D
330
5
100
AcDbSymbolTableRecord
100
AcDbLinetypeTableRecord
  2
HIDDEN
 70
     0
  3
Hidden __ __ __ __ __ __ __ __ __ __ __ __ __ __
 72
    65
 73
     2
 40
1.905
 49
1.27
 74
     0
 49
-0.635
 74
     0
  0
LTYPE
  5
5E
330
5
100
AcDbSymbolTableRecord
100
AcDbLinetypeTableRecord
  2
PHANTOM
 70
     0
  3
Phantom ______  __  __  ______  __  __  ______
 72
    65
 73
     6
 40
12.7
 49
6.35
 74
     0
 49
-1.27
 74
     0
 49
1.27
 74
     0
 49
-1.27
 74
     0
 49
1.27
 74
     0
 49
-1.27
 74
     0
  0
LTYPE
  5
5F
330
5
100
AcDbSymbolTableRecord
100
AcDbLinetypeTableRecord
  2
CENTER
 70
     0
  3
Center ____ _ ____ _ ____ _ ____ _ ____ _ ____
 72
    65
 73
     4
 40
10.16
 49
6.35
 74
     0
 49
-1.27
 74
     0
 49
1.27
 74
     0
 49
-1.27
 74
     0
  0
LTYPE
  5
60
330
5
100
AcDbSymbolTableRecord
100
AcDbLinetypeTableRecord
  2
CENTERX2
 70
     0
  3
Center (2x) ________  __  ________  __  _____
 72
    65
 73
     4
 40
20.32
 49
12.7
 74
     0
 49
-2.54
 74
     0
 49
2.54
 74
     0
 49
-2.54
 74
     0
  0
LTYPE
  5
61
330
5
100
AcDbSymbolTableRecord
100
AcDbLinetypeTableRecord
  2
DOT2
 70
     0
  3
Dot (.5x) ........................................
 72
    65
 73
     2
 40
0.635
 49
0.0
 74
     0
 49
-0.635
 74
     0
  0
ENDTAB
  0
TABLE
  2
LAYER
  5
2
330
0
100
AcDbSymbolTable
 70
     1
  0
LAYER
  5
10
330
2
100
AcDbSymbolTableRecord
100
AcDbLayerTableRecord
  2
0
 70
     0
 62
     7
  6
CONTINUOUS
  0
ENDTAB
  0
TABLE
  2
STYLE
  5
3
330
0
100
AcDbSymbolTable
 70
     1
  0
STYLE
  5
11
330
3
100
AcDbSymbolTableRecord
100
AcDbTextStyleTableRecord
  2
STANDARD
 70
     0
 40
0.0
 41
1.0
 50
0.0
 71
     0
 42
2.5
  3
txt
  4

  0
ENDTAB
  0
TABLE
  2
VIEW
  5
6
330
0
100
AcDbSymbolTable
 70
     0
  0
ENDTAB
  0
TABLE
  2
UCS
  5
7
330
0
100
AcDbSymbolTable
 70
     0
  0
ENDTAB
  0
TABLE
  2
APPID
  5
9
330
0
100
AcDbSymbolTable
 70
     1
  0
APPID
  5
12
330
9
100
AcDbSymbolTableRecord
100
AcDbRegAppTableRecord
  2
ACAD
 70
     0
  0
ENDTAB
  0
TABLE
  2
DIMSTYLE
  5
A
330
0
100
AcDbSymbolTable
 70
     1
  0
DIMSTYLE
105
27
330
A
100
AcDbSymbolTableRecord
100
AcDbDimStyleTableRecord
  2
ISO-25
 70
     0
  3

  4

  5

  6

  7

 40
1.0
 41
2.5
 42
0.625
 43
3.75
 44
1.25
 45
0.0
 46
0.0
 47
0.0
 48
0.0
140
2.5
141
2.5
142
0.0
143
0.0393700787
144
1.0
145
0.0
146
1.0
147
0.625
 71
     0
 72
     0
 73
     0
 74
     0
 75
     0
 76
     0
 77
     1
 78
     8
170
     0
171
     3
172
     1
173
     0
174
     0
175
     0
176
     0
177
     0
178
     0
270
     2
271
     2
272
     2
273
     2
274
     3
340
11
275
     0
280
     0
281
     0
282
     0
283
     0
284
     8
285
     0
286
     0
287
     3
288
     0
  0
ENDTAB
  0
TABLE
  2
BLOCK_RECORD
  5
1
330
0
100
AcDbSymbolTable
 70
     1
  0
BLOCK_RECORD
  5
1F
330
1
100
AcDbSymbolTableRecord
100
AcDbBlockTableRecord
  2
*MODEL_SPACE
  0
BLOCK_RECORD
  5
1B
330
1
100
AcDbSymbolTableRecord
100
AcDbBlockTableRecord
  2
*PAPER_SPACE
  0
ENDTAB
  0
ENDSEC
  0
SECTION
  2
BLOCKS
  0
BLOCK
  5
20
330
1F
100
AcDbEntity
  8
0
100
AcDbBlockBegin
  2
*MODEL_SPACE
 70
     0
 10
0.0
 20
0.0
 30
0.0
  3
*MODEL_SPACE
  1

  0
ENDBLK
  5
21
330
1F
100
AcDbEntity
  8
0
100
AcDbBlockEnd
  0
BLOCK
  5
1C
330
1B
100
AcDbEntity
 67
     1
  8
0
100
AcDbBlockBegin
  2
*PAPER_SPACE
 70
     0
 10
0.0
 20
0.0
 30
0.0
  3
*PAPER_SPACE
  1

  0
ENDBLK
  5
1D
330
1B
100
AcDbEntity
 67
     1
  8
0
100
AcDbBlockEnd
  0
ENDSEC
  0
SECTION
  2
ENTITIES
  0
LINE
  5
62
330
1F
100
AcDbEntity
  8
0
  6
CONTINUOUS
 62
     7
100
AcDbLine
 10
1309.5727912099
 20
563.9658109227
 30
0.0
 11
1309.5727912099
 21
540.9658127407
 31
0.0
  0
LINE
  5
63
330
1F
100
AcDbEntity
  8
0
  6
CONTINUOUS
 62
     7
100
AcDbLine
 10
1309.5727912099
 20
517.9658108333
 30
0.0
 11
1309.5727912099
 21
494.9658163766
 31
0.0
  0
LINE
  5
64
330
1F
100
AcDbEntity
  8
0
  6
CONTINUOUS
 62
     7
100
AcDbLine
 10
1309.5727912099
 20
609.9658119435
 30
0.0
 11
1309.5727912099
 21
586.9658128301
 31
0.0
  0
LINE
  5
65
330
1F
100
AcDbEntity
  8
0
  6
CONTINUOUS
 62
     7
100
AcDbLine
 10
1309.5727912099
 20
747.9658075551
 30
0.0
 11
1309.5727912099
 21
724.9658130983
 31
0.0
  0
LINE
  5
66
330
1F
100
AcDbEntity
  8
0
  6
CONTINUOUS
 62
     7
100
AcDbLine
 10
1309.5727912099
 20
793.9658113698
 30
0.0
 11
1309.5727912099
 21
770.9658094624
 31
0.0
  0
LINE
  5
67
330
1F
100
AcDbEntity
  8
0
  6
CONTINUOUS
 62
     7
100
AcDbLine
 10
1309.5727912099
 20
471.9658144692
 30
0.0
 11
1309.5727912099
 21
448.9658125619
 31
0.0
  0
LINE
  5
68
330
1F
100
AcDbEntity
  8
0
  6
CONTINUOUS
 62
     7
100
AcDbLine
 10
1309.5727912099
 20
701.965811191
 30
0.0
 11
1309.5727912099
 21
678.9658130089
 31
0.0
  0
LINE
  5
69
330
1F
100
AcDbEntity
  8
0
  6
CONTINUOUS
 62
     7
100
AcDbLine
 10
1309.5727912099
 20
655.9658111015
 30
0.0
 11
1309.5727912099
 21
632.9658119882
 31
0.0
  0
ARC
  5
6A
330
1F
100
AcDbEntity
  8
0
  6
CONTINUOUS
 62
     7
100
AcDbCircle
 10
1633.3395878805
 20
795.7675394616
 30
0.0
 40
3.831284148532188
100
AcDbArc
 50
0.0365628086
 51
89.9634371914
  0
LINE
  5
6B
330
1F
100
AcDbEntity
  8
0
  6
CONTINUOUS
 62
     7
100
AcDbLine
 10
1633.3420327814
 20
799.5988228301
 30
0.0
 11
1633.3420327814
 21
801.2624480704
 31
0.0
  0
LINE
  5
6C
330
1F
100
AcDbEntity
  8
0
  6
CONTINUOUS
 62
     7
100
AcDbLine
 10
1633.3420327814
 20
801.2624480704
 30
0.0
 11
1634.4041130454
 21
801.158780692
 31
0.0
  0
ARC
  5
6D
330
1F
100
AcDbEntity
  8
0
  6
CONTINUOUS
 62
     7
100
AcDbCircle
 10
1633.3420764631
 20
795.7700094854
 30
0.0
 40
5.492429045377845
100
AcDbArc
 50
11.1493505713
 51
78.8508467544
  0
LINE
  5
6E
330
1F
100
AcDbEntity
  8
0
  6
CONTINUOUS
 62
     7
100
AcDbLine
 10
1638.730844012
 20
796.8320646266
 30
0.0
 11
1638.8344964893
 21
795.7699843625
 31
0.0
  0
LINE
  5
6F
330
1F
100
AcDbEntity
  8
0
  6
CONTINUOUS
 62
     7
100
AcDbLine
 10
1637.1708712489
 20
795.7699843625
 30
0.0
 11
1638.8344964893
 21
795.7699843625
 31
0.0
  0
LINE
  5
70
330
1F
100
AcDbEntity
  8
0
  6
CONTINUOUS
 62
     7
100
AcDbLine
 10
1337.7336910875
 20
441.6691758612
 30
0.0
 11
1336.6716108234
 21
441.7728432397
 31
0.0
  0
ARC
  5
71
330
1F
100
AcDbEntity
  8
0
  6
CONTINUOUS
 62
     7
100
AcDbCircle
 10
1337.7336474057
 20
447.1616144462
 30
0.0
 40
5.492429045378316
100
AcDbArc
 50
191.1493505713
 51
258.8508467544
  0
LINE
  5
72
330
1F
100
AcDbEntity
  8
0
  6
CONTINUOUS
 62
     7
100
AcDbLine
 10
1332.3448798568
 20
446.0995593051
 30
0.0
 11
1332.2412273795
 21
447.1616395692
 31
0.0
  0
LINE
  5
73
330
1F
100
AcDbEntity
  8
0
  6
CONTINUOUS
 62
     7
100
AcDbLine
 10
1332.2412273795
 20
447.1616395692
 30
0.0
 11
1333.9048526199
 21
447.1616395692
 31
0.0
  0
ARC
  5
74
330
1F
100
AcDbEntity
  8
0
  6
CONTINUOUS
 62
     7
100
AcDbCircle
 10
1337.7361359883
 20
447.16408447
 30
0.0
 40
3.831284148531903
100
AcDbArc
 50
180.0365628086
 51
269.9634371914
  0
LINE
  5
75
330
1F
100
AcDbEntity
  8
0
  6
CONTINUOUS
 62
     7
100
AcDbLine
 10
1337.7336910875
 20
441.6691758612
 30
0.0
 11
1337.7336910875
 21
443.3328011016
 31
0.0
  0
LINE
  5
76
330
1F
100
AcDbEntity
  8
0
  6
CONTINUOUS
 62
     7
100
AcDbLine
 10
1633.3420327814
 20
799.5988228301
 30
0.0
 11
1337.7336910875
 21
799.5988228301
 31
0.0
  0
LINE
  5
77
330
1F
100
AcDbEntity
  8
0
  6
CONTINUOUS
 62
     7
100
AcDbLine
 10
1337.7336910875
 20
799.5988228301
 30
0.0
 11
1337.7336910875
 21
801.2624480704
 31
0.0
  0
LINE
  5
78
330
1F
100
AcDbEntity
  8
0
  6
CONTINUOUS
 62
     7
100
AcDbLine
 10
1337.7336910875
 20
801.2624480704
 30
0.0
 11
1633.3420327814
 21
801.2624480704
 31
0.0
  0
LINE
  5
79
330
1F
100
AcDbEntity
  8
0
  6
CONTINUOUS
 62
     7
100
AcDbLine
 10
1332.2412273795
 20
447.1616395692
 30
0.0
 11
1332.2412273795
 21
795.7699843625
 31
0.0
  0
LINE
  5
7A
330
1F
100
AcDbEntity
  8
0
  6
CONTINUOUS
 62
     7
100
AcDbLine
 10
1332.2412273795
 20
795.7699843625
 30
0.0
 11
1333.9048526199
 21
795.7699843625
 31
0.0
  0
LINE
  5
7B
330
1F
100
AcDbEntity
  8
0
  6
CONTINUOUS
 62
     7
100
AcDbLine
 10
1333.9048526199
 20
795.7699843625
 30
0.0
 11
1333.9048526199
 21
447.1616395692
 31
0.0
  0
ARC
  5
7C
330
1F
100
AcDbEntity
  8
0
  6
CONTINUOUS
 62
     7
100
AcDbCircle
 10
1337.7361359883
 20
795.7675394616
 30
0.0
 40
3.831284148531846
100
AcDbArc
 50
90.0365628086
 51
179.9634371914
  0
LINE
  5
7D
330
1F
100
AcDbEntity
  8
0
  6
CONTINUOUS
 62
     7
100
AcDbLine
 10
1332.2412273795
 20
795.7699843625
 30
0.0
 11
1332.3448798568
 21
796.8320646266
 31
0.0
  0
ARC
  5
7E
330
1F
100
AcDbEntity
  8
0
  6
CONTINUOUS
 62
     7
100
AcDbCircle
 10
1337.7336474057
 20
795.7700094854
 30
0.0
 40
5.492429045378316
100
AcDbArc
 50
101.1491532456
 51
168.8506494287
  0
LINE
  5
7F
330
1F
100
AcDbEntity
  8
0
  6
CONTINUOUS
 62
     7
100
AcDbLine
 10
1336.6716108234
 20
801.158780692
 30
0.0
 11
1337.7336910875
 21
801.2624480704
 31
0.0
  0
LINE
  5
80
330
1F
100
AcDbEntity
  8
0
  6
CONTINUOUS
 62
     7
100
AcDbLine
 10
1637.1708712489
 20
447.1616395692
 30
0.0
 11
1637.1708712489
 21
795.7699843625
 31
0.0
  0
LINE
  5
81
330
1F
100
AcDbEntity
  8
0
  6
CONTINUOUS
 62
     7
100
AcDbLine
 10
1638.8344964893
 20
795.7699843625
 30
0.0
 11
1638.8344964893
 21
447.1616395692
 31
0.0
  0
LINE
  5
82
330
1F
100
AcDbEntity
  8
0
  6
CONTINUOUS
 62
     7
100
AcDbLine
 10
1637.1708712489
 20
447.1616395692
 30
0.0
 11
1638.8344964893
 21
447.1616395692
 31
0.0
  0
ARC
  5
83
330
1F
100
AcDbEntity
  8
0
  6
CONTINUOUS
 62
     7
100
AcDbCircle
 10
1633.3395878805
 20
447.16408447
 30
0.0
 40
3.831284148532244
100
AcDbArc
 50
270.0365628086
 51
359.9634371914
  0
LINE
  5
84
330
1F
100
AcDbEntity
  8
0
  6
CONTINUOUS
 62
     7
100
AcDbLine
 10
1638.8344964893
 20
447.1616395692
 30
0.0
 11
1638.730844012
 21
446.0995593051
 31
0.0
  0
ARC
  5
85
330
1F
100
AcDbEntity
  8
0
  6
CONTINUOUS
 62
     7
100
AcDbCircle
 10
1633.3420764631
 20
447.1616144462
 30
0.0
 40
5.49242904537769
100
AcDbArc
 50
281.1491532456
 51
348.8506494287
  0
LINE
  5
86
330
1F
100
AcDbEntity
  8
0
  6
CONTINUOUS
 62
     7
100
AcDbLine
 10
1634.4041130454
 20
441.7728432397
 30
0.0
 11
1633.3420327814
 21
441.6691758612
 31
0.0
  0
LINE
  5
87
330
1F
100
AcDbEntity
  8
0
  6
CONTINUOUS
 62
     7
100
AcDbLine
 10
1633.3420327814
 20
441.6691758612
 30
0.0
 11
1633.3420327814
 21
443.3328011016
 31
0.0
  0
LINE
  5
88
330
1F
100
AcDbEntity
  8
0
  6
CONTINUOUS
 62
     7
100
AcDbLine
 10
1337.7336910875
 20
443.3328011016
 30
0.0
 11
1633.3420327814
 21
443.3328011016
 31
0.0
  0
LINE
  5
89
330
1F
100
AcDbEntity
  8
0
  6
CONTINUOUS
 62
     7
100
AcDbLine
 10
1633.3420327814
 20
441.6691758612
 30
0.0
 11
1337.7336910875
 21
441.6691758612
 31
0.0
  0
LINE
  5
8A
330
1F
100
AcDbEntity
  8
0
  6
CONTINUOUS
 62
     7
100
AcDbLine
 10
1336.5681818635
 20
802.4279423932
 30
0.0
 11
1337.7336910875
 21
801.2624480704
 31
0.0
  0
LINE
  5
8B
330
1F
100
AcDbEntity
  8
0
  6
CONTINUOUS
 62
     7
100
AcDbLine
 10
1332.2412273795
 20
795.7699843625
 30
0.0
 11
1331.0757330568
 21
796.9354786852
 31
0.0
  0
ARC
  5
8C
330
1F
100
AcDbEntity
  8
0
  6
CONTINUOUS
 62
     7
100
AcDbCircle
 10
1336.5681703743
 20
796.9355050756
 30
0.0
 40
5.49243731761313
100
AcDbArc
 50
89.9998801473
 51
180.0002752975
  0
LINE
  5
8D
330
1F
100
AcDbEntity
  8
0
  6
CONTINUOUS
 62
     7
100
AcDbLine
 10
1331.0757330568
 20
445.9961452464
 30
0.0
 11
1332.2412273795
 21
447.1616395692
 31
0.0
  0
LINE
  5
8E
330
1F
100
AcDbEntity
  8
0
  6
CONTINUOUS
 62
     7
100
AcDbLine
 10
1337.7336910875
 20
441.6691758612
 30
0.0
 11
1336.5681818635
 21
440.5036815385
 31
0.0
  0
ARC
  5
8F
330
1F
100
AcDbEntity
  8
0
  6
CONTINUOUS
 62
     7
100
AcDbCircle
 10
1336.5681693499
 20
445.9961178316
 30
0.0
 40
5.492436293180889
100
AcDbArc
 50
179.9997140158
 51
270.0001305394
  0
LINE
  5
90
330
1F
100
AcDbEntity
  8
0
  6
CONTINUOUS
 62
     7
100
AcDbLine
 10
1639.9999908121
 20
796.9354786852
 30
0.0
 11
1638.8344964893
 21
795.7699843625
 31
0.0
  0
LINE
  5
91
330
1F
100
AcDbEntity
  8
0
  6
CONTINUOUS
 62
     7
100
AcDbLine
 10
1633.3420327814
 20
801.2624480704
 30
0.0
 11
1634.5075420053
 21
802.4279423932
 31
0.0
  0
ARC
  5
92
330
1F
100
AcDbEntity
  8
0
  6
CONTINUOUS
 62
     7
100
AcDbCircle
 10
1634.5075545189
 20
796.9355061
 30
0.0
 40
5.492436293180093
100
AcDbArc
 50
359.9997140158
 51
90.0001305394
  0
LINE
  5
93
330
1F
100
AcDbEntity
  8
0
  6
CONTINUOUS
 62
     7
100
AcDbLine
 10
1638.8344964893
 20
447.1616395692
 30
0.0
 11
1639.9999908121
 21
445.9961452464
 31
0.0
  0
ARC
  5
94
330
1F
100
AcDbEntity
  8
0
  6
CONTINUOUS
 62
     7
100
AcDbCircle
 10
1634.5075356695
 20
445.9961382308
 30
0.0
 40
5.492462441150337
100
AcDbArc
 50
270.0
 51
0.0
  0
LINE
  5
95
330
1F
100
AcDbEntity
  8
0
  6
CONTINUOUS
 62
     7
100
AcDbLine
 10
1634.5075420053
 20
440.5036815385
 30
0.0
 11
1633.3420327814
 21
441.6691758612
 31
0.0
  0
LINE
  5
96
330
1F
100
AcDbEntity
  8
0
  6
CONTINUOUS
 62
     7
100
AcDbLine
 10
1336.5681818635
 20
440.5036815385
 30
0.0
 11
1337.3531005294
 21
440.5036815385
 31
0.0
  0
LINE
  5
97
330
1F
100
AcDbEntity
  8
0
  6
CONTINUOUS
 62
     7
100
AcDbLine
 10
1634.5075420053
 20
440.5036815385
 30
0.0
 11
1633.7226233394
 21
440.5036815385
 31
0.0
  0
LINE
  5
98
330
1F
100
AcDbEntity
  8
0
  6
CONTINUOUS
 62
     7
100
AcDbLine
 10
1633.7226233394
 20
440.5036815385
 30
0.0
 11
1633.4899268062
 21
440.7363631705
 31
0.0
  0
LINE
  5
99
330
1F
100
AcDbEntity
  8
0
  6
CONTINUOUS
 62
     7
100
AcDbLine
 10
1337.5857970626
 20
440.7363631705
 30
0.0
 11
1633.4899268062
 21
440.7363631705
 31
0.0
  0
LINE
  5
9A
330
1F
100
AcDbEntity
  8
0
  6
CONTINUOUS
 62
     7
100
AcDbLine
 10
1337.3531005294
 20
440.5036815385
 30
0.0
 11
1337.5857970626
 21
440.7363631705
 31
0.0
  0
LINE
  5
9B
330
1F
100
AcDbEntity
  8
0
  6
CONTINUOUS
 62
     7
100
AcDbLine
 10
1634.5075420053
 20
802.4279423932
 30
0.0
 11
1633.7226233394
 21
802.4279423932
 31
0.0
  0
LINE
  5
9C
330
1F
100
AcDbEntity
  8
0
  6
CONTINUOUS
 62
     7
100
AcDbLine
 10
1337.3531005294
 20
802.4279423932
 30
0.0
 11
1336.5681818635
 21
802.4279423932
 31
0.0
  0
LINE
  5
9D
330
1F
100
AcDbEntity
  8
0
  6
CONTINUOUS
 62
     7
100
AcDbLine
 10
1337.3531005294
 20
802.4279423932
 30
0.0
 11
1337.5857970626
 21
802.1952607611
 31
0.0
  0
LINE
  5
9E
330
1F
100
AcDbEntity
  8
0
  6
CONTINUOUS
 62
     7
100
AcDbLine
 10
1633.4899268062
 20
802.1952607611
 30
0.0
 11
1337.5857970626
 21
802.1952607611
 31
0.0
  0
LINE
  5
9F
330
1F
100
AcDbEntity
  8
0
  6
CONTINUOUS
 62
     7
100
AcDbLine
 10
1633.7226233394
 20
802.4279423932
 30
0.0
 11
1633.4899268062
 21
802.1952607611
 31
0.0
  0
LINE
  5
A0
330
1F
100
AcDbEntity
  8
0
  6
CONTINUOUS
 62
     7
100
AcDbLine
 10
1331.0757330568
 20
796.9354786852
 30
0.0
 11
1331.0757330568
 21
796.1505749205
 31
0.0
  0
LINE
  5
A1
330
1F
100
AcDbEntity
  8
0
  6
CONTINUOUS
 62
     7
100
AcDbLine
 10
1331.0757330568
 20
446.7810490111
 30
0.0
 11
1331.0757330568
 21
445.9961452464
 31
0.0
  0
LINE
  5
A2
330
1F
100
AcDbEntity
  8
0
  6
CONTINUOUS
 62
     7
100
AcDbLine
 10
1331.0757330568
 20
446.7810490111
 30
0.0
 11
1331.2999657304
 21
447.0052965859
 31
0.0
  0
LINE
  5
A3
330
1F
100
AcDbEntity
  8
0
  6
CONTINUOUS
 62
     7
100
AcDbLine
 10
1331.2999657304
 20
795.9263273457
 30
0.0
 11
1331.2999657304
 21
447.0052965859
 31
0.0
  0
LINE
  5
A4
330
1F
100
AcDbEntity
  8
0
  6
CONTINUOUS
 62
     7
100
AcDbLine
 10
1331.0757330568
 20
796.1505749205
 30
0.0
 11
1331.2999657304
 21
795.9263273457
 31
0.0
  0
LINE
  5
A5
330
1F
100
AcDbEntity
  8
0
  6
CONTINUOUS
 62
     7
100
AcDbLine
 10
1639.9999908121
 20
446.7810490111
 30
0.0
 11
1639.9999908121
 21
445.9961452464
 31
0.0
  0
LINE
  5
A6
330
1F
100
AcDbEntity
  8
0
  6
CONTINUOUS
 62
     7
100
AcDbLine
 10
1639.9999908121
 20
796.1505749205
 30
0.0
 11
1639.9999908121
 21
796.9354786852
 31
0.0
  0
LINE
  5
A7
330
1F
100
AcDbEntity
  8
0
  6
CONTINUOUS
 62
     7
100
AcDbLine
 10
1639.9999908121
 20
796.1505749205
 30
0.0
 11
1639.7757581384
 21
795.9263273457
 31
0.0
  0
LINE
  5
A8
330
1F
100
AcDbEntity
  8
0
  6
CONTINUOUS
 62
     7
100
AcDbLine
 10
1639.7757581384
 20
447.0052965859
 30
0.0
 11
1639.7757581384
 21
795.9263273457
 31
0.0
  0
LINE
  5
A9
330
1F
100
AcDbEntity
  8
0
  6
CONTINUOUS
 62
     7
100
AcDbLine
 10
1639.9999908121
 20
446.7810490111
 30
0.0
 11
1639.7757581384
 21
447.0052965859
 31
0.0
  0
LINE
  5
AA
330
1F
100
AcDbEntity
  8
0
  6
CONTINUOUS
 62
     7
100
AcDbLine
 10
1633.7196878106
 20
427.241007326
 30
0.0
 11
1633.5869631679
 21
439.1549327353
 31
0.0
  0
ELLIPSE
  5
AB
330
1F
100
AcDbEntity
  8
0
  6
CONTINUOUS
 62
     7
100
AcDbEllipse
 10
1633.4844434127
 20
438.739108591
 30
0.0
 11
0.0
 21
2.000000000000057
 31
0.0
210
0.0
220
0.0
230
1.0
 40
0.0524077793
 41
4.921828490624503
 42
6.230825429621836
  0
LINE
  5
AC
330
1F
100
AcDbEntity
  8
0
  6
CONTINUOUS
 62
     7
100
AcDbLine
 10
1633.7226233394
 20
440.5036815385
 30
0.0
 11
1633.7226233394
 21
427.0331659297
 31
0.0
  0
ELLIPSE
  5
AD
330
1F
100
AcDbEntity
  8
0
  6
CONTINUOUS
 62
     7
100
AcDbEllipse
 10
1633.8222101429
 20
427.6568312448
 30
0.0
 11
0.0
 21
1.999999999999886
 31
0.0
210
0.0
220
0.0
230
1.0
 40
0.0524077793
 41
1.780235837034705
 42
1.887914761660069
  0
LINE
  5
AE
330
1F
100
AcDbEntity
  8
0
  6
CONTINUOUS
 62
     7
100
AcDbLine
 10
1633.5869631679
 20
439.1549327353
 30
0.0
 11
1337.4887607009
 21
439.1549327353
 31
0.0
  0
ELLIPSE
  5
AF
330
1F
100
AcDbEntity
  8
0
  6
CONTINUOUS
 62
     7
100
AcDbEllipse
 10
1337.5912804561
 20
438.739108591
 30
0.0
 11
0.0
 21
2.000000000000057
 31
0.0
210
0.0
220
0.0
230
1.0
 40
0.0524077793
 41
0.052359877560064
 42
1.361356816555556
  0
LINE
  5
B0
330
1F
100
AcDbEntity
  8
0
  6
CONTINUOUS
 62
     7
100
AcDbLine
 10
1337.4887607009
 20
439.1549327353
 30
0.0
 11
1337.3560360582
 21
427.241007326
 31
0.0
  0
ELLIPSE
  5
B1
330
1F
100
AcDbEntity
  8
0
  6
CONTINUOUS
 62
     7
100
AcDbEllipse
 10
1337.2535137259
 20
427.6568312448
 30
0.0
 11
0.0
 21
1.999999999999886
 31
0.0
210
0.0
220
0.0
230
1.0
 40
0.0524077793
 41
4.395270545518834
 42
4.502949470145334
  0
LINE
  5
B2
330
1F
100
AcDbEntity
  8
0
  6
CONTINUOUS
 62
     7
100
AcDbLine
 10
1337.3531005294
 20
440.5036815385
 30
0.0
 11
1337.3531005294
 21
427.0331659297
 31
0.0
  0
LINE
  5
B3
330
1F
100
AcDbEntity
  8
0
  6
CONTINUOUS
 62
     7
100
AcDbLine
 10
1337.4887607009
 20
803.7766911963
 30
0.0
 11
1633.5869631679
 21
803.7766911963
 31
0.0
  0
ELLIPSE
  5
B4
330
1F
100
AcDbEntity
  8
0
  6
CONTINUOUS
 62
     7
100
AcDbEllipse
 10
1633.4844434127
 20
804.1925153406
 30
0.0
 11
0.0
 21
1.999999999999886
 31
0.0
210
0.0
220
0.0
230
1.0
 40
0.0524077793
 41
3.193952531152286
 42
4.502949470145344
  0
ELLIPSE
  5
B5
330
1F
100
AcDbEntity
  8
0
  6
CONTINUOUS
 62
     7
100
AcDbEllipse
 10
1337.5912804561
 20
804.1925153406
 30
0.0
 11
0.0
 21
1.999999999999886
 31
0.0
210
0.0
220
0.0
230
1.0
 40
0.0524077793
 41
1.780235837035156
 42
3.08923277602973
  0
LINE
  5
B6
330
1F
100
AcDbEntity
  8
0
  6
CONTINUOUS
 62
     7
100
AcDbLine
 10
1337.3560360582
 20
815.6906166056
 30
0.0
 11
1337.4887607009
 21
803.7766911963
 31
0.0
  0
LINE
  5
B7
330
1F
100
AcDbEntity
  8
0
  6
CONTINUOUS
 62
     7
100
AcDbLine
 10
1337.3531005294
 20
815.898458002
 30
0.0
 11
1337.3531005294
 21
802.4279423932
 31
0.0
  0
ELLIPSE
  5
B8
330
1F
100
AcDbEntity
  8
0
  6
CONTINUOUS
 62
     7
100
AcDbEllipse
 10
1337.2535137259
 20
815.2747926868
 30
0.0
 11
0.0
 21
2.000000000000114
 31
0.0
210
0.0
220
0.0
230
1.0
 40
0.0524077793
 41
4.921828490624047
 42
5.029507415250539
  0
LINE
  5
B9
330
1F
100
AcDbEntity
  8
0
  6
CONTINUOUS
 62
     7
100
AcDbLine
 10
1633.5869631679
 20
803.7766911963
 30
0.0
 11
1633.7196878106
 21
815.6906166056
 31
0.0
  0
ELLIPSE
  5
BA
330
1F
100
AcDbEntity
  8
0
  6
CONTINUOUS
 62
     7
100
AcDbEllipse
 10
1633.8222101429
 20
815.2747926868
 30
0.0
 11
0.0
 21
2.000000000000114
 31
0.0
210
0.0
220
0.0
230
1.0
 40
0.0524077793
 41
1.253677891929785
 42
1.361356816555562
  0
LINE
  5
BB
330
1F
100
AcDbEntity
  8
0
  6
CONTINUOUS
 62
     7
100
AcDbLine
 10
1633.7226233394
 20
802.4279423932
 30
0.0
 11
1633.7226233394
 21
815.898458002
 31
0.0
  0
LINE
  5
BC
330
1F
100
AcDbEntity
  8
0
  6
CONTINUOUS
 62
     7
100
AcDbLine
 10
1641.3571885736
 20
796.0233637074
 30
0.0
 11
1641.3571885736
 21
446.9082602242
 31
0.0
  0
ELLIPSE
  5
BD
330
1F
100
AcDbEntity
  8
0
  6
CONTINUOUS
 62
     7
100
AcDbEllipse
 10
1641.7730141389
 20
447.0107816577
 30
0.0
 11
2.0
 21
0.0
 31
0.0
210
0.0
220
0.0
230
1.0
 40
0.0524077793
 41
3.19395253115023
 42
4.502949470145402
  0
ELLIPSE
  5
BE
330
1F
100
AcDbEntity
  8
0
  6
CONTINUOUS
 62
     7
100
AcDbEllipse
 10
1641.7730141389
 20
795.9208422739
 30
0.0
 11
2.0
 21
0.0
 31
0.0
210
0.0
220
0.0
230
1.0
 40
0.0524077793
 41
1.780235837033973
 42
3.089232776028483
  0
LINE
  5
BF
330
1F
100
AcDbEntity
  8
0
  6
CONTINUOUS
 62
     7
100
AcDbLine
 10
1652.5126597793
 20
796.1476393918
 30
0.0
 11
1641.3571885736
 21
796.0233637074
 31
0.0
  0
LINE
  5
C0
330
1F
100
AcDbEntity
  8
0
  6
CONTINUOUS
 62
     7
100
AcDbLine
 10
1652.7205011756
 20
796.1505749205
 30
0.0
 11
1639.9999908121
 21
796.1505749205
 31
0.0
  0
ELLIPSE
  5
C1
330
1F
100
AcDbEntity
  8
0
  6
CONTINUOUS
 62
     7
100
AcDbEllipse
 10
1652.0968426554
 20
796.2501601743
 30
0.0
 11
2.0
 21
0.0
 31
0.0
210
0.0
220
0.0
230
1.0
 40
0.0524077793
 41
4.921828490624559
 42
5.029507415250201
  0
ELLIPSE
  5
C2
330
1F
100
AcDbEntity
  8
0
  6
CONTINUOUS
 62
     7
100
AcDbEllipse
 10
1329.3027097299
 20
795.9208422739
 30
0.0
 11
2.0
 21
0.0
 31
0.0
210
0.0
220
0.0
230
1.0
 40
0.0524077793
 41
0.0523598775613127
 42
1.361356816555931
  0
LINE
  5
C3
330
1F
100
AcDbEntity
  8
0
  6
CONTINUOUS
 62
     7
100
AcDbLine
 10
1329.7185352952
 20
796.0233637074
 30
0.0
 11
1318.5630640895
 21
796.1476393918
 31
0.0
  0
ELLIPSE
  5
C4
330
1F
100
AcDbEntity
  8
0
  6
CONTINUOUS
 62
     7
100
AcDbEllipse
 10
1318.9788812134
 20
796.2501601743
 30
0.0
 11
2.0
 21
0.0
 31
0.0
210
0.0
220
0.0
230
1.0
 40
0.0524077793
 41
4.39527054551934
 42
4.502949470144844
  0
LINE
  5
C5
330
1F
100
AcDbEntity
  8
0
  6
CONTINUOUS
 62
     7
100
AcDbLine
 10
1331.0757330568
 20
796.1505749205
 30
0.0
 11
1318.3552226932
 21
796.1505749205
 31
0.0
  0
LINE
  5
C6
330
1F
100
AcDbEntity
  8
0
  6
CONTINUOUS
 62
     7
100
AcDbLine
 10
1329.7185352952
 20
446.9082602242
 30
0.0
 11
1329.7185352952
 21
796.0233637074
 31
0.0
  0
ELLIPSE
  5
C7
330
1F
100
AcDbEntity
  8
0
  6
CONTINUOUS
 62
     7
100
AcDbEllipse
 10
1329.3027097299
 20
447.0107816577
 30
0.0
 11
1.999999999999773
 21
0.0
 31
0.0
210
0.0
220
0.0
230
1.0
 40
0.0524077793
 41
4.92182849062414
 42
6.230825429620193
  0
LINE
  5
C8
330
1F
100
AcDbEntity
  8
0
  6
CONTINUOUS
 62
     7
100
AcDbLine
 10
1318.5630640895
 20
446.7839845399
 30
0.0
 11
1329.7185352952
 21
446.9082602242
 31
0.0
  0
LINE
  5
C9
330
1F
100
AcDbEntity
  8
0
  6
CONTINUOUS
 62
     7
100
AcDbLine
 10
1318.3552226932
 20
446.7810490111
 30
0.0
 11
1331.0757330568
 21
446.7810490111
 31
0.0
  0
ELLIPSE
  5
CA
330
1F
100
AcDbEntity
  8
0
  6
CONTINUOUS
 62
     7
100
AcDbEllipse
 10
1318.9788812134
 20
446.6814637573
 30
0.0
 11
1.999999999999773
 21
0.0
 31
0.0
210
0.0
220
0.0
230
1.0
 40
0.0524077793
 41
1.780235837034108
 42
1.887914761660102
  0
LINE
  5
CB
330
1F
100
AcDbEntity
  8
0
  6
CONTINUOUS
 62
     7
100
AcDbLine
 10
1641.3571885736
 20
446.9082602242
 30
0.0
 11
1652.5126597793
 21
446.7839845399
 31
0.0
  0
ELLIPSE
  5
CC
330
1F
100
AcDbEntity
  8
0
  6
CONTINUOUS
 62
     7
100
AcDbEllipse
 10
1652.0968426554
 20
446.6814637573
 30
0.0
 11
2.0
 21
0.0
 31
0.0
210
0.0
220
0.0
230
1.0
 40
0.0524077793
 41
1.253677891929842
 42
1.361356816555372
  0
LINE
  5
CD
330
1F
100
AcDbEntity
  8
0
  6
CONTINUOUS
 62
     7
100
AcDbLine
 10
1652.7205011756
 20
446.7810490111
 30
0.0
 11
1639.9999908121
 21
446.7810490111
 31
0.0
  0
LINE
  5
CE
330
1F
100
AcDbEntity
  8
0
  6
CONTINUOUS
 62
     7
100
AcDbLine
 10
1337.3560360582
 20
427.241007326
 30
0.0
 11
1633.7196878106
 21
427.241007326
 31
0.0
  0
LINE
  5
CF
330
1F
100
AcDbEntity
  8
0
  6
CONTINUOUS
 62
     7
100
AcDbLine
 10
1633.7196878106
 20
815.6906166056
 30
0.0
 11
1337.3560360582
 21
815.6906166056
 31
0.0
  0
LINE
  5
D0
330
1F
100
AcDbEntity
  8
0
  6
CONTINUOUS
 62
     7
100
AcDbLine
 10
1652.5126597793
 20
446.7839845399
 30
0.0
 11
1652.5126597793
 21
796.1476393918
 31
0.0
  0
LINE
  5
D1
330
1F
100
AcDbEntity
  8
0
  6
CONTINUOUS
 62
     7
100
AcDbLine
 10
1318.5630640895
 20
796.1476393918
 30
0.0
 11
1318.5630640895
 21
446.7839845399
 31
0.0
  0
LINE
  5
D2
330
1F
100
AcDbEntity
  8
0
  6
CONTINUOUS
 62
     7
100
AcDbLine
 10
1318.3552226932
 20
432.7506669739
 30
0.0
 11
1318.3552226932
 21
446.7810490111
 31
0.0
  0
LINE
  5
D3
330
1F
100
AcDbEntity
  8
0
  6
CONTINUOUS
 62
     7
100
AcDbLine
 10
1318.3552226932
 20
432.7506669739
 30
0.0
 11
1316.9816187532
 21
432.7506669739
 31
0.0
  0
LINE
  5
D4
330
1F
100
AcDbEntity
  8
0
  6
CONTINUOUS
 62
     7
100
AcDbLine
 10
1316.9816187532
 20
432.7506669739
 30
0.0
 11
1316.9816187532
 21
810.1809569577
 31
0.0
  0
LINE
  5
D5
330
1F
100
AcDbEntity
  8
0
  6
CONTINUOUS
 62
     7
100
AcDbLine
 10
1318.3552226932
 20
810.1809569577
 30
0.0
 11
1316.9816187532
 21
810.1809569577
 31
0.0
  0
LINE
  5
D6
330
1F
100
AcDbEntity
  8
0
  6
CONTINUOUS
 62
     7
100
AcDbLine
 10
1318.3552226932
 20
796.1505749205
 30
0.0
 11
1318.3552226932
 21
810.1809569577
 31
0.0
  0
LINE
  5
D7
330
1F
100
AcDbEntity
  8
0
  6
CONTINUOUS
 62
     7
100
AcDbLine
 10
1647.0030001314
 20
427.0331659297
 30
0.0
 11
1633.7226233394
 21
427.0331659297
 31
0.0
  0
LINE
  5
D8
330
1F
100
AcDbEntity
  8
0
  6
CONTINUOUS
 62
     7
100
AcDbLine
 10
1647.0030001314
 20
427.0331659297
 30
0.0
 11
1647.0030001314
 21
425.6595768908
 31
0.0
  0
LINE
  5
D9
330
1F
100
AcDbEntity
  8
0
  6
CONTINUOUS
 62
     7
100
AcDbLine
 10
1647.0030001314
 20
425.6595768908
 30
0.0
 11
1324.0727237375
 21
425.6595768908
 31
0.0
  0
LINE
  5
DA
330
1F
100
AcDbEntity
  8
0
  6
CONTINUOUS
 62
     7
100
AcDbLine
 10
1324.0727237375
 20
427.0331659297
 30
0.0
 11
1324.0727237375
 21
425.6595768908
 31
0.0
  0
LINE
  5
DB
330
1F
100
AcDbEntity
  8
0
  6
CONTINUOUS
 62
     7
100
AcDbLine
 10
1337.3531005294
 20
427.0331659297
 30
0.0
 11
1324.0727237375
 21
427.0331659297
 31
0.0
  0
LINE
  5
DC
330
1F
100
AcDbEntity
  8
0
  6
CONTINUOUS
 62
     7
100
AcDbLine
 10
1324.0727237375
 20
815.898458002
 30
0.0
 11
1337.3531005294
 21
815.898458002
 31
0.0
  0
LINE
  5
DD
330
1F
100
AcDbEntity
  8
0
  6
CONTINUOUS
 62
     7
100
AcDbLine
 10
1324.0727237375
 20
817.2720470408
 30
0.0
 11
1324.0727237375
 21
815.898458002
 31
0.0
  0
LINE
  5
DE
330
1F
100
AcDbEntity
  8
0
  6
CONTINUOUS
 62
     7
100
AcDbLine
 10
1324.0727237375
 20
817.2720470408
 30
0.0
 11
1647.0030001314
 21
817.2720470408
 31
0.0
  0
LINE
  5
DF
330
1F
100
AcDbEntity
  8
0
  6
CONTINUOUS
 62
     7
100
AcDbLine
 10
1647.0030001314
 20
817.2720470408
 30
0.0
 11
1647.0030001314
 21
815.898458002
 31
0.0
  0
LINE
  5
E0
330
1F
100
AcDbEntity
  8
0
  6
CONTINUOUS
 62
     7
100
AcDbLine
 10
1633.7226233394
 20
815.898458002
 30
0.0
 11
1647.0030001314
 21
815.898458002
 31
0.0
  0
LINE
  5
E1
330
1F
100
AcDbEntity
  8
0
  6
CONTINUOUS
 62
     7
100
AcDbLine
 10
1652.7205011756
 20
810.1809569577
 30
0.0
 11
1652.7205011756
 21
796.1505749205
 31
0.0
  0
LINE
  5
E2
330
1F
100
AcDbEntity
  8
0
  6
CONTINUOUS
 62
     7
100
AcDbLine
 10
1654.0941051156
 20
810.1809569577
 30
0.0
 11
1652.7205011756
 21
810.1809569577
 31
0.0
  0
LINE
  5
E3
330
1F
100
AcDbEntity
  8
0
  6
CONTINUOUS
 62
     7
100
AcDbLine
 10
1654.0941051156
 20
810.1809569577
 30
0.0
 11
1654.0941051156
 21
432.7506669739
 31
0.0
  0
LINE
  5
E4
330
1F
100
AcDbEntity
  8
0
  6
CONTINUOUS
 62
     7
100
AcDbLine
 10
1654.0941051156
 20
432.7506669739
 30
0.0
 11
1652.7205011756
 21
432.7506669739
 31
0.0
  0
LINE
  5
E5
330
1F
100
AcDbEntity
  8
0
  6
CONTINUOUS
 62
     7
100
AcDbLine
 10
1652.7205011756
 20
446.7810490111
 30
0.0
 11
1652.7205011756
 21
432.7506669739
 31
0.0
  0
ARC
  5
E6
330
1F
100
AcDbEntity
  8
0
  6
CONTINUOUS
 62
     7
100
AcDbCircle
 10
1328.0185997001
 20
806.4350742001
 30
0.0
 40
2.499999999999966
100
AcDbArc
 50
331.1038811373
 51
278.8961188627
  0
ARC
  5
E7
330
1F
100
AcDbEntity
  8
0
  6
CONTINUOUS
 62
     7
100
AcDbCircle
 10
1330.9071602184
 20
802.3097822536
 30
0.0
 40
2.999999999999985
100
AcDbArc
 50
103.4898117331
 51
146.5101882669
  0
LINE
  5
E8
330
1F
100
AcDbEntity
  8
0
  6
CONTINUOUS
 62
     7
100
AcDbLine
 10
1318.3552226932
 20
810.1809569577
 30
0.0
 11
1318.4483549507
 21
811.8458040932
 31
0.0
  0
ARC
  5
E9
330
1F
100
AcDbEntity
  8
0
  6
CONTINUOUS
 62
     7
100
AcDbCircle
 10
1322.8011591829
 20
811.4525215123
 30
0.0
 40
4.370534964113495
100
AcDbArc
 50
95.1627440502
 51
174.8372559498
  0
LINE
  5
EA
330
1F
100
AcDbEntity
  8
0
  6
CONTINUOUS
 62
     7
100
AcDbLine
 10
1322.4078766019
 20
815.8053257445
 30
0.0
 11
1324.0727237375
 21
815.898458002
 31
0.0
  0
ARC
  5
EB
330
1F
100
AcDbEntity
  8
0
  6
CONTINUOUS
 62
     7
100
AcDbCircle
 10
1641.3154597351
 20
805.0909741291
 30
0.0
 40
0.2999999999999885
100
AcDbArc
 50
217.6585571973
 51
235.0
  0
LINE
  5
EC
330
1F
100
AcDbEntity
  8
0
  6
CONTINUOUS
 62
     7
100
AcDbLine
 10
1642.2177008302
 20
804.0929832438
 30
0.0
 11
1641.1433867128
 21
804.8452236632
 31
0.0
  0
ARC
  5
ED
330
1F
100
AcDbEntity
  8
0
  6
CONTINUOUS
 62
     7
100
AcDbCircle
 10
1642.3897675696
 20
804.338735685
 30
0.0
 40
0.3000000000000258
100
AcDbArc
 50
235.0
 51
252.3414428028
  0
ARC
  5
EE
330
1F
100
AcDbEntity
  8
0
  6
CONTINUOUS
 62
     7
100
AcDbCircle
 10
1643.0571241687
 20
806.4350742001
 30
0.0
 40
2.499999999999976
100
AcDbArc
 50
252.3414428028
 51
217.6585571972
  0
LINE
  5
EF
330
1F
100
AcDbEntity
  8
0
  6
CONTINUOUS
 62
     7
100
AcDbLine
 10
1647.0030001314
 20
815.898458002
 30
0.0
 11
1648.6678472669
 21
815.8053257445
 31
0.0
  0
ARC
  5
F0
330
1F
100
AcDbEntity
  8
0
  6
CONTINUOUS
 62
     7
100
AcDbCircle
 10
1648.2745488113
 20
811.4525056377
 30
0.0
 40
4.370552202822043
100
AcDbArc
 50
5.1629325876
 51
84.8370674124
  0
LINE
  5
F1
330
1F
100
AcDbEntity
  8
0
  6
CONTINUOUS
 62
     7
100
AcDbLine
 10
1652.6273689182
 20
811.8458040932
 30
0.0
 11
1652.7205011756
 21
810.1809569577
 31
0.0
  0
ELLIPSE
  5
F2
330
1F
100
AcDbEntity
  8
0
  6
CONTINUOUS
 62
     7
100
AcDbEllipse
 10
1653.4243057929
 20
424.3321090378
 30
0.0
 11
34.86812060661168
 21
-0.2448078529948248
 31
0.0
210
0.0
220
0.0
230
1.0
 40
0.0374179733
 41
1.709773931163995
 42
1.756275812523942
  0
LINE
  5
F3
330
1F
100
AcDbEntity
  8
0
  6
CONTINUOUS
 62
     7
100
AcDbLine
 10
1648.6678472669
 20
427.1262981871
 30
0.0
 11
1647.0030001314
 21
427.0331659297
 31
0.0
  0
ARC
  5
F4
330
1F
100
AcDbEntity
  8
0
  6
CONTINUOUS
 62
     7
100
AcDbCircle
 10
1637.4994643172
 20
426.8835336738
 30
0.0
 40
11.17102109565728
100
AcDbArc
 50
353.7022813311
 51
1.2452287895
  0
ARC
  5
F5
330
1F
100
AcDbEntity
  8
0
  6
CONTINUOUS
 62
     7
100
AcDbCircle
 10
1643.0571241687
 20
436.4965497315
 30
0.0
 40
2.500000000000072
100
AcDbArc
 50
148.3408523309
 51
101.6591476691
  0
ARC
  5
F6
330
1F
100
AcDbEntity
  8
0
  6
CONTINUOUS
 62
     7
100
AcDbCircle
 10
1640.1162956665
 20
440.6964880952
 30
0.0
 40
3.000000000000021
100
AcDbArc
 50
285.7210949949
 51
324.2789050051
  0
LINE
  5
F7
330
1F
100
AcDbEntity
  8
0
  6
CONTINUOUS
 62
     7
100
AcDbLine
 10
1652.7205011756
 20
432.7506669739
 30
0.0
 11
1652.6273689182
 21
431.0858198384
 31
0.0
  0
ARC
  5
F8
330
1F
100
AcDbEntity
  8
0
  6
CONTINUOUS
 62
     7
100
AcDbCircle
 10
1648.2745646859
 20
431.4791024193
 30
0.0
 40
4.370534964113078
100
AcDbArc
 50
275.1627440502
 51
354.8372559498
  0
ARC
  5
F9
330
1F
100
AcDbEntity
  8
0
  6
CONTINUOUS
 62
     7
100
AcDbCircle
 10
1330.9058471085
 20
440.6199663628
 30
0.0
 40
3.000000000000204
100
AcDbArc
 50
213.4367195484
 51
256.5632804516
  0
ARC
  5
FA
330
1F
100
AcDbEntity
  8
0
  6
CONTINUOUS
 62
     7
100
AcDbCircle
 10
1328.0185997001
 20
436.4965497315
 30
0.0
 40
2.500000000000242
100
AcDbArc
 50
81.1698938202
 51
28.8301061798
  0
LINE
  5
FB
330
1F
100
AcDbEntity
  8
0
  6
CONTINUOUS
 62
     7
100
AcDbLine
 10
1324.0727237375
 20
427.0331659297
 30
0.0
 11
1322.4078766019
 21
427.1262981871
 31
0.0
  0
ARC
  5
FC
330
1F
100
AcDbEntity
  8
0
  6
CONTINUOUS
 62
     7
100
AcDbCircle
 10
1322.8011750575
 20
431.479118294
 30
0.0
 40
4.370552202822943
100
AcDbArc
 50
185.1629325876
 51
264.8370674124
  0
LINE
  5
FD
330
1F
100
AcDbEntity
  8
0
  6
CONTINUOUS
 62
     7
100
AcDbLine
 10
1318.4483549507
 20
431.0858198384
 30
0.0
 11
1318.3552226932
 21
432.7506669739
 31
0.0
  0
ELLIPSE
  5
FE
330
1F
100
AcDbEntity
  8
0
  6
CONTINUOUS
 62
     7
100
AcDbEllipse
 10
1315.6541590064
 20
426.3293681073
 30
0.0
 11
0.2448078529948816
 21
34.86812060661157
 31
0.0
210
0.0
220
0.0
230
1.0
 40
0.0374179733
 41
4.851366584753787
 42
4.897868466113761
  0
ARC
  5
FF
330
1F
100
AcDbEntity
  8
0
  6
CONTINUOUS
 62
     7
100
AcDbCircle
 10
1318.2055822527
 20
442.2540172782
 30
0.0
 40
11.17083580742335
100
AcDbArc
 50
263.702218684
 51
271.2452914367
  0
ELLIPSE
  5
100
330
1F
100
AcDbEntity
  8
0
  6
CONTINUOUS
 62
     7
100
AcDbEllipse
 10
1653.4243057929
 20
818.5995148938
 30
0.0
 11
34.86812060661191
 21
0.2448078529948816
 31
0.0
210
0.0
220
0.0
230
1.0
 40
0.0374179733
 41
4.526909494655697
 42
4.573411376015622
  0
ARC
  5
101
330
1F
100
AcDbEntity
  8
0
  6
CONTINUOUS
 62
     7
100
AcDbCircle
 10
1637.4994643172
 20
816.0480902578
 30
0.0
 40
11.1710210956566
100
AcDbArc
 50
358.7547712105
 51
6.2977186689
  0
ARC
  5
102
330
1F
100
AcDbEntity
  8
0
  6
CONTINUOUS
 62
     7
100
AcDbCircle
 10
1648.603779733
 20
431.1498873723
 30
0.0
 40
5.491755939772613
100
AcDbArc
 50
269.9926153416
 51
0.0073846584
  0
ARC
  5
103
330
1F
100
AcDbEntity
  8
0
  6
CONTINUOUS
 62
     7
100
AcDbCircle
 10
1652.8701416161
 20
442.2540172782
 30
0.0
 40
11.17083580742646
100
AcDbArc
 50
268.7547085633
 51
276.297781316
  0
ARC
  5
104
330
1F
100
AcDbEntity
  8
0
  6
CONTINUOUS
 62
     7
100
AcDbCircle
 10
1648.6037967935
 20
811.7817536198
 30
0.0
 40
5.491738881437374
100
AcDbArc
 50
359.9924373244
 51
90.0075626756
  0
ARC
  5
105
330
1F
100
AcDbEntity
  8
0
  6
CONTINUOUS
 62
     7
100
AcDbCircle
 10
1652.8701416161
 20
800.6776066534
 30
0.0
 40
11.17083580748951
100
AcDbArc
 50
83.702218684
 51
91.2452914366
  0
LINE
  5
106
330
1F
100
AcDbEntity
  8
0
  6
CONTINUOUS
 62
     7
100
AcDbLine
 10
1642.5672820718
 20
438.9211633185
 30
0.0
 11
1642.5519040735
 21
438.9449604729
 31
0.0
  0
ARC
  5
107
330
1F
100
AcDbEntity
  8
0
  6
CONTINUOUS
 62
     7
100
AcDbCircle
 10
1640.1185638613
 20
440.6966662036
 30
0.0
 40
3.02467045637403
100
AcDbArc
 50
285.8653269513
 51
324.0550941237
  0
LINE
  5
108
330
1F
100
AcDbEntity
  8
0
  6
CONTINUOUS
 62
     7
100
AcDbLine
 10
1640.9291676195
 20
437.8087171296
 30
0.0
 11
1640.9454396875
 21
437.787214754
 31
0.0
  0
LINE
  5
109
330
1F
100
AcDbEntity
  8
0
  6
CONTINUOUS
 62
     7
100
AcDbLine
 10
1328.3866546066
 20
438.9423229674
 30
0.0
 11
1328.4023604305
 21
438.9669247845
 31
0.0
  0
ARC
  5
10A
330
1F
100
AcDbEntity
  8
0
  6
CONTINUOUS
 62
     7
100
AcDbCircle
 10
1328.024234704
 20
436.5018231384
 30
0.0
 40
2.46726318035344
100
AcDbArc
 50
81.5531748928
 51
28.5273696962
  0
LINE
  5
10B
330
1F
100
AcDbEntity
  8
0
  6
CONTINUOUS
 62
     7
100
AcDbLine
 10
1330.1919451864
 20
437.6801350096
 30
0.0
 11
1330.208738795
 21
437.7020844201
 31
0.0
  0
ARC
  5
10C
330
1F
100
AcDbEntity
  8
0
  6
CONTINUOUS
 62
     7
100
AcDbCircle
 10
1330.9034021336
 20
440.6198578624
 30
0.0
 40
3.024589466145042
100
AcDbArc
 50
213.6853895863
 51
256.3951550027
  0
LINE
  5
10D
330
1F
100
AcDbEntity
  8
0
  6
CONTINUOUS
 62
     7
100
AcDbLine
 10
1330.1905593784
 20
805.2489557246
 30
0.0
 11
1330.2073380859
 21
805.2270212153
 31
0.0
  0
ARC
  5
10E
330
1F
100
AcDbEntity
  8
0
  6
CONTINUOUS
 62
     7
100
AcDbCircle
 10
1328.0242236291
 20
806.4297909531
 30
0.0
 40
2.467262129506282
100
AcDbArc
 50
331.4058998241
 51
278.5139132093
  0
LINE
  5
10F
330
1F
100
AcDbEntity
  8
0
  6
CONTINUOUS
 62
     7
100
AcDbLine
 10
1328.3895007284
 20
803.9897181967
 30
0.0
 11
1328.4052065523
 21
803.9651461819
 31
0.0
  0
ARC
  5
110
330
1F
100
AcDbEntity
  8
0
  6
CONTINUOUS
 62
     7
100
AcDbCircle
 10
1330.904971113
 20
802.3095236804
 30
0.0
 40
3.025003284115005
100
AcDbArc
 50
103.6605361521
 51
146.2592768812
  0
ARC
  5
111
330
1F
100
AcDbEntity
  8
0
  6
CONTINUOUS
 62
     7
100
AcDbCircle
 10
1643.0514349004
 20
436.5018951991
 30
0.0
 40
2.467237766188393
100
AcDbArc
 50
148.6036752091
 51
101.3167458658
  0
ARC
  5
112
330
1F
100
AcDbEntity
  8
0
  6
CONTINUOUS
 62
     7
100
AcDbCircle
 10
1322.4719441359
 20
811.7817365593
 30
0.0
 40
5.491755939772442
100
AcDbArc
 50
89.9926153416
 51
180.0073846584
  0
ARC
  5
113
330
1F
100
AcDbEntity
  8
0
  6
CONTINUOUS
 62
     7
100
AcDbCircle
 10
1333.5762595517
 20
816.0480902578
 30
0.0
 40
11.17102109570721
100
AcDbArc
 50
173.7022813311
 51
181.2452287895
  0
ARC
  5
114
330
1F
100
AcDbEntity
  8
0
  6
CONTINUOUS
 62
     7
100
AcDbCircle
 10
1318.2055822527
 20
800.6776066534
 30
0.0
 40
11.17083580748644
100
AcDbArc
 50
88.7547085634
 51
96.297781316
  0
ELLIPSE
  5
115
330
1F
100
AcDbEntity
  8
0
  6
CONTINUOUS
 62
     7
100
AcDbEllipse
 10
1315.6541590064
 20
816.6022558243
 30
0.0
 11
-0.2448078529948816
 21
34.86812060661146
 31
0.0
210
0.0
220
0.0
230
1.0
 40
0.0374179733
 41
4.526909494655643
 42
4.573411376015581
  0
ARC
  5
116
330
1F
100
AcDbEntity
  8
0
  6
CONTINUOUS
 62
     7
100
AcDbCircle
 10
1322.4719270753
 20
431.1498703118
 30
0.0
 40
5.491738881437545
100
AcDbArc
 50
179.9924373244
 51
270.0075626756
  0
ARC
  5
117
330
1F
100
AcDbEntity
  8
0
  6
CONTINUOUS
 62
     7
100
AcDbCircle
 10
1333.5762595517
 20
426.8835336738
 30
0.0
 40
11.17102109570994
100
AcDbArc
 50
178.7547712105
 51
186.2977186689
  0
ELLIPSE
  5
118
330
1F
100
AcDbEntity
  8
0
  6
CONTINUOUS
 62
     7
100
AcDbEllipse
 10
1317.6514180759
 20
424.3321090378
 30
0.0
 11
34.86812060661168
 21
0.2448078529948816
 31
0.0
210
0.0
220
0.0
230
1.0
 40
0.0374179733
 41
1.385316841065843
 42
1.43181872242579
  0
ELLIPSE
  5
119
330
1F
100
AcDbEntity
  8
0
  6
CONTINUOUS
 62
     7
100
AcDbEllipse
 10
1317.6514180759
 20
818.5995148938
 30
0.0
 11
34.86812060661146
 21
-0.2448078529948816
 31
0.0
210
0.0
220
0.0
230
1.0
 40
0.0374179733
 41
4.851366584753781
 42
4.897868466113717
  0
ELLIPSE
  5
11A
330
1F
100
AcDbEntity
  8
0
  6
CONTINUOUS
 62
     7
100
AcDbEllipse
 10
1655.4215648624
 20
816.6022558243
 30
0.0
 11
0.2448078529948816
 21
34.86812060661146
 31
0.0
210
0.0
220
0.0
230
1.0
 40
0.0374179733
 41
1.709773931163992
 42
1.756275812523956
  0
ELLIPSE
  5
11B
330
1F
100
AcDbEntity
  8
0
  6
CONTINUOUS
 62
     7
100
AcDbEllipse
 10
1655.4215648624
 20
426.3293681073
 30
0.0
 11
-0.2448078529948816
 21
34.86812060661157
 31
0.0
210
0.0
220
0.0
230
1.0
 40
0.0374179733
 41
1.38531684106587
 42
1.431818722425805
  0
ELLIPSE
  5
11C
330
1F
100
AcDbEntity
  8
0
  6
CONTINUOUS
 62
     7
100
AcDbEllipse
 10
1321.6261476031
 20
430.3040976345
 30
0.0
 11
-3.899754338892989
 21
-3.899754338892876
 31
0.0
210
0.0
220
0.0
230
1.0
 40
0.9972646886
 41
5.499156671652551
 42
7.06721394270671
  0
LINE
  5
11D
330
1F
100
AcDbEntity
  8
0
  6
CONTINUOUS
 62
     7
100
AcDbLine
 10
1316.1186031015
 20
430.2890100459
 30
0.0
 11
1316.9801882417
 21
431.1505951861
 31
0.0
  0
LINE
  5
11E
330
1F
100
AcDbEntity
  8
0
  6
CONTINUOUS
 62
     7
100
AcDbLine
 10
1322.4726519496
 20
425.6581314782
 30
0.0
 11
1321.6110668094
 21
424.796546338
 31
0.0
  0
ELLIPSE
  5
11F
330
1F
100
AcDbEntity
  8
0
  6
CONTINUOUS
 62
     7
100
AcDbEllipse
 10
1649.4495762657
 20
430.3040976345
 30
0.0
 11
3.899754338892535
 21
-3.899754338892876
 31
0.0
210
0.0
220
0.0
230
1.0
 40
0.9972646886
 41
5.499156671652589
 42
7.067213942706658
  0
LINE
  5
120
330
1F
100
AcDbEntity
  8
0
  6
CONTINUOUS
 62
     7
100
AcDbLine
 10
1649.4646570594
 20
424.796546338
 30
0.0
 11
1648.6030719192
 21
425.6581314782
 31
0.0
  0
LINE
  5
121
330
1F
100
AcDbEntity
  8
0
  6
CONTINUOUS
 62
     7
100
AcDbLine
 10
1654.0955356271
 20
431.1505951861
 30
0.0
 11
1654.9571207673
 21
430.2890100459
 31
0.0
  0
ELLIPSE
  5
122
330
1F
100
AcDbEntity
  8
0
  6
CONTINUOUS
 62
     7
100
AcDbEllipse
 10
1649.4495762657
 20
812.6275262971
 30
0.0
 11
3.899754338892989
 21
3.899754338892876
 31
0.0
210
0.0
220
0.0
230
1.0
 40
0.9972646886
 41
5.49915667165253
 42
7.06721394270668
  0
LINE
  5
123
330
1F
100
AcDbEntity
  8
0
  6
CONTINUOUS
 62
     7
100
AcDbLine
 10
1654.9571207673
 20
812.6426138857
 30
0.0
 11
1654.0955356271
 21
811.7810287455
 31
0.0
  0
LINE
  5
124
330
1F
100
AcDbEntity
  8
0
  6
CONTINUOUS
 62
     7
100
AcDbLine
 10
1648.6030719192
 20
817.2734924534
 30
0.0
 11
1649.4646570594
 21
818.1350775937
 31
0.0
  0
ELLIPSE
  5
125
330
1F
100
AcDbEntity
  8
0
  6
CONTINUOUS
 62
     7
100
AcDbEllipse
 10
1321.6261476031
 20
812.6275262971
 30
0.0
 11
-3.899754338892989
 21
3.899754338892876
 31
0.0
210
0.0
220
0.0
230
1.0
 40
0.9972646886
 41
5.49915667165248
 42
7.067213942706672
  0
LINE
  5
126
330
1F
100
AcDbEntity
  8
0
  6
CONTINUOUS
 62
     7
100
AcDbLine
 10
1321.6110668094
 20
818.1350775937
 30
0.0
 11
1322.4726519496
 21
817.2734924534
 31
0.0
  0
LINE
  5
127
330
1F
100
AcDbEntity
  8
0
  6
CONTINUOUS
 62
     7
100
AcDbLine
 10
1316.9801882417
 20
811.7810287455
 30
0.0
 11
1316.1186031015
 21
812.6426138857
 31
0.0
  0
LINE
  5
128
330
1F
100
AcDbEntity
  8
0
  6
CONTINUOUS
 62
     7
100
AcDbLine
 10
1321.6110668094
 20
818.1350775937
 30
0.0
 11
1649.4646570594
 21
818.1350775937
 31
0.0
  0
LINE
  5
129
330
1F
100
AcDbEntity
  8
0
  6
CONTINUOUS
 62
     7
100
AcDbLine
 10
1649.4646570594
 20
424.796546338
 30
0.0
 11
1321.6110668094
 21
424.796546338
 31
0.0
  0
LINE
  5
12A
330
1F
100
AcDbEntity
  8
0
  6
CONTINUOUS
 62
     7
100
AcDbLine
 10
1654.9571207673
 20
812.6426138857
 30
0.0
 11
1654.9571207673
 21
430.2890100459
 31
0.0
  0
LINE
  5
12B
330
1F
100
AcDbEntity
  8
0
  6
CONTINUOUS
 62
     7
100
AcDbLine
 10
1316.8723038347
 20
770.9658094624
 30
0.0
 11
1316.8723038347
 21
793.9658113698
 31
0.0
  0
LINE
  5
12C
330
1F
100
AcDbEntity
  8
0
  6
CONTINUOUS
 62
     7
100
AcDbLine
 10
1316.8723038347
 20
724.9658130983
 30
0.0
 11
1316.8723038347
 21
747.9658075551
 31
0.0
  0
LINE
  5
12D
330
1F
100
AcDbEntity
  8
0
  6
CONTINUOUS
 62
     7
100
AcDbLine
 10
1316.8723038347
 20
678.9658130089
 30
0.0
 11
1316.8723038347
 21
701.965811191
 31
0.0
  0
LINE
  5
12E
330
1F
100
AcDbEntity
  8
0
  6
CONTINUOUS
 62
     7
100
AcDbLine
 10
1316.8723038347
 20
632.9658119882
 30
0.0
 11
1316.8723038347
 21
655.9658111015
 31
0.0
  0
LINE
  5
12F
330
1F
100
AcDbEntity
  8
0
  6
CONTINUOUS
 62
     7
100
AcDbLine
 10
1316.8723038347
 20
448.9658125619
 30
0.0
 11
1316.8723038347
 21
471.9658144692
 31
0.0
  0
LINE
  5
130
330
1F
100
AcDbEntity
  8
0
  6
CONTINUOUS
 62
     7
100
AcDbLine
 10
1316.8723038347
 20
494.9658163766
 30
0.0
 11
1316.8723038347
 21
517.9658108333
 31
0.0
  0
LINE
  5
131
330
1F
100
AcDbEntity
  8
0
  6
CONTINUOUS
 62
     7
100
AcDbLine
 10
1316.8723038347
 20
540.9658127407
 30
0.0
 11
1316.8723038347
 21
563.9658109227
 31
0.0
  0
LINE
  5
132
330
1F
100
AcDbEntity
  8
0
  6
CONTINUOUS
 62
     7
100
AcDbLine
 10
1316.8723038347
 20
586.9658128301
 30
0.0
 11
1316.8723038347
 21
609.9658119435
 31
0.0
  0
LINE
  5
133
330
1F
100
AcDbEntity
  8
0
  6
CONTINUOUS
 62
     7
100
AcDbLine
 10
1316.1186031015
 20
430.2890100459
 30
0.0
 11
1316.1186031015
 21
448.9658125619
 31
0.0
  0
LINE
  5
134
330
1F
100
AcDbEntity
  8
0
  6
CONTINUOUS
 62
     7
100
AcDbLine
 10
1316.1186031015
 20
471.9658144692
 30
0.0
 11
1316.1186031015
 21
494.9658163766
 31
0.0
  0
LINE
  5
135
330
1F
100
AcDbEntity
  8
0
  6
CONTINUOUS
 62
     7
100
AcDbLine
 10
1316.1186031015
 20
517.9658108333
 30
0.0
 11
1316.1186031015
 21
540.9658127407
 31
0.0
  0
LINE
  5
136
330
1F
100
AcDbEntity
  8
0
  6
CONTINUOUS
 62
     7
100
AcDbLine
 10
1316.1186031015
 20
563.9658109227
 30
0.0
 11
1316.1186031015
 21
586.9658128301
 31
0.0
  0
LINE
  5
137
330
1F
100
AcDbEntity
  8
0
  6
CONTINUOUS
 62
     7
100
AcDbLine
 10
1316.1186031015
 20
609.9658119435
 30
0.0
 11
1316.1186031015
 21
632.9658119882
 31
0.0
  0
LINE
  5
138
330
1F
100
AcDbEntity
  8
0
  6
CONTINUOUS
 62
     7
100
AcDbLine
 10
1316.1186031015
 20
655.9658111015
 30
0.0
 11
1316.1186031015
 21
678.9658130089
 31
0.0
  0
LINE
  5
139
330
1F
100
AcDbEntity
  8
0
  6
CONTINUOUS
 62
     7
100
AcDbLine
 10
1316.1186031015
 20
701.965811191
 30
0.0
 11
1316.1186031015
 21
724.9658130983
 31
0.0
  0
LINE
  5
13A
330
1F
100
AcDbEntity
  8
0
  6
CONTINUOUS
 62
     7
100
AcDbLine
 10
1316.1186031015
 20
747.9658075551
 30
0.0
 11
1316.1186031015
 21
770.9658094624
 31
0.0
  0
LINE
  5
13B
330
1F
100
AcDbEntity
  8
0
  6
CONTINUOUS
 62
     7
100
AcDbLine
 10
1316.1186031015
 20
793.9658113698
 30
0.0
 11
1316.1186031015
 21
812.6426138857
 31
0.0
  0
LINE
  5
13C
330
1F
100
AcDbEntity
  8
0
  6
CONTINUOUS
 62
     7
100
AcDbLine
 10
1316.8723038347
 20
632.9658119882
 30
0.0
 11
1310.9639934213
 21
632.9658119882
 31
0.0
  0
LINE
  5
13D
330
1F
100
AcDbEntity
  8
0
  6
CONTINUOUS
 62
     7
100
AcDbLine
 10
1310.9639934213
 20
632.9658119882
 30
0.0
 11
1310.9639934213
 21
655.9658111015
 31
0.0
  0
LINE
  5
13E
330
1F
100
AcDbEntity
  8
0
  6
CONTINUOUS
 62
     7
100
AcDbLine
 10
1316.8723038347
 20
655.9658111015
 30
0.0
 11
1310.9639934213
 21
655.9658111015
 31
0.0
  0
LINE
  5
13F
330
1F
100
AcDbEntity
  8
0
  6
CONTINUOUS
 62
     7
100
AcDbLine
 10
1316.8723038347
 20
448.9658125619
 30
0.0
 11
1310.9639934213
 21
448.9658125619
 31
0.0
  0
LINE
  5
140
330
1F
100
AcDbEntity
  8
0
  6
CONTINUOUS
 62
     7
100
AcDbLine
 10
1310.9639934213
 20
448.9658125619
 30
0.0
 11
1310.9639934213
 21
471.9658144692
 31
0.0
  0
LINE
  5
141
330
1F
100
AcDbEntity
  8
0
  6
CONTINUOUS
 62
     7
100
AcDbLine
 10
1316.8723038347
 20
471.9658144692
 30
0.0
 11
1310.9639934213
 21
471.9658144692
 31
0.0
  0
LINE
  5
142
330
1F
100
AcDbEntity
  8
0
  6
CONTINUOUS
 62
     7
100
AcDbLine
 10
1316.8723038347
 20
494.9658163766
 30
0.0
 11
1310.9639934213
 21
494.9658163766
 31
0.0
  0
LINE
  5
143
330
1F
100
AcDbEntity
  8
0
  6
CONTINUOUS
 62
     7
100
AcDbLine
 10
1310.9639934213
 20
494.9658163766
 30
0.0
 11
1310.9639934213
 21
517.9658108333
 31
0.0
  0
LINE
  5
144
330
1F
100
AcDbEntity
  8
0
  6
CONTINUOUS
 62
     7
100
AcDbLine
 10
1316.8723038347
 20
517.9658108333
 30
0.0
 11
1310.9639934213
 21
517.9658108333
 31
0.0
  0
LINE
  5
145
330
1F
100
AcDbEntity
  8
0
  6
CONTINUOUS
 62
     7
100
AcDbLine
 10
1316.8723038347
 20
540.9658127407
 30
0.0
 11
1310.9639934213
 21
540.9658127407
 31
0.0
  0
LINE
  5
146
330
1F
100
AcDbEntity
  8
0
  6
CONTINUOUS
 62
     7
100
AcDbLine
 10
1310.9639934213
 20
540.9658127407
 30
0.0
 11
1310.9639934213
 21
563.9658109227
 31
0.0
  0
LINE
  5
147
330
1F
100
AcDbEntity
  8
0
  6
CONTINUOUS
 62
     7
100
AcDbLine
 10
1316.8723038347
 20
563.9658109227
 30
0.0
 11
1310.9639934213
 21
563.9658109227
 31
0.0
  0
LINE
  5
148
330
1F
100
AcDbEntity
  8
0
  6
CONTINUOUS
 62
     7
100
AcDbLine
 10
1316.8723038347
 20
770.9658094624
 30
0.0
 11
1310.9639934213
 21
770.9658094624
 31
0.0
  0
LINE
  5
149
330
1F
100
AcDbEntity
  8
0
  6
CONTINUOUS
 62
     7
100
AcDbLine
 10
1310.9639934213
 20
770.9658094624
 30
0.0
 11
1310.9639934213
 21
793.9658113698
 31
0.0
  0
LINE
  5
14A
330
1F
100
AcDbEntity
  8
0
  6
CONTINUOUS
 62
     7
100
AcDbLine
 10
1316.8723038347
 20
793.9658113698
 30
0.0
 11
1310.9639934213
 21
793.9658113698
 31
0.0
  0
LINE
  5
14B
330
1F
100
AcDbEntity
  8
0
  6
CONTINUOUS
 62
     7
100
AcDbLine
 10
1316.8723038347
 20
724.9658130983
 30
0.0
 11
1310.9639934213
 21
724.9658130983
 31
0.0
  0
LINE
  5
14C
330
1F
100
AcDbEntity
  8
0
  6
CONTINUOUS
 62
     7
100
AcDbLine
 10
1310.9639934213
 20
724.9658130983
 30
0.0
 11
1310.9639934213
 21
747.9658075551
 31
0.0
  0
LINE
  5
14D
330
1F
100
AcDbEntity
  8
0
  6
CONTINUOUS
 62
     7
100
AcDbLine
 10
1316.8723038347
 20
747.9658075551
 30
0.0
 11
1310.9639934213
 21
747.9658075551
 31
0.0
  0
LINE
  5
14E
330
1F
100
AcDbEntity
  8
0
  6
CONTINUOUS
 62
     7
100
AcDbLine
 10
1316.8723038347
 20
678.9658130089
 30
0.0
 11
1310.9639934213
 21
678.9658130089
 31
0.0
  0
LINE
  5
14F
330
1F
100
AcDbEntity
  8
0
  6
CONTINUOUS
 62
     7
100
AcDbLine
 10
1310.9639934213
 20
678.9658130089
 30
0.0
 11
1310.9639934213
 21
701.965811191
 31
0.0
  0
LINE
  5
150
330
1F
100
AcDbEntity
  8
0
  6
CONTINUOUS
 62
     7
100
AcDbLine
 10
1316.8723038347
 20
701.965811191
 30
0.0
 11
1310.9639934213
 21
701.965811191
 31
0.0
  0
LINE
  5
151
330
1F
100
AcDbEntity
  8
0
  6
CONTINUOUS
 62
     7
100
AcDbLine
 10
1316.8723038347
 20
586.9658128301
 30
0.0
 11
1310.9639934213
 21
586.9658128301
 31
0.0
  0
LINE
  5
152
330
1F
100
AcDbEntity
  8
0
  6
CONTINUOUS
 62
     7
100
AcDbLine
 10
1310.9639934213
 20
586.9658128301
 30
0.0
 11
1310.9639934213
 21
609.9658119435
 31
0.0
  0
LINE
  5
153
330
1F
100
AcDbEntity
  8
0
  6
CONTINUOUS
 62
     7
100
AcDbLine
 10
1316.8723038347
 20
609.9658119435
 30
0.0
 11
1310.9639934213
 21
609.9658119435
 31
0.0
  0
LINE
  5
154
330
1F
100
AcDbEntity
  8
0
  6
CONTINUOUS
 62
     7
100
AcDbLine
 10
1310.9639934213
 20
540.9658127407
 30
0.0
 11
1309.5727912099
 21
540.9658127407
 31
0.0
  0
LINE
  5
155
330
1F
100
AcDbEntity
  8
0
  6
CONTINUOUS
 62
     7
100
AcDbLine
 10
1310.9639934213
 20
563.9658109227
 30
0.0
 11
1309.5727912099
 21
563.9658109227
 31
0.0
  0
LINE
  5
156
330
1F
100
AcDbEntity
  8
0
  6
CONTINUOUS
 62
     7
100
AcDbLine
 10
1310.9639934213
 20
494.9658163766
 30
0.0
 11
1309.5727912099
 21
494.9658163766
 31
0.0
  0
LINE
  5
157
330
1F
100
AcDbEntity
  8
0
  6
CONTINUOUS
 62
     7
100
AcDbLine
 10
1310.9639934213
 20
517.9658108333
 30
0.0
 11
1309.5727912099
 21
517.9658108333
 31
0.0
  0
LINE
  5
158
330
1F
100
AcDbEntity
  8
0
  6
CONTINUOUS
 62
     7
100
AcDbLine
 10
1310.9639934213
 20
586.9658128301
 30
0.0
 11
1309.5727912099
 21
586.9658128301
 31
0.0
  0
LINE
  5
159
330
1F
100
AcDbEntity
  8
0
  6
CONTINUOUS
 62
     7
100
AcDbLine
 10
1310.9639934213
 20
609.9658119435
 30
0.0
 11
1309.5727912099
 21
609.9658119435
 31
0.0
  0
LINE
  5
15A
330
1F
100
AcDbEntity
  8
0
  6
CONTINUOUS
 62
     7
100
AcDbLine
 10
1310.9639934213
 20
724.9658130983
 30
0.0
 11
1309.5727912099
 21
724.9658130983
 31
0.0
  0
LINE
  5
15B
330
1F
100
AcDbEntity
  8
0
  6
CONTINUOUS
 62
     7
100
AcDbLine
 10
1310.9639934213
 20
747.9658075551
 30
0.0
 11
1309.5727912099
 21
747.9658075551
 31
0.0
  0
LINE
  5
15C
330
1F
100
AcDbEntity
  8
0
  6
CONTINUOUS
 62
     7
100
AcDbLine
 10
1310.9639934213
 20
770.9658094624
 30
0.0
 11
1309.5727912099
 21
770.9658094624
 31
0.0
  0
LINE
  5
15D
330
1F
100
AcDbEntity
  8
0
  6
CONTINUOUS
 62
     7
100
AcDbLine
 10
1310.9639934213
 20
793.9658113698
 30
0.0
 11
1309.5727912099
 21
793.9658113698
 31
0.0
  0
LINE
  5
15E
330
1F
100
AcDbEntity
  8
0
  6
CONTINUOUS
 62
     7
100
AcDbLine
 10
1310.9639934213
 20
448.9658125619
 30
0.0
 11
1309.5727912099
 21
448.9658125619
 31
0.0
  0
LINE
  5
15F
330
1F
100
AcDbEntity
  8
0
  6
CONTINUOUS
 62
     7
100
AcDbLine
 10
1310.9639934213
 20
471.9658144692
 30
0.0
 11
1309.5727912099
 21
471.9658144692
 31
0.0
  0
LINE
  5
160
330
1F
100
AcDbEntity
  8
0
  6
CONTINUOUS
 62
     7
100
AcDbLine
 10
1310.9639934213
 20
678.9658130089
 30
0.0
 11
1309.5727912099
 21
678.9658130089
 31
0.0
  0
LINE
  5
161
330
1F
100
AcDbEntity
  8
0
  6
CONTINUOUS
 62
     7
100
AcDbLine
 10
1310.9639934213
 20
701.965811191
 30
0.0
 11
1309.5727912099
 21
701.965811191
 31
0.0
  0
LINE
  5
162
330
1F
100
AcDbEntity
  8
0
  6
CONTINUOUS
 62
     7
100
AcDbLine
 10
1310.9639934213
 20
632.9658119882
 30
0.0
 11
1309.5727912099
 21
632.9658119882
 31
0.0
  0
LINE
  5
163
330
1F
100
AcDbEntity
  8
0
  6
CONTINUOUS
 62
     7
100
AcDbLine
 10
1310.9639934213
 20
655.9658111015
 30
0.0
 11
1309.5727912099
 21
655.9658111015
 31
0.0
  0
LINE
  5
164
330
1F
100
AcDbEntity
  8
0
  6
CONTINUOUS
 62
     7
100
AcDbLine
 10
1826.7508550808
 20
818.1350775937
 30
0.0
 11
1826.7508550808
 21
812.6426138857
 31
0.0
  0
LINE
  5
165
330
1F
100
AcDbEntity
  8
0
  6
CONTINUOUS
 62
     7
100
AcDbLine
 10
1826.7508550808
 20
812.6426138857
 30
0.0
 11
1810.3107867092
 21
811.7810287455
 31
0.0
  0
LWPOLYLINE
  5
166
330
1F
100
AcDbEntity
  8
0
  6
CONTINUOUS
 62
     7
100
AcDbPolyline
 90
        6
 70
   128
 43
0.0
 10
1810.3107867092
 20
817.2734924534
 10
1810.3055424318
 20
816.9667520503
 10
1810.2963456214
 20
816.0790749768
 10
1810.2985100151
 20
814.7087641934
 10
1810.3088653908
 20
813.0097039918
 10
1810.3107867092
 20
811.7810287455
  0
LINE
  5
167
330
1F
100
AcDbEntity
  8
0
  6
CONTINUOUS
 62
     7
100
AcDbLine
 10
1810.3107867092
 20
817.2734924534
 30
0.0
 11
1826.7508550808
 21
818.1350775937
 31
0.0
  0
ELLIPSE
  5
168
330
1F
100
AcDbEntity
  8
0
  6
CONTINUOUS
 62
     7
100
AcDbEllipse
 10
1835.6129110613
 20
816.6022558243
 30
0.0
 11
9.042354694321602
 21
34.30586911032117
 31
0.0
210
0.0
220
0.0
230
1.0
 40
0.6896927366
 41
1.889336944179188
 42
1.935838825539135
  0
LINE
  5
169
330
1F
100
AcDbEntity
  8
0
  6
CONTINUOUS
 62
     7
100
AcDbLine
 10
1810.3107867092
 20
431.1505951861
 30
0.0
 11
1826.7508550808
 21
430.2890100459
 31
0.0
  0
ELLIPSE
  5
16A
330
1F
100
AcDbEntity
  8
0
  6
CONTINUOUS
 62
     7
100
AcDbEllipse
 10
1835.6129110613
 20
426.3293681073
 30
0.0
 11
-9.042354694321602
 21
34.30586911032123
 31
0.0
210
0.0
220
0.0
230
1.0
 40
0.6896927366
 41
1.205753828050658
 42
1.252255709410609
  0
LINE
  5
16B
330
1F
100
AcDbEntity
  8
0
  6
CONTINUOUS
 62
     7
100
AcDbLine
 10
1810.2834058255
 20
810.1809569577
 30
0.0
 11
1810.2834058255
 21
432.7506669739
 31
0.0
  0
LINE
  5
16C
330
1F
100
AcDbEntity
  8
0
  6
CONTINUOUS
 62
     7
100
AcDbLine
 10
1826.7508550808
 20
812.6426138857
 30
0.0
 11
1826.7508550808
 21
430.2890100459
 31
0.0
  0
LINE
  5
16D
330
1F
100
AcDbEntity
  8
0
  6
CONTINUOUS
 62
     7
100
AcDbLine
 10
1826.7508550808
 20
424.796546338
 30
0.0
 11
1810.3107867092
 21
425.6581314782
 31
0.0
  0
ARC
  5
16E
330
1F
100
AcDbEntity
  8
0
  6
CONTINUOUS
 62
     7
100
AcDbCircle
 10
2140.0383458553
 20
428.4043633321
 30
0.0
 40
329.7389953430061
100
AcDbArc
 50
179.5228064739
 51
180.4771935261
  0
LINE
  5
16F
330
1F
100
AcDbEntity
  8
0
  6
CONTINUOUS
 62
     7
100
AcDbLine
 10
1826.7508550808
 20
430.2890100459
 30
0.0
 11
1826.7508550808
 21
424.796546338
 31
0.0
  0
ARC
  5
170
330
1F
100
AcDbEntity
  8
0
  6
CONTINUOUS
 62
     7
100
AcDbCircle
 10
1825.2182786804
 20
1257.0100645485
 30
0.0
 40
445.4785377983081
100
AcDbArc
 50
267.8476826355
 51
268.0822962346
  0
LINE
  5
171
330
1F
100
AcDbEntity
  8
0
  6
CONTINUOUS
 62
     7
100
AcDbLine
 10
1808.4878019318
 20
815.8053257445
 30
0.0
 11
1808.4878019318
 21
811.8458040932
 31
0.0
  0
ARC
  5
172
330
1F
100
AcDbEntity
  8
0
  6
CONTINUOUS
 62
     7
100
AcDbCircle
 10
1810.415765285
 20
815.2772832902
 30
0.0
 40
1.998967614713913
100
AcDbArc
 50
93.0103527003
 51
164.6830977202
  0
ARC
  5
173
330
1F
100
AcDbEntity
  8
0
  6
CONTINUOUS
 62
     7
100
AcDbCircle
 10
1810.415765285
 20
427.6543406414
 30
0.0
 40
1.998967614714209
100
AcDbArc
 50
195.3169022798
 51
266.9896472997
  0
LINE
  5
174
330
1F
100
AcDbEntity
  8
0
  6
CONTINUOUS
 62
     7
100
AcDbLine
 10
1808.4878019318
 20
431.0858198384
 30
0.0
 11
1808.4878019318
 21
427.1262981871
 31
0.0
  0
ARC
  5
175
330
1F
100
AcDbEntity
  8
0
  6
CONTINUOUS
 62
     7
100
AcDbCircle
 10
1825.2182786824
 20
-14.078440673
 30
0.0
 40
445.478537854422
100
AcDbArc
 50
91.9177037654
 51
92.1523173644
  0
LINE
  5
176
330
1F
100
AcDbEntity
  8
0
  6
CONTINUOUS
 62
     7
100
AcDbLine
 10
1810.2834058255
 20
810.1809569577
 30
0.0
 11
1808.4878019318
 21
810.1809569577
 31
0.0
  0
LINE
  5
177
330
1F
100
AcDbEntity
  8
0
  6
CONTINUOUS
 62
     7
100
AcDbLine
 10
1808.4878019318
 20
811.8458040932
 30
0.0
 11
1808.4878019318
 21
810.1809569577
 31
0.0
  0
LINE
  5
178
330
1F
100
AcDbEntity
  8
0
  6
CONTINUOUS
 62
     7
100
AcDbLine
 10
1808.4878019318
 20
432.7506669739
 30
0.0
 11
1808.4878019318
 21
431.0858198384
 31
0.0
  0
LINE
  5
179
330
1F
100
AcDbEntity
  8
0
  6
CONTINUOUS
 62
     7
100
AcDbLine
 10
1810.2834058255
 20
432.7506669739
 30
0.0
 11
1808.4878019318
 21
432.7506669739
 31
0.0
  0
LINE
  5
17A
330
1F
100
AcDbEntity
  8
0
  6
CONTINUOUS
 62
     7
100
AcDbLine
 10
1808.4878019318
 20
810.1809569577
 30
0.0
 11
1808.4878019318
 21
796.1505749205
 31
0.0
  0
LINE
  5
17B
330
1F
100
AcDbEntity
  8
0
  6
CONTINUOUS
 62
     7
100
AcDbLine
 10
1808.4878019318
 20
446.7810490111
 30
0.0
 11
1808.4878019318
 21
432.7506669739
 31
0.0
  0
LWPOLYLINE
  5
17C
330
1F
100
AcDbEntity
  8
0
  6
CONTINUOUS
 62
     7
100
AcDbPolyline
 90
        4
 70
   128
 43
0.0
 10
1808.4878019318
 20
446.7810490111
 10
1808.4666450769
 20
446.7821665982
 10
1808.4479646087
 20
446.7831351737
 10
1808.4317819477
 20
446.7839845399
  0
LINE
  5
17D
330
1F
100
AcDbEntity
  8
0
  6
CONTINUOUS
 62
     7
100
AcDbLine
 10
1808.4317819477
 20
446.7839845399
 30
0.0
 11
1808.4317819477
 21
796.1476393918
 31
0.0
  0
LINE
  5
17E
330
1F
100
AcDbEntity
  8
0
  6
CONTINUOUS
 62
     7
100
AcDbLine
 10
1808.4878019318
 20
796.1505749205
 30
0.0
 11
1808.4317819477
 21
796.1476393918
 31
0.0
  0
LINE
  5
17F
330
1F
100
AcDbEntity
  8
0
  6
CONTINUOUS
 62
     7
100
AcDbLine
 10
1806.0606123209
 20
796.0233637074
 30
0.0
 11
1806.0606123209
 21
446.9082602242
 31
0.0
  0
LINE
  5
180
330
1F
100
AcDbEntity
  8
0
  6
CONTINUOUS
 62
     7
100
AcDbLine
 10
1806.0606123209
 20
446.9082602242
 30
0.0
 11
1808.4317819477
 21
446.7839845399
 31
0.0
  0
LINE
  5
181
330
1F
100
AcDbEntity
  8
0
  6
CONTINUOUS
 62
     7
100
AcDbLine
 10
1808.4317819477
 20
796.1476393918
 30
0.0
 11
1806.0606123209
 21
796.0233637074
 31
0.0
  0
ARC
  5
182
330
1F
100
AcDbEntity
  8
0
  6
CONTINUOUS
 62
     7
100
AcDbCircle
 10
1810.3880773994
 20
815.2747926868
 30
0.0
 40
1.999999999999992
100
AcDbArc
 50
93.0
 51
161.8304520764
  0
LWPOLYLINE
  5
183
330
1F
100
AcDbEntity
  8
0
  6
CONTINUOUS
 62
     7
100
AcDbPolyline
 90
        3
 70
   128
 43
0.0
 10
1810.2834058255
 20
817.2720470408
 10
1810.2902519778
 20
817.2724046687
 10
1810.3107867092
 20
817.2734924534
  0
ARC
  5
184
330
1F
100
AcDbEntity
  8
0
  6
CONTINUOUS
 62
     7
100
AcDbCircle
 10
1810.3880773994
 20
427.6568312448
 30
0.0
 40
2.000000000000048
100
AcDbArc
 50
198.1695479236
 51
267.0
  0
LWPOLYLINE
  5
185
330
1F
100
AcDbEntity
  8
0
  6
CONTINUOUS
 62
     7
100
AcDbPolyline
 90
        3
 70
   128
 43
0.0
 10
1810.3107867092
 20
425.6581314782
 10
1810.2902519778
 20
425.6592192629
 10
1810.2834058255
 20
425.6595768908
  0
LINE
  5
186
330
1F
100
AcDbEntity
  8
0
  6
CONTINUOUS
 62
     7
100
AcDbLine
 10
1804.2089893744
 20
447.0052965859
 30
0.0
 11
1804.2089893744
 21
795.9263273457
 31
0.0
  0
LWPOLYLINE
  5
187
330
1F
100
AcDbEntity
  8
0
  6
CONTINUOUS
 62
     7
100
AcDbPolyline
 90
        8
 70
   128
 43
0.0
 10
1806.0606123209
 20
446.9082602242
 10
1805.9492009953
 20
446.9141014794
 10
1805.7734641508
 20
446.923310397
 10
1805.5395289585
 20
446.9355591515
 10
1805.2555519417
 20
446.9504454116
 10
1804.931434922
 20
446.9674327353
 10
1804.5784785674
 20
446.9859250764
 10
1804.2089893744
 20
447.0052965859
  0
LWPOLYLINE
  5
188
330
1F
100
AcDbEntity
  8
0
  6
CONTINUOUS
 62
     7
100
AcDbPolyline
 90
        8
 70
   128
 43
0.0
 10
1804.2089893744
 20
795.9263273457
 10
1804.5784785674
 20
795.9456988553
 10
1804.931434922
 20
795.9641911963
 10
1805.2555519417
 20
795.9811785201
 10
1805.5395289585
 20
795.9960647801
 10
1805.7734641508
 20
796.0083135346
 10
1805.9492009953
 20
796.0175224522
 10
1806.0606123209
 20
796.0233637074
  0
LINE
  5
189
330
1F
100
AcDbEntity
  8
0
  6
CONTINUOUS
 62
     7
100
AcDbLine
 10
1808.4878019318
 20
796.9354786852
 30
0.0
 11
1786.2487995327
 21
795.7699843625
 31
0.0
  0
LINE
  5
18A
330
1F
100
AcDbEntity
  8
0
  6
CONTINUOUS
 62
     7
100
AcDbLine
 10
1786.2487995327
 20
796.8320646266
 30
0.0
 11
1786.2487995327
 21
795.7699843625
 31
0.0
  0
LINE
  5
18B
330
1F
100
AcDbEntity
  8
0
  6
CONTINUOUS
 62
     7
100
AcDbLine
 10
1786.2487995327
 20
801.158780692
 30
0.0
 11
1786.2487995327
 21
796.8320646266
 31
0.0
  0
LINE
  5
18C
330
1F
100
AcDbEntity
  8
0
  6
CONTINUOUS
 62
     7
100
AcDbLine
 10
1786.2487995327
 20
801.2624480704
 30
0.0
 11
1786.2487995327
 21
801.158780692
 31
0.0
  0
LINE
  5
18D
330
1F
100
AcDbEntity
  8
0
  6
CONTINUOUS
 62
     7
100
AcDbLine
 10
1786.2487995327
 20
801.2624480704
 30
0.0
 11
1808.4878019318
 21
802.4279423932
 31
0.0
  0
LINE
  5
18E
330
1F
100
AcDbEntity
  8
0
  6
CONTINUOUS
 62
     7
100
AcDbLine
 10
1786.2487995327
 20
447.1616395692
 30
0.0
 11
1808.4878019318
 21
445.9961452464
 31
0.0
  0
LINE
  5
18F
330
1F
100
AcDbEntity
  8
0
  6
CONTINUOUS
 62
     7
100
AcDbLine
 10
1808.4878019318
 20
440.5036815385
 30
0.0
 11
1786.2487995327
 21
441.6691758612
 31
0.0
  0
LINE
  5
190
330
1F
100
AcDbEntity
  8
0
  6
CONTINUOUS
 62
     7
100
AcDbLine
 10
1786.2487995327
 20
441.7728432397
 30
0.0
 11
1786.2487995327
 21
441.6691758612
 31
0.0
  0
LINE
  5
191
330
1F
100
AcDbEntity
  8
0
  6
CONTINUOUS
 62
     7
100
AcDbLine
 10
1786.2487995327
 20
446.0995593051
 30
0.0
 11
1786.2487995327
 21
441.7728432397
 31
0.0
  0
LINE
  5
192
330
1F
100
AcDbEntity
  8
0
  6
CONTINUOUS
 62
     7
100
AcDbLine
 10
1786.2487995327
 20
447.1616395692
 30
0.0
 11
1786.2487995327
 21
446.0995593051
 31
0.0
  0
LINE
  5
193
330
1F
100
AcDbEntity
  8
0
  6
CONTINUOUS
 62
     7
100
AcDbLine
 10
1786.2487995327
 20
795.7699843625
 30
0.0
 11
1786.2487995327
 21
447.1616395692
 31
0.0
  0
LINE
  5
194
330
1F
100
AcDbEntity
  8
0
  6
CONTINUOUS
 62
     7
100
AcDbLine
 10
1784.7508528531
 20
795.7699843625
 30
0.0
 11
1784.7508528531
 21
799.5988228301
 31
0.0
  0
LINE
  5
195
330
1F
100
AcDbEntity
  8
0
  6
CONTINUOUS
 62
     7
100
AcDbLine
 10
1784.7508528531
 20
799.5988228301
 30
0.0
 11
1786.2487995327
 21
801.2624480704
 31
0.0
  0
LINE
  5
196
330
1F
100
AcDbEntity
  8
0
  6
CONTINUOUS
 62
     7
100
AcDbLine
 10
1784.7508528531
 20
795.7699843625
 30
0.0
 11
1786.2487995327
 21
795.7699843625
 31
0.0
  0
LINE
  5
197
330
1F
100
AcDbEntity
  8
0
  6
CONTINUOUS
 62
     7
100
AcDbLine
 10
1784.7508528531
 20
443.3328011016
 30
0.0
 11
1784.7508528531
 21
447.1616395692
 31
0.0
  0
LINE
  5
198
330
1F
100
AcDbEntity
  8
0
  6
CONTINUOUS
 62
     7
100
AcDbLine
 10
1784.7508528531
 20
447.1616395692
 30
0.0
 11
1786.2487995327
 21
447.1616395692
 31
0.0
  0
LINE
  5
199
330
1F
100
AcDbEntity
  8
0
  6
CONTINUOUS
 62
     7
100
AcDbLine
 10
1786.2487995327
 20
441.6691758612
 30
0.0
 11
1784.7508528531
 21
443.3328011016
 31
0.0
  0
LINE
  5
19A
330
1F
100
AcDbEntity
  8
0
  6
CONTINUOUS
 62
     7
100
AcDbLine
 10
1784.7508528531
 20
447.1616395692
 30
0.0
 11
1784.7508528531
 21
795.7699843625
 31
0.0
  0
LINE
  5
19B
330
1F
100
AcDbEntity
  8
0
  6
CONTINUOUS
 62
     7
100
AcDbLine
 10
1808.4317819477
 20
427.241007326
 30
0.0
 11
1805.899399452
 21
439.1549327353
 31
0.0
  0
ARC
  5
19C
330
1F
100
AcDbEntity
  8
0
  6
CONTINUOUS
 62
     7
100
AcDbCircle
 10
1803.9431042517
 20
438.739108591
 30
0.0
 40
1.999999999999992
100
AcDbArc
 50
12.0
 51
87.0
  0
ARC
  5
19D
330
1F
100
AcDbEntity
  8
0
  6
CONTINUOUS
 62
     7
100
AcDbCircle
 10
1803.9431042517
 20
804.1925153406
 30
0.0
 40
2.000000000000016
100
AcDbArc
 50
273.0
 51
348.0
  0
LINE
  5
19E
330
1F
100
AcDbEntity
  8
0
  6
CONTINUOUS
 62
     7
100
AcDbLine
 10
1805.899399452
 20
803.7766911963
 30
0.0
 11
1808.4317819477
 21
815.6906166056
 31
0.0
  0
LINE
  5
19F
330
1F
100
AcDbEntity
  8
0
  6
CONTINUOUS
 62
     7
100
AcDbLine
 10
1316.1186031015
 20
974.0884619184
 30
0.0
 11
1321.6110668094
 21
974.0884619184
 31
0.0
  0
LINE
  5
1A0
330
1F
100
AcDbEntity
  8
0
  6
CONTINUOUS
 62
     7
100
AcDbLine
 10
1321.6110668094
 20
974.0884619184
 30
0.0
 11
1322.4726519496
 21
957.6483935468
 31
0.0
  0
LWPOLYLINE
  5
1A1
330
1F
100
AcDbEntity
  8
0
  6
CONTINUOUS
 62
     7
100
AcDbPolyline
 90
        6
 70
   128
 43
0.0
 10
1316.9801882417
 20
957.6483935468
 10
1317.2869286449
 20
957.6431492694
 10
1318.1745908172
 20
957.633952459
 10
1319.5449165017
 20
957.6361168527
 10
1321.2439767034
 20
957.6464722284
 10
1322.4726519496
 20
957.6483935468
  0
LINE
  5
1A2
330
1F
100
AcDbEntity
  8
0
  6
CONTINUOUS
 62
     7
100
AcDbLine
 10
1316.9801882417
 20
957.6483935468
 30
0.0
 11
1316.1186031015
 21
974.0884619184
 31
0.0
  0
LINE
  5
1A3
330
1F
100
AcDbEntity
  8
0
  6
CONTINUOUS
 62
     7
100
AcDbLine
 10
1654.9571207673
 20
974.0884619184
 30
0.0
 11
1654.0955356271
 21
957.6483935468
 31
0.0
  0
ARC
  5
1A4
330
1F
100
AcDbEntity
  8
0
  6
CONTINUOUS
 62
     7
100
AcDbCircle
 10
1651.3493037731
 20
1287.3760698413
 30
0.0
 40
329.7391124872883
100
AcDbArc
 50
269.5228066434
 51
270.4771933566
  0
LINE
  5
1A5
330
1F
100
AcDbEntity
  8
0
  6
CONTINUOUS
 62
     7
100
AcDbLine
 10
1648.6030719192
 20
957.6483935468
 30
0.0
 11
1649.4646570594
 21
974.0884619184
 31
0.0
  0
LINE
  5
1A6
330
1F
100
AcDbEntity
  8
0
  6
CONTINUOUS
 62
     7
100
AcDbLine
 10
1649.4646570594
 20
974.0884619184
 30
0.0
 11
1654.9571207673
 21
974.0884619184
 31
0.0
  0
ELLIPSE
  5
1A7
330
1F
100
AcDbEntity
  8
0
  6
CONTINUOUS
 62
     7
100
AcDbEllipse
 10
1317.6514180759
 20
982.9505178989
 30
0.0
 11
34.30586911032128
 21
-9.042354694321828
 31
0.0
210
0.0
220
0.0
230
1.0
 40
0.6896927366
 41
5.030929597768994
 42
5.077431479128943
  0
ELLIPSE
  5
1A8
330
1F
100
AcDbEntity
  8
0
  6
CONTINUOUS
 62
     7
100
AcDbEllipse
 10
1653.4243057929
 20
982.9505178989
 30
0.0
 11
34.30586911032128
 21
9.042354694321602
 31
0.0
210
0.0
220
0.0
230
1.0
 40
0.6896927366
 41
4.34734648164047
 42
4.39384836300042
  0
LINE
  5
1A9
330
1F
100
AcDbEntity
  8
0
  6
CONTINUOUS
 62
     7
100
AcDbLine
 10
1324.0727237375
 20
957.6210126632
 30
0.0
 11
1647.0030001314
 21
957.6210126632
 31
0.0
  0
LINE
  5
1AA
330
1F
100
AcDbEntity
  8
0
  6
CONTINUOUS
 62
     7
100
AcDbLine
 10
1321.6110668094
 20
974.0884619184
 30
0.0
 11
1649.4646570594
 21
974.0884619184
 31
0.0
  0
ARC
  5
1AB
330
1F
100
AcDbEntity
  8
0
  6
CONTINUOUS
 62
     7
100
AcDbCircle
 10
1652.0993415263
 20
957.7533599919
 30
0.0
 40
1.998951936076264
100
AcDbArc
 50
285.316577731
 51
356.9899718484
  0
LINE
  5
1AC
330
1F
100
AcDbEntity
  8
0
  6
CONTINUOUS
 62
     7
100
AcDbLine
 10
1648.6678472669
 20
955.8254087695
 30
0.0
 11
1652.6273689182
 21
955.8254087695
 31
0.0
  0
ARC
  5
1AD
330
1F
100
AcDbEntity
  8
0
  6
CONTINUOUS
 62
     7
100
AcDbCircle
 10
2093.8321077816
 20
972.55588552
 30
0.0
 40
445.478537857803
100
AcDbArc
 50
181.9177037654
 51
182.1523173644
  0
ARC
  5
1AE
330
1F
100
AcDbEntity
  8
0
  6
CONTINUOUS
 62
     7
100
AcDbCircle
 10
877.2436161937
 20
972.5558855163
 30
0.0
 40
445.4785377511897
100
AcDbArc
 50
357.8476826355
 51
358.0822962346
  0
LINE
  5
1AF
330
1F
100
AcDbEntity
  8
0
  6
CONTINUOUS
 62
     7
100
AcDbLine
 10
1318.4483549507
 20
955.8254087695
 30
0.0
 11
1322.4078766019
 21
955.8254087695
 31
0.0
  0
ARC
  5
1B0
330
1F
100
AcDbEntity
  8
0
  6
CONTINUOUS
 62
     7
100
AcDbCircle
 10
1318.9763823425
 20
957.7533599919
 30
0.0
 40
1.998951936076264
100
AcDbArc
 50
183.0100281516
 51
254.683422269
  0
LINE
  5
1B1
330
1F
100
AcDbEntity
  8
0
  6
CONTINUOUS
 62
     7
100
AcDbLine
 10
1647.0030001314
 20
955.8254087695
 30
0.0
 11
1648.6678472669
 21
955.8254087695
 31
0.0
  0
LINE
  5
1B2
330
1F
100
AcDbEntity
  8
0
  6
CONTINUOUS
 62
     7
100
AcDbLine
 10
1647.0030001314
 20
957.6210126632
 30
0.0
 11
1647.0030001314
 21
955.8254087695
 31
0.0
  0
LINE
  5
1B3
330
1F
100
AcDbEntity
  8
0
  6
CONTINUOUS
 62
     7
100
AcDbLine
 10
1324.0727237375
 20
957.6210126632
 30
0.0
 11
1324.0727237375
 21
955.8254087695
 31
0.0
  0
LINE
  5
1B4
330
1F
100
AcDbEntity
  8
0
  6
CONTINUOUS
 62
     7
100
AcDbLine
 10
1322.4078766019
 20
955.8254087695
 30
0.0
 11
1324.0727237375
 21
955.8254087695
 31
0.0
  0
LINE
  5
1B5
330
1F
100
AcDbEntity
  8
0
  6
CONTINUOUS
 62
     7
100
AcDbLine
 10
1324.0727237375
 20
955.8254087695
 30
0.0
 11
1337.3531005294
 21
955.8254087695
 31
0.0
  0
LINE
  5
1B6
330
1F
100
AcDbEntity
  8
0
  6
CONTINUOUS
 62
     7
100
AcDbLine
 10
1633.7226233394
 20
955.8254087695
 30
0.0
 11
1647.0030001314
 21
955.8254087695
 31
0.0
  0
LWPOLYLINE
  5
1B7
330
1F
100
AcDbEntity
  8
0
  6
CONTINUOUS
 62
     7
100
AcDbPolyline
 90
        4
 70
   128
 43
0.0
 10
1633.7226233394
 20
955.8254087695
 10
1633.7215057523
 20
955.8042519145
 10
1633.7205371768
 20
955.7855714463
 10
1633.7196878106
 20
955.7693887853
  0
LINE
  5
1B8
330
1F
100
AcDbEntity
  8
0
  6
CONTINUOUS
 62
     7
100
AcDbLine
 10
1633.7196878106
 20
955.7693887853
 30
0.0
 11
1337.3560360582
 21
955.7693887853
 31
0.0
  0
LINE
  5
1B9
330
1F
100
AcDbEntity
  8
0
  6
CONTINUOUS
 62
     7
100
AcDbLine
 10
1337.3531005294
 20
955.8254087695
 30
0.0
 11
1337.3560360582
 21
955.7693887853
 31
0.0
  0
LINE
  5
1BA
330
1F
100
AcDbEntity
  8
0
  6
CONTINUOUS
 62
     7
100
AcDbLine
 10
1337.4887607009
 20
953.2370062896
 30
0.0
 11
1633.5869631679
 21
953.2370062896
 31
0.0
  0
LINE
  5
1BB
330
1F
100
AcDbEntity
  8
0
  6
CONTINUOUS
 62
     7
100
AcDbLine
 10
1337.3560360582
 20
955.7693887853
 30
0.0
 11
1337.4887607009
 21
953.2370062896
 31
0.0
  0
LINE
  5
1BC
330
1F
100
AcDbEntity
  8
0
  6
CONTINUOUS
 62
     7
100
AcDbLine
 10
1633.5869631679
 20
953.2370062896
 30
0.0
 11
1633.7196878106
 21
955.7693887853
 31
0.0
  0
ARC
  5
1BD
330
1F
100
AcDbEntity
  8
0
  6
CONTINUOUS
 62
     7
100
AcDbCircle
 10
1318.9788812134
 20
957.725684237
 30
0.0
 40
1.999999999999994
100
AcDbArc
 50
183.0
 51
251.8304520764
  0
LWPOLYLINE
  5
1BE
330
1F
100
AcDbEntity
  8
0
  6
CONTINUOUS
 62
     7
100
AcDbPolyline
 90
        3
 70
   128
 43
0.0
 10
1316.9816187532
 20
957.6210126632
 10
1316.9812611253
 20
957.6278588154
 10
1316.9801882417
 20
957.6483935468
  0
ARC
  5
1BF
330
1F
100
AcDbEntity
  8
0
  6
CONTINUOUS
 62
     7
100
AcDbCircle
 10
1652.0968426554
 20
957.725684237
 30
0.0
 40
2.000000000000105
100
AcDbArc
 50
288.1695479236
 51
357.0
  0
LWPOLYLINE
  5
1C0
330
1F
100
AcDbEntity
  8
0
  6
CONTINUOUS
 62
     7
100
AcDbPolyline
 90
        3
 70
   128
 43
0.0
 10
1654.0955356271
 20
957.6483935468
 10
1654.0944627435
 20
957.6278588154
 10
1654.0941051156
 20
957.6210126632
  0
LINE
  5
1C1
330
1F
100
AcDbEntity
  8
0
  6
CONTINUOUS
 62
     7
100
AcDbLine
 10
1633.4899268062
 20
951.385383343
 30
0.0
 11
1337.5857970626
 21
951.385383343
 31
0.0
  0
LWPOLYLINE
  5
1C2
330
1F
100
AcDbEntity
  8
0
  6
CONTINUOUS
 62
     7
100
AcDbPolyline
 90
        8
 70
   128
 43
0.0
 10
1337.5857970626
 20
951.385383343
 10
1337.5664255531
 20
951.7548716046
 10
1337.547933212
 20
952.1078279593
 10
1337.5309458883
 20
952.431944979
 10
1337.5160596282
 20
952.7159219958
 10
1337.5038108737
 20
952.9498571881
 10
1337.494587055
 20
953.1255949639
 10
1337.4887607009
 20
953.2370062896
  0
LWPOLYLINE
  5
1C3
330
1F
100
AcDbEntity
  8
0
  6
CONTINUOUS
 62
     7
100
AcDbPolyline
 90
        8
 70
   128
 43
0.0
 10
1633.5869631679
 20
953.2370062896
 10
1633.5811368139
 20
953.1255949639
 10
1633.5719129951
 20
952.9498571881
 10
1633.5596642406
 20
952.7159219958
 10
1633.5447779806
 20
952.431944979
 10
1633.5277906568
 20
952.1078279593
 10
1633.5092983158
 20
951.7548716046
 10
1633.4899268062
 20
951.385383343
  0
LINE
  5
1C4
330
1F
100
AcDbEntity
  8
0
  6
CONTINUOUS
 62
     7
100
AcDbLine
 10
1336.5681818635
 20
955.8254087695
 30
0.0
 11
1337.7336910875
 21
933.5864063703
 31
0.0
  0
LINE
  5
1C5
330
1F
100
AcDbEntity
  8
0
  6
CONTINUOUS
 62
     7
100
AcDbLine
 10
1336.6716108234
 20
933.5864063703
 30
0.0
 11
1337.7336910875
 21
933.5864063703
 31
0.0
  0
LINE
  5
1C6
330
1F
100
AcDbEntity
  8
0
  6
CONTINUOUS
 62
     7
100
AcDbLine
 10
1332.3448798568
 20
933.5864063703
 30
0.0
 11
1336.6716108234
 21
933.5864063703
 31
0.0
  0
LINE
  5
1C7
330
1F
100
AcDbEntity
  8
0
  6
CONTINUOUS
 62
     7
100
AcDbLine
 10
1332.2412273795
 20
933.5864063703
 30
0.0
 11
1332.3448798568
 21
933.5864063703
 31
0.0
  0
LINE
  5
1C8
330
1F
100
AcDbEntity
  8
0
  6
CONTINUOUS
 62
     7
100
AcDbLine
 10
1332.2412273795
 20
933.5864063703
 30
0.0
 11
1331.0757330568
 21
955.8254087695
 31
0.0
  0
LINE
  5
1C9
330
1F
100
AcDbEntity
  8
0
  6
CONTINUOUS
 62
     7
100
AcDbLine
 10
1639.9999908121
 20
955.8254087695
 30
0.0
 11
1638.8344964893
 21
933.5864063703
 31
0.0
  0
LINE
  5
1CA
330
1F
100
AcDbEntity
  8
0
  6
CONTINUOUS
 62
     7
100
AcDbLine
 10
1638.730844012
 20
933.5864063703
 30
0.0
 11
1638.8344964893
 21
933.5864063703
 31
0.0
  0
LINE
  5
1CB
330
1F
100
AcDbEntity
  8
0
  6
CONTINUOUS
 62
     7
100
AcDbLine
 10
1634.4041130454
 20
933.5864063703
 30
0.0
 11
1638.730844012
 21
933.5864063703
 31
0.0
  0
LINE
  5
1CC
330
1F
100
AcDbEntity
  8
0
  6
CONTINUOUS
 62
     7
100
AcDbLine
 10
1633.3420327814
 20
933.5864063703
 30
0.0
 11
1634.4041130454
 21
933.5864063703
 31
0.0
  0
LINE
  5
1CD
330
1F
100
AcDbEntity
  8
0
  6
CONTINUOUS
 62
     7
100
AcDbLine
 10
1633.3420327814
 20
933.5864063703
 30
0.0
 11
1634.5075420053
 21
955.8254087695
 31
0.0
  0
LINE
  5
1CE
330
1F
100
AcDbEntity
  8
0
  6
CONTINUOUS
 62
     7
100
AcDbLine
 10
1337.7336910875
 20
933.5864063703
 30
0.0
 11
1633.3420327814
 21
933.5864063703
 31
0.0
  0
LINE
  5
1CF
330
1F
100
AcDbEntity
  8
0
  6
CONTINUOUS
 62
     7
100
AcDbLine
 10
1337.7336910875
 20
932.0884596907
 30
0.0
 11
1333.9048526199
 21
932.0884596907
 31
0.0
  0
LINE
  5
1D0
330
1F
100
AcDbEntity
  8
0
  6
CONTINUOUS
 62
     7
100
AcDbLine
 10
1332.2412273795
 20
933.5864063703
 30
0.0
 11
1333.9048526199
 21
932.0884596907
 31
0.0
  0
LINE
  5
1D1
330
1F
100
AcDbEntity
  8
0
  6
CONTINUOUS
 62
     7
100
AcDbLine
 10
1337.7336910875
 20
932.0884596907
 30
0.0
 11
1337.7336910875
 21
933.5864063703
 31
0.0
  0
LINE
  5
1D2
330
1F
100
AcDbEntity
  8
0
  6
CONTINUOUS
 62
     7
100
AcDbLine
 10
1637.1708712489
 20
932.0884596907
 30
0.0
 11
1633.3420327814
 21
932.0884596907
 31
0.0
  0
LINE
  5
1D3
330
1F
100
AcDbEntity
  8
0
  6
CONTINUOUS
 62
     7
100
AcDbLine
 10
1633.3420327814
 20
932.0884596907
 30
0.0
 11
1633.3420327814
 21
933.5864063703
 31
0.0
  0
LINE
  5
1D4
330
1F
100
AcDbEntity
  8
0
  6
CONTINUOUS
 62
     7
100
AcDbLine
 10
1637.1708712489
 20
932.0884596907
 30
0.0
 11
1638.8344964893
 21
933.5864063703
 31
0.0
  0
LINE
  5
1D5
330
1F
100
AcDbEntity
  8
0
  6
CONTINUOUS
 62
     7
100
AcDbLine
 10
1633.3420327814
 20
932.0884596907
 30
0.0
 11
1337.7336910875
 21
932.0884596907
 31
0.0
  0
LINE
  5
1D6
330
1F
100
AcDbEntity
  8
0
  6
CONTINUOUS
 62
     7
100
AcDbLine
 10
1652.5126597793
 20
955.7693887853
 30
0.0
 11
1641.3571885736
 21
953.3982191586
 31
0.0
  0
ARC
  5
1D7
330
1F
100
AcDbEntity
  8
0
  6
CONTINUOUS
 62
     7
100
AcDbCircle
 10
1641.7730141389
 20
951.4419243648
 30
0.0
 40
2.000000000000151
100
AcDbArc
 50
102.0
 51
177.0
  0
ARC
  5
1D8
330
1F
100
AcDbEntity
  8
0
  6
CONTINUOUS
 62
     7
100
AcDbCircle
 10
1329.3027097299
 20
951.4419243648
 30
0.0
 40
2.000000000000111
100
AcDbArc
 50
3.0
 51
78.0
  0
LINE
  5
1D9
330
1F
100
AcDbEntity
  8
0
  6
CONTINUOUS
 62
     7
100
AcDbLine
 10
1329.7185352952
 20
953.3982191586
 30
0.0
 11
1318.5630640895
 21
955.7693887853
 31
0.0
  0
LINE
  5
1DA
330
1F
100
AcDbEntity
  8
0
  6
CONTINUOUS
 62
     7
100
AcDbLine
 10
1316.8723038347
 20
959.7069624231
 30
0.0
 11
1310.9639934213
 21
965.7681792394
 31
0.0
  0
CIRCLE
  5
1DB
330
1F
100
AcDbEntity
  8
0
  6
CONTINUOUS
 62
     7
100
AcDbCircle
 10
1314.4727903612
 20
969.1884615385
 30
0.0
 40
1.900000000000174
  0
ARC
  5
1DC
330
1F
100
AcDbEntity
  8
0
  6
CONTINUOUS
 62
     7
100
AcDbCircle
 10
1314.4727903612
 20
969.1884615385
 30
0.0
 40
4.899999999999977
100
AcDbArc
 50
70.1851127773
 51
224.268107196
  0
LINE
  5
1DD
330
1F
100
AcDbEntity
  8
0
  6
CONTINUOUS
 62
     7
100
AcDbLine
 10
1654.9571207673
 20
272.9115380816
 30
0.0
 11
1649.4646570594
 21
272.9115380816
 31
0.0
  0
LINE
  5
1DE
330
1F
100
AcDbEntity
  8
0
  6
CONTINUOUS
 62
     7
100
AcDbLine
 10
1649.4646570594
 20
272.9115380816
 30
0.0
 11
1648.6030719192
 21
289.3516064532
 31
0.0
  0
LWPOLYLINE
  5
1DF
330
1F
100
AcDbEntity
  8
0
  6
CONTINUOUS
 62
     7
100
AcDbPolyline
 90
        6
 70
   128
 43
0.0
 10
1654.0955356271
 20
289.3516064532
 10
1653.7887952239
 20
289.3568507306
 10
1652.9011330516
 20
289.366047541
 10
1651.5308073671
 20
289.3638831473
 10
1649.8317471654
 20
289.3535277716
 10
1648.6030719192
 20
289.3516064532
  0
LINE
  5
1E0
330
1F
100
AcDbEntity
  8
0
  6
CONTINUOUS
 62
     7
100
AcDbLine
 10
1654.0955356271
 20
289.3516064532
 30
0.0
 11
1654.9571207673
 21
272.9115380816
 31
0.0
  0
LINE
  5
1E1
330
1F
100
AcDbEntity
  8
0
  6
CONTINUOUS
 62
     7
100
AcDbLine
 10
1316.1186031015
 20
272.9115380816
 30
0.0
 11
1316.9801882417
 21
289.3516064532
 31
0.0
  0
ARC
  5
1E2
330
1F
100
AcDbEntity
  8
0
  6
CONTINUOUS
 62
     7
100
AcDbCircle
 10
1319.7264200957
 20
-40.3760698452
 30
0.0
 40
329.7391124912602
100
AcDbArc
 50
89.5228066434
 51
90.4771933566
  0
LINE
  5
1E3
330
1F
100
AcDbEntity
  8
0
  6
CONTINUOUS
 62
     7
100
AcDbLine
 10
1322.4726519496
 20
289.3516064532
 30
0.0
 11
1321.6110668094
 21
272.9115380816
 31
0.0
  0
LINE
  5
1E4
330
1F
100
AcDbEntity
  8
0
  6
CONTINUOUS
 62
     7
100
AcDbLine
 10
1321.6110668094
 20
272.9115380816
 30
0.0
 11
1316.1186031015
 21
272.9115380816
 31
0.0
  0
ELLIPSE
  5
1E5
330
1F
100
AcDbEntity
  8
0
  6
CONTINUOUS
 62
     7
100
AcDbEllipse
 10
1317.6514180759
 20
264.0494821011
 30
0.0
 11
34.30586911032129
 21
9.042354694321661
 31
0.0
210
0.0
220
0.0
230
1.0
 40
0.6896927366
 41
1.205753828050656
 42
1.252255709410606
  0
LINE
  5
1E6
330
1F
100
AcDbEntity
  8
0
  6
CONTINUOUS
 62
     7
100
AcDbLine
 10
1647.0030001314
 20
289.3789873368
 30
0.0
 11
1324.0727237375
 21
289.3789873368
 31
0.0
  0
ELLIPSE
  5
1E7
330
1F
100
AcDbEntity
  8
0
  6
CONTINUOUS
 62
     7
100
AcDbEllipse
 10
1653.4243057929
 20
264.0494821011
 30
0.0
 11
34.30586911032128
 21
-9.042354694321689
 31
0.0
210
0.0
220
0.0
230
1.0
 40
0.6896927366
 41
1.889336944179182
 42
1.935838825539131
  0
LINE
  5
1E8
330
1F
100
AcDbEntity
  8
0
  6
CONTINUOUS
 62
     7
100
AcDbLine
 10
1649.4646570594
 20
272.9115380816
 30
0.0
 11
1321.6110668094
 21
272.9115380816
 31
0.0
  0
ARC
  5
1E9
330
1F
100
AcDbEntity
  8
0
  6
CONTINUOUS
 62
     7
100
AcDbCircle
 10
1318.9763823425
 20
289.2466400081
 30
0.0
 40
1.998951936076786
100
AcDbArc
 50
105.3165777311
 51
176.9899718484
  0
LINE
  5
1EA
330
1F
100
AcDbEntity
  8
0
  6
CONTINUOUS
 62
     7
100
AcDbLine
 10
1322.4078766019
 20
291.1745912305
 30
0.0
 11
1318.4483549507
 21
291.1745912305
 31
0.0
  0
ARC
  5
1EB
330
1F
100
AcDbEntity
  8
0
  6
CONTINUOUS
 62
     7
100
AcDbCircle
 10
877.2436161928
 20
274.4441144837
 30
0.0
 40
445.4785377521179
100
AcDbArc
 50
1.9177037654
 51
2.1523173645
  0
ARC
  5
1EC
330
1F
100
AcDbEntity
  8
0
  6
CONTINUOUS
 62
     7
100
AcDbCircle
 10
2093.8321077838
 20
274.4441144799
 30
0.0
 40
445.4785378599279
100
AcDbArc
 50
177.8476826356
 51
178.0822962346
  0
LINE
  5
1ED
330
1F
100
AcDbEntity
  8
0
  6
CONTINUOUS
 62
     7
100
AcDbLine
 10
1652.6273689182
 20
291.1745912305
 30
0.0
 11
1648.6678472669
 21
291.1745912305
 31
0.0
  0
ARC
  5
1EE
330
1F
100
AcDbEntity
  8
0
  6
CONTINUOUS
 62
     7
100
AcDbCircle
 10
1652.0993415263
 20
289.2466400081
 30
0.0
 40
1.998951936076721
100
AcDbArc
 50
3.0100281516
 51
74.683422269
  0
LINE
  5
1EF
330
1F
100
AcDbEntity
  8
0
  6
CONTINUOUS
 62
     7
100
AcDbLine
 10
1324.0727237375
 20
291.1745912305
 30
0.0
 11
1322.4078766019
 21
291.1745912305
 31
0.0
  0
LINE
  5
1F0
330
1F
100
AcDbEntity
  8
0
  6
CONTINUOUS
 62
     7
100
AcDbLine
 10
1324.0727237375
 20
291.1745912305
 30
0.0
 11
1324.0727237375
 21
289.3789873368
 31
0.0
  0
LINE
  5
1F1
330
1F
100
AcDbEntity
  8
0
  6
CONTINUOUS
 62
     7
100
AcDbLine
 10
1647.0030001314
 20
291.1745912305
 30
0.0
 11
1647.0030001314
 21
289.3789873368
 31
0.0
  0
LINE
  5
1F2
330
1F
100
AcDbEntity
  8
0
  6
CONTINUOUS
 62
     7
100
AcDbLine
 10
1648.6678472669
 20
291.1745912305
 30
0.0
 11
1647.0030001314
 21
291.1745912305
 31
0.0
  0
LINE
  5
1F3
330
1F
100
AcDbEntity
  8
0
  6
CONTINUOUS
 62
     7
100
AcDbLine
 10
1337.3560360582
 20
291.2306112147
 30
0.0
 11
1633.7196878106
 21
291.2306112147
 31
0.0
  0
LINE
  5
1F4
330
1F
100
AcDbEntity
  8
0
  6
CONTINUOUS
 62
     7
100
AcDbLine
 10
1633.7226233394
 20
291.1745912305
 30
0.0
 11
1633.7196878106
 21
291.2306112147
 31
0.0
  0
LINE
  5
1F5
330
1F
100
AcDbEntity
  8
0
  6
CONTINUOUS
 62
     7
100
AcDbLine
 10
1647.0030001314
 20
291.1745912305
 30
0.0
 11
1633.7226233394
 21
291.1745912305
 31
0.0
  0
LINE
  5
1F6
330
1F
100
AcDbEntity
  8
0
  6
CONTINUOUS
 62
     7
100
AcDbLine
 10
1337.3531005294
 20
291.1745912305
 30
0.0
 11
1324.0727237375
 21
291.1745912305
 31
0.0
  0
LWPOLYLINE
  5
1F7
330
1F
100
AcDbEntity
  8
0
  6
CONTINUOUS
 62
     7
100
AcDbPolyline
 90
        4
 70
   128
 43
0.0
 10
1337.3531005294
 20
291.1745912305
 10
1337.3542181165
 20
291.1957480855
 10
1337.355186692
 20
291.2144285537
 10
1337.3560360582
 20
291.2306112147
  0
LINE
  5
1F8
330
1F
100
AcDbEntity
  8
0
  6
CONTINUOUS
 62
     7
100
AcDbLine
 10
1633.5869631679
 20
293.7629937104
 30
0.0
 11
1337.4887607009
 21
293.7629937104
 31
0.0
  0
LINE
  5
1F9
330
1F
100
AcDbEntity
  8
0
  6
CONTINUOUS
 62
     7
100
AcDbLine
 10
1633.7196878106
 20
291.2306112147
 30
0.0
 11
1633.5869631679
 21
293.7629937104
 31
0.0
  0
LINE
  5
1FA
330
1F
100
AcDbEntity
  8
0
  6
CONTINUOUS
 62
     7
100
AcDbLine
 10
1337.4887607009
 20
293.7629937104
 30
0.0
 11
1337.3560360582
 21
291.2306112147
 31
0.0
  0
ARC
  5
1FB
330
1F
100
AcDbEntity
  8
0
  6
CONTINUOUS
 62
     7
100
AcDbCircle
 10
1318.9788812134
 20
289.274315763
 30
0.0
 40
2.000000000000108
100
AcDbArc
 50
108.1695479236
 51
177.0
  0
LWPOLYLINE
  5
1FC
330
1F
100
AcDbEntity
  8
0
  6
CONTINUOUS
 62
     7
100
AcDbPolyline
 90
        3
 70
   128
 43
0.0
 10
1316.9801882417
 20
289.3516064532
 10
1316.9812611253
 20
289.3721411846
 10
1316.9816187532
 20
289.3789873368
  0
ARC
  5
1FD
330
1F
100
AcDbEntity
  8
0
  6
CONTINUOUS
 62
     7
100
AcDbCircle
 10
1652.0968426554
 20
289.274315763
 30
0.0
 40
1.99999999999994
100
AcDbArc
 50
3.0
 51
71.8304520764
  0
LWPOLYLINE
  5
1FE
330
1F
100
AcDbEntity
  8
0
  6
CONTINUOUS
 62
     7
100
AcDbPolyline
 90
        3
 70
   128
 43
0.0
 10
1654.0941051156
 20
289.3789873368
 10
1654.0944627435
 20
289.3721411846
 10
1654.0955356271
 20
289.3516064532
  0
LINE
  5
1FF
330
1F
100
AcDbEntity
  8
0
  6
CONTINUOUS
 62
     7
100
AcDbLine
 10
1337.5857970626
 20
295.614616657
 30
0.0
 11
1633.4899268062
 21
295.614616657
 31
0.0
  0
LWPOLYLINE
  5
200
330
1F
100
AcDbEntity
  8
0
  6
CONTINUOUS
 62
     7
100
AcDbPolyline
 90
        8
 70
   128
 43
0.0
 10
1633.4899268062
 20
295.614616657
 10
1633.5092983158
 20
295.2451283954
 10
1633.5277906568
 20
294.8921720407
 10
1633.5447779806
 20
294.568055021
 10
1633.5596642406
 20
294.2840780042
 10
1633.5719129951
 20
294.0501428119
 10
1633.5811368139
 20
293.8744050361
 10
1633.5869631679
 20
293.7629937104
  0
LWPOLYLINE
  5
201
330
1F
100
AcDbEntity
  8
0
  6
CONTINUOUS
 62
     7
100
AcDbPolyline
 90
        8
 70
   128
 43
0.0
 10
1337.4887607009
 20
293.7629937104
 10
1337.494587055
 20
293.8744050361
 10
1337.5038108737
 20
294.0501428119
 10
1337.5160596282
 20
294.2840780042
 10
1337.5309458883
 20
294.568055021
 10
1337.547933212
 20
294.8921720407
 10
1337.5664255531
 20
295.2451283954
 10
1337.5857970626
 20
295.614616657
  0
LINE
  5
202
330
1F
100
AcDbEntity
  8
0
  6
CONTINUOUS
 62
     7
100
AcDbLine
 10
1331.0757330568
 20
291.1745912305
 30
0.0
 11
1332.2412273795
 21
313.4135936297
 31
0.0
  0
LINE
  5
203
330
1F
100
AcDbEntity
  8
0
  6
CONTINUOUS
 62
     7
100
AcDbLine
 10
1332.3448798568
 20
313.4135936297
 30
0.0
 11
1332.2412273795
 21
313.4135936297
 31
0.0
  0
LINE
  5
204
330
1F
100
AcDbEntity
  8
0
  6
CONTINUOUS
 62
     7
100
AcDbLine
 10
1336.6716108234
 20
313.4135936297
 30
0.0
 11
1332.3448798568
 21
313.4135936297
 31
0.0
  0
LINE
  5
205
330
1F
100
AcDbEntity
  8
0
  6
CONTINUOUS
 62
     7
100
AcDbLine
 10
1337.7336910875
 20
313.4135936297
 30
0.0
 11
1336.6716108234
 21
313.4135936297
 31
0.0
  0
LINE
  5
206
330
1F
100
AcDbEntity
  8
0
  6
CONTINUOUS
 62
     7
100
AcDbLine
 10
1337.7336910875
 20
313.4135936297
 30
0.0
 11
1336.5681818635
 21
291.1745912305
 31
0.0
  0
LINE
  5
207
330
1F
100
AcDbEntity
  8
0
  6
CONTINUOUS
 62
     7
100
AcDbLine
 10
1633.3420327814
 20
313.4135936297
 30
0.0
 11
1337.7336910875
 21
313.4135936297
 31
0.0
  0
LINE
  5
208
330
1F
100
AcDbEntity
  8
0
  6
CONTINUOUS
 62
     7
100
AcDbLine
 10
1634.5075420053
 20
291.1745912305
 30
0.0
 11
1633.3420327814
 21
313.4135936297
 31
0.0
  0
LINE
  5
209
330
1F
100
AcDbEntity
  8
0
  6
CONTINUOUS
 62
     7
100
AcDbLine
 10
1638.8344964893
 20
313.4135936297
 30
0.0
 11
1639.9999908121
 21
291.1745912305
 31
0.0
  0
LINE
  5
20A
330
1F
100
AcDbEntity
  8
0
  6
CONTINUOUS
 62
     7
100
AcDbLine
 10
1634.4041130454
 20
313.4135936297
 30
0.0
 11
1633.3420327814
 21
313.4135936297
 31
0.0
  0
LINE
  5
20B
330
1F
100
AcDbEntity
  8
0
  6
CONTINUOUS
 62
     7
100
AcDbLine
 10
1638.730844012
 20
313.4135936297
 30
0.0
 11
1634.4041130454
 21
313.4135936297
 31
0.0
  0
LINE
  5
20C
330
1F
100
AcDbEntity
  8
0
  6
CONTINUOUS
 62
     7
100
AcDbLine
 10
1638.8344964893
 20
313.4135936297
 30
0.0
 11
1638.730844012
 21
313.4135936297
 31
0.0
  0
LINE
  5
20D
330
1F
100
AcDbEntity
  8
0
  6
CONTINUOUS
 62
     7
100
AcDbLine
 10
1332.2412273795
 20
313.4135936297
 30
0.0
 11
1333.9048526199
 21
314.9115403093
 31
0.0
  0
LINE
  5
20E
330
1F
100
AcDbEntity
  8
0
  6
CONTINUOUS
 62
     7
100
AcDbLine
 10
1333.9048526199
 20
314.9115403093
 30
0.0
 11
1337.7336910875
 21
314.9115403093
 31
0.0
  0
LINE
  5
20F
330
1F
100
AcDbEntity
  8
0
  6
CONTINUOUS
 62
     7
100
AcDbLine
 10
1337.7336910875
 20
313.4135936297
 30
0.0
 11
1337.7336910875
 21
314.9115403093
 31
0.0
  0
LINE
  5
210
330
1F
100
AcDbEntity
  8
0
  6
CONTINUOUS
 62
     7
100
AcDbLine
 10
1633.3420327814
 20
314.9115403093
 30
0.0
 11
1637.1708712489
 21
314.9115403093
 31
0.0
  0
LINE
  5
211
330
1F
100
AcDbEntity
  8
0
  6
CONTINUOUS
 62
     7
100
AcDbLine
 10
1637.1708712489
 20
314.9115403093
 30
0.0
 11
1638.8344964893
 21
313.4135936297
 31
0.0
  0
LINE
  5
212
330
1F
100
AcDbEntity
  8
0
  6
CONTINUOUS
 62
     7
100
AcDbLine
 10
1633.3420327814
 20
313.4135936297
 30
0.0
 11
1633.3420327814
 21
314.9115403093
 31
0.0
  0
LINE
  5
213
330
1F
100
AcDbEntity
  8
0
  6
CONTINUOUS
 62
     7
100
AcDbLine
 10
1337.7336910875
 20
314.9115403093
 30
0.0
 11
1633.3420327814
 21
314.9115403093
 31
0.0
  0
ARC
  5
214
330
1F
100
AcDbEntity
  8
0
  6
CONTINUOUS
 62
     7
100
AcDbCircle
 10
1641.7730141389
 20
295.5580756352
 30
0.0
 40
2.000000000000105
100
AcDbArc
 50
183.0
 51
258.0
  0
LINE
  5
215
330
1F
100
AcDbEntity
  8
0
  6
CONTINUOUS
 62
     7
100
AcDbLine
 10
1641.3571885736
 20
293.6017808414
 30
0.0
 11
1652.5126597793
 21
291.2306112147
 31
0.0
  0
LINE
  5
216
330
1F
100
AcDbEntity
  8
0
  6
CONTINUOUS
 62
     7
100
AcDbLine
 10
1318.5630640895
 20
291.2306112147
 30
0.0
 11
1329.7185352952
 21
293.6017808414
 31
0.0
  0
ARC
  5
217
330
1F
100
AcDbEntity
  8
0
  6
CONTINUOUS
 62
     7
100
AcDbCircle
 10
1329.3027097299
 20
295.5580756352
 30
0.0
 40
2.000000000000105
100
AcDbArc
 50
282.0
 51
357.0
  0
CIRCLE
  5
218
330
1F
100
AcDbEntity
  8
0
  6
CONTINUOUS
 62
     7
100
AcDbCircle
 10
1314.4727903612
 20
277.8115384615
 30
0.0
 40
1.900000000000171
  0
ARC
  5
219
330
1F
100
AcDbEntity
  8
0
  6
CONTINUOUS
 62
     7
100
AcDbCircle
 10
1314.4727903612
 20
277.8115384615
 30
0.0
 40
4.900000000000108
100
AcDbArc
 50
135.731892804
 51
289.8148872227
  0
LINE
  5
21A
330
1F
100
AcDbEntity
  8
0
  6
CONTINUOUS
 62
     7
100
AcDbLine
 10
1316.8723038347
 20
287.2930375769
 30
0.0
 11
1310.9639934213
 21
281.2318207606
 31
0.0
  0
LINE
  5
21B
330
1F
100
AcDbEntity
  8
0
  6
CONTINUOUS
 62
     7
100
AcDbLine
 10
1121.5055551756
 20
793.9658113698
 30
0.0
 11
1121.5055551756
 21
770.9658094624
 31
0.0
  0
LINE
  5
21C
330
1F
100
AcDbEntity
  8
0
  6
CONTINUOUS
 62
     7
100
AcDbLine
 10
1121.5055551756
 20
747.9658075551
 30
0.0
 11
1121.5055551756
 21
724.9658130983
 31
0.0
  0
LINE
  5
21D
330
1F
100
AcDbEntity
  8
0
  6
CONTINUOUS
 62
     7
100
AcDbLine
 10
1121.5055551756
 20
701.965811191
 30
0.0
 11
1121.5055551756
 21
678.9658130089
 31
0.0
  0
LINE
  5
21E
330
1F
100
AcDbEntity
  8
0
  6
CONTINUOUS
 62
     7
100
AcDbLine
 10
1121.5055551756
 20
655.9658111015
 30
0.0
 11
1121.5055551756
 21
632.9658119882
 31
0.0
  0
LINE
  5
21F
330
1F
100
AcDbEntity
  8
0
  6
CONTINUOUS
 62
     7
100
AcDbLine
 10
1121.5055551756
 20
609.9658119435
 30
0.0
 11
1121.5055551756
 21
586.9658128301
 31
0.0
  0
LINE
  5
220
330
1F
100
AcDbEntity
  8
0
  6
CONTINUOUS
 62
     7
100
AcDbLine
 10
1121.5055551756
 20
563.9658109227
 30
0.0
 11
1121.5055551756
 21
540.9658127407
 31
0.0
  0
LINE
  5
221
330
1F
100
AcDbEntity
  8
0
  6
CONTINUOUS
 62
     7
100
AcDbLine
 10
1121.5055551756
 20
517.9658108333
 30
0.0
 11
1121.5055551756
 21
494.9658163766
 31
0.0
  0
LINE
  5
222
330
1F
100
AcDbEntity
  8
0
  6
CONTINUOUS
 62
     7
100
AcDbLine
 10
1121.5055551756
 20
471.9658144692
 30
0.0
 11
1121.5055551756
 21
448.9658125619
 31
0.0
  0
LINE
  5
223
330
1F
100
AcDbEntity
  8
0
  6
CONTINUOUS
 62
     7
100
AcDbLine
 10
1129.8258378546
 20
770.9658094624
 30
0.0
 11
1129.8258378546
 21
793.9658113698
 31
0.0
  0
LINE
  5
224
330
1F
100
AcDbEntity
  8
0
  6
CONTINUOUS
 62
     7
100
AcDbLine
 10
1129.8258378546
 20
793.9658113698
 30
0.0
 11
1121.5055551756
 21
793.9658113698
 31
0.0
  0
LINE
  5
225
330
1F
100
AcDbEntity
  8
0
  6
CONTINUOUS
 62
     7
100
AcDbLine
 10
1129.8258378546
 20
770.9658094624
 30
0.0
 11
1121.5055551756
 21
770.9658094624
 31
0.0
  0
LINE
  5
226
330
1F
100
AcDbEntity
  8
0
  6
CONTINUOUS
 62
     7
100
AcDbLine
 10
1129.8258378546
 20
747.9658075551
 30
0.0
 11
1121.5055551756
 21
747.9658075551
 31
0.0
  0
LINE
  5
227
330
1F
100
AcDbEntity
  8
0
  6
CONTINUOUS
 62
     7
100
AcDbLine
 10
1129.8258378546
 20
724.9658130983
 30
0.0
 11
1129.8258378546
 21
747.9658075551
 31
0.0
  0
LINE
  5
228
330
1F
100
AcDbEntity
  8
0
  6
CONTINUOUS
 62
     7
100
AcDbLine
 10
1129.8258378546
 20
724.9658130983
 30
0.0
 11
1121.5055551756
 21
724.9658130983
 31
0.0
  0
LINE
  5
229
330
1F
100
AcDbEntity
  8
0
  6
CONTINUOUS
 62
     7
100
AcDbLine
 10
1129.8258378546
 20
701.965811191
 30
0.0
 11
1121.5055551756
 21
701.965811191
 31
0.0
  0
LINE
  5
22A
330
1F
100
AcDbEntity
  8
0
  6
CONTINUOUS
 62
     7
100
AcDbLine
 10
1129.8258378546
 20
678.9658130089
 30
0.0
 11
1129.8258378546
 21
701.965811191
 31
0.0
  0
LINE
  5
22B
330
1F
100
AcDbEntity
  8
0
  6
CONTINUOUS
 62
     7
100
AcDbLine
 10
1129.8258378546
 20
678.9658130089
 30
0.0
 11
1121.5055551756
 21
678.9658130089
 31
0.0
  0
LINE
  5
22C
330
1F
100
AcDbEntity
  8
0
  6
CONTINUOUS
 62
     7
100
AcDbLine
 10
1129.8258378546
 20
632.9658119882
 30
0.0
 11
1129.8258378546
 21
655.9658111015
 31
0.0
  0
LINE
  5
22D
330
1F
100
AcDbEntity
  8
0
  6
CONTINUOUS
 62
     7
100
AcDbLine
 10
1129.8258378546
 20
632.9658119882
 30
0.0
 11
1121.5055551756
 21
632.9658119882
 31
0.0
  0
LINE
  5
22E
330
1F
100
AcDbEntity
  8
0
  6
CONTINUOUS
 62
     7
100
AcDbLine
 10
1129.8258378546
 20
655.9658111015
 30
0.0
 11
1121.5055551756
 21
655.9658111015
 31
0.0
  0
LINE
  5
22F
330
1F
100
AcDbEntity
  8
0
  6
CONTINUOUS
 62
     7
100
AcDbLine
 10
1129.8258378546
 20
586.9658128301
 30
0.0
 11
1129.8258378546
 21
609.9658119435
 31
0.0
  0
LINE
  5
230
330
1F
100
AcDbEntity
  8
0
  6
CONTINUOUS
 62
     7
100
AcDbLine
 10
1129.8258378546
 20
586.9658128301
 30
0.0
 11
1121.5055551756
 21
586.9658128301
 31
0.0
  0
LINE
  5
231
330
1F
100
AcDbEntity
  8
0
  6
CONTINUOUS
 62
     7
100
AcDbLine
 10
1129.8258378546
 20
609.9658119435
 30
0.0
 11
1121.5055551756
 21
609.9658119435
 31
0.0
  0
LINE
  5
232
330
1F
100
AcDbEntity
  8
0
  6
CONTINUOUS
 62
     7
100
AcDbLine
 10
1129.8258378546
 20
540.9658127407
 30
0.0
 11
1129.8258378546
 21
563.9658109227
 31
0.0
  0
LINE
  5
233
330
1F
100
AcDbEntity
  8
0
  6
CONTINUOUS
 62
     7
100
AcDbLine
 10
1129.8258378546
 20
540.9658127407
 30
0.0
 11
1121.5055551756
 21
540.9658127407
 31
0.0
  0
LINE
  5
234
330
1F
100
AcDbEntity
  8
0
  6
CONTINUOUS
 62
     7
100
AcDbLine
 10
1129.8258378546
 20
563.9658109227
 30
0.0
 11
1121.5055551756
 21
563.9658109227
 31
0.0
  0
LINE
  5
235
330
1F
100
AcDbEntity
  8
0
  6
CONTINUOUS
 62
     7
100
AcDbLine
 10
1129.8258378546
 20
494.9658163766
 30
0.0
 11
1129.8258378546
 21
517.9658108333
 31
0.0
  0
LINE
  5
236
330
1F
100
AcDbEntity
  8
0
  6
CONTINUOUS
 62
     7
100
AcDbLine
 10
1129.8258378546
 20
494.9658163766
 30
0.0
 11
1121.5055551756
 21
494.9658163766
 31
0.0
  0
LINE
  5
237
330
1F
100
AcDbEntity
  8
0
  6
CONTINUOUS
 62
     7
100
AcDbLine
 10
1129.8258378546
 20
517.9658108333
 30
0.0
 11
1121.5055551756
 21
517.9658108333
 31
0.0
  0
LINE
  5
238
330
1F
100
AcDbEntity
  8
0
  6
CONTINUOUS
 62
     7
100
AcDbLine
 10
1129.8258378546
 20
471.9658144692
 30
0.0
 11
1121.5055551756
 21
471.9658144692
 31
0.0
  0
LINE
  5
239
330
1F
100
AcDbEntity
  8
0
  6
CONTINUOUS
 62
     7
100
AcDbLine
 10
1129.8258378546
 20
448.9658125619
 30
0.0
 11
1129.8258378546
 21
471.9658144692
 31
0.0
  0
LINE
  5
23A
330
1F
100
AcDbEntity
  8
0
  6
CONTINUOUS
 62
     7
100
AcDbLine
 10
1129.8258378546
 20
448.9658125619
 30
0.0
 11
1121.5055551756
 21
448.9658125619
 31
0.0
  0
LINE
  5
23B
330
1F
100
AcDbEntity
  8
0
  6
CONTINUOUS
 62
     7
100
AcDbLine
 10
1135.8870546709
 20
770.9658094624
 30
0.0
 11
1135.8870546709
 21
793.9658113698
 31
0.0
  0
LINE
  5
23C
330
1F
100
AcDbEntity
  8
0
  6
CONTINUOUS
 62
     7
100
AcDbLine
 10
1135.8870546709
 20
793.9658113698
 30
0.0
 11
1129.8258378546
 21
793.9658113698
 31
0.0
  0
LINE
  5
23D
330
1F
100
AcDbEntity
  8
0
  6
CONTINUOUS
 62
     7
100
AcDbLine
 10
1135.8870546709
 20
770.9658094624
 30
0.0
 11
1129.8258378546
 21
770.9658094624
 31
0.0
  0
LINE
  5
23E
330
1F
100
AcDbEntity
  8
0
  6
CONTINUOUS
 62
     7
100
AcDbLine
 10
1135.8870546709
 20
724.9658130983
 30
0.0
 11
1135.8870546709
 21
747.9658075551
 31
0.0
  0
LINE
  5
23F
330
1F
100
AcDbEntity
  8
0
  6
CONTINUOUS
 62
     7
100
AcDbLine
 10
1135.8870546709
 20
747.9658075551
 30
0.0
 11
1129.8258378546
 21
747.9658075551
 31
0.0
  0
LINE
  5
240
330
1F
100
AcDbEntity
  8
0
  6
CONTINUOUS
 62
     7
100
AcDbLine
 10
1135.8870546709
 20
724.9658130983
 30
0.0
 11
1129.8258378546
 21
724.9658130983
 31
0.0
  0
LINE
  5
241
330
1F
100
AcDbEntity
  8
0
  6
CONTINUOUS
 62
     7
100
AcDbLine
 10
1135.8870546709
 20
678.9658130089
 30
0.0
 11
1135.8870546709
 21
701.965811191
 31
0.0
  0
LINE
  5
242
330
1F
100
AcDbEntity
  8
0
  6
CONTINUOUS
 62
     7
100
AcDbLine
 10
1135.8870546709
 20
678.9658130089
 30
0.0
 11
1129.8258378546
 21
678.9658130089
 31
0.0
  0
LINE
  5
243
330
1F
100
AcDbEntity
  8
0
  6
CONTINUOUS
 62
     7
100
AcDbLine
 10
1135.8870546709
 20
701.965811191
 30
0.0
 11
1129.8258378546
 21
701.965811191
 31
0.0
  0
LINE
  5
244
330
1F
100
AcDbEntity
  8
0
  6
CONTINUOUS
 62
     7
100
AcDbLine
 10
1135.8870546709
 20
632.9658119882
 30
0.0
 11
1135.8870546709
 21
655.9658111015
 31
0.0
  0
LINE
  5
245
330
1F
100
AcDbEntity
  8
0
  6
CONTINUOUS
 62
     7
100
AcDbLine
 10
1135.8870546709
 20
632.9658119882
 30
0.0
 11
1129.8258378546
 21
632.9658119882
 31
0.0
  0
LINE
  5
246
330
1F
100
AcDbEntity
  8
0
  6
CONTINUOUS
 62
     7
100
AcDbLine
 10
1135.8870546709
 20
655.9658111015
 30
0.0
 11
1129.8258378546
 21
655.9658111015
 31
0.0
  0
LINE
  5
247
330
1F
100
AcDbEntity
  8
0
  6
CONTINUOUS
 62
     7
100
AcDbLine
 10
1135.8870546709
 20
586.9658128301
 30
0.0
 11
1135.8870546709
 21
609.9658119435
 31
0.0
  0
LINE
  5
248
330
1F
100
AcDbEntity
  8
0
  6
CONTINUOUS
 62
     7
100
AcDbLine
 10
1135.8870546709
 20
586.9658128301
 30
0.0
 11
1129.8258378546
 21
586.9658128301
 31
0.0
  0
LINE
  5
249
330
1F
100
AcDbEntity
  8
0
  6
CONTINUOUS
 62
     7
100
AcDbLine
 10
1135.8870546709
 20
609.9658119435
 30
0.0
 11
1129.8258378546
 21
609.9658119435
 31
0.0
  0
LINE
  5
24A
330
1F
100
AcDbEntity
  8
0
  6
CONTINUOUS
 62
     7
100
AcDbLine
 10
1135.8870546709
 20
540.9658127407
 30
0.0
 11
1135.8870546709
 21
563.9658109227
 31
0.0
  0
LINE
  5
24B
330
1F
100
AcDbEntity
  8
0
  6
CONTINUOUS
 62
     7
100
AcDbLine
 10
1135.8870546709
 20
540.9658127407
 30
0.0
 11
1129.8258378546
 21
540.9658127407
 31
0.0
  0
LINE
  5
24C
330
1F
100
AcDbEntity
  8
0
  6
CONTINUOUS
 62
     7
100
AcDbLine
 10
1135.8870546709
 20
563.9658109227
 30
0.0
 11
1129.8258378546
 21
563.9658109227
 31
0.0
  0
LINE
  5
24D
330
1F
100
AcDbEntity
  8
0
  6
CONTINUOUS
 62
     7
100
AcDbLine
 10
1135.8870546709
 20
494.9658163766
 30
0.0
 11
1135.8870546709
 21
517.9658108333
 31
0.0
  0
LINE
  5
24E
330
1F
100
AcDbEntity
  8
0
  6
CONTINUOUS
 62
     7
100
AcDbLine
 10
1135.8870546709
 20
494.9658163766
 30
0.0
 11
1129.8258378546
 21
494.9658163766
 31
0.0
  0
LINE
  5
24F
330
1F
100
AcDbEntity
  8
0
  6
CONTINUOUS
 62
     7
100
AcDbLine
 10
1135.8870546709
 20
517.9658108333
 30
0.0
 11
1129.8258378546
 21
517.9658108333
 31
0.0
  0
LINE
  5
250
330
1F
100
AcDbEntity
  8
0
  6
CONTINUOUS
 62
     7
100
AcDbLine
 10
1135.8870546709
 20
448.9658125619
 30
0.0
 11
1135.8870546709
 21
471.9658144692
 31
0.0
  0
LINE
  5
251
330
1F
100
AcDbEntity
  8
0
  6
CONTINUOUS
 62
     7
100
AcDbLine
 10
1135.8870546709
 20
448.9658125619
 30
0.0
 11
1129.8258378546
 21
448.9658125619
 31
0.0
  0
LINE
  5
252
330
1F
100
AcDbEntity
  8
0
  6
CONTINUOUS
 62
     7
100
AcDbLine
 10
1135.8870546709
 20
471.9658144692
 30
0.0
 11
1129.8258378546
 21
471.9658144692
 31
0.0
  0
LINE
  5
253
330
1F
100
AcDbEntity
  8
0
  6
CONTINUOUS
 62
     7
100
AcDbLine
 10
1121.5055551756
 20
818.1350775937
 30
0.0
 11
1137.9456235472
 21
817.2734924534
 31
0.0
  0
ARC
  5
254
330
1F
100
AcDbEntity
  8
0
  6
CONTINUOUS
 62
     7
100
AcDbCircle
 10
808.2180643935
 20
814.5272605995
 30
0.0
 40
329.738995350664
100
AcDbArc
 50
359.5228064739
 51
0.4771935261
  0
LINE
  5
255
330
1F
100
AcDbEntity
  8
0
  6
CONTINUOUS
 62
     7
100
AcDbLine
 10
1137.9456235472
 20
811.7810287455
 30
0.0
 11
1121.5055551756
 21
812.6426138857
 31
0.0
  0
LINE
  5
256
330
1F
100
AcDbEntity
  8
0
  6
CONTINUOUS
 62
     7
100
AcDbLine
 10
1121.5055551756
 20
812.6426138857
 30
0.0
 11
1121.5055551756
 21
818.1350775937
 31
0.0
  0
ELLIPSE
  5
257
330
1F
100
AcDbEntity
  8
0
  6
CONTINUOUS
 62
     7
100
AcDbEllipse
 10
1112.6434991951
 20
426.3293681073
 30
0.0
 11
9.042354694321602
 21
34.30586911032128
 31
0.0
210
0.0
220
0.0
230
1.0
 40
0.6896927366
 41
5.030929597768987
 42
5.077431479128936
  0
LINE
  5
258
330
1F
100
AcDbEntity
  8
0
  6
CONTINUOUS
 62
     7
100
AcDbLine
 10
1121.5055551756
 20
430.2890100459
 30
0.0
 11
1137.9456235472
 21
431.1505951861
 31
0.0
  0
ELLIPSE
  5
259
330
1F
100
AcDbEntity
  8
0
  6
CONTINUOUS
 62
     7
100
AcDbEllipse
 10
1112.6434991951
 20
816.6022558243
 30
0.0
 11
-9.042354694321828
 21
34.30586911032116
 31
0.0
210
0.0
220
0.0
230
1.0
 40
0.6896927366
 41
4.347346481640457
 42
4.393848363000406
  0
LINE
  5
25A
330
1F
100
AcDbEntity
  8
0
  6
CONTINUOUS
 62
     7
100
AcDbLine
 10
1137.9730044309
 20
432.7506669739
 30
0.0
 11
1137.9730044309
 21
810.1809569577
 31
0.0
  0
LINE
  5
25B
330
1F
100
AcDbEntity
  8
0
  6
CONTINUOUS
 62
     7
100
AcDbLine
 10
1121.5055551756
 20
430.2890100459
 30
0.0
 11
1121.5055551756
 21
812.6426138857
 31
0.0
  0
LWPOLYLINE
  5
25C
330
1F
100
AcDbEntity
  8
0
  6
CONTINUOUS
 62
     7
100
AcDbPolyline
 90
        6
 70
   128
 43
0.0
 10
1137.9456235472
 20
425.6581314782
 10
1137.9508678246
 20
425.9648718814
 10
1137.960064635
 20
426.8525489548
 10
1137.9579002413
 20
428.2228597382
 10
1137.9475448656
 20
429.9219199399
 10
1137.9456235472
 20
431.1505951861
  0
LINE
  5
25D
330
1F
100
AcDbEntity
  8
0
  6
CONTINUOUS
 62
     7
100
AcDbLine
 10
1137.9456235472
 20
425.6581314782
 30
0.0
 11
1121.5055551756
 21
424.796546338
 31
0.0
  0
LINE
  5
25E
330
1F
100
AcDbEntity
  8
0
  6
CONTINUOUS
 62
     7
100
AcDbLine
 10
1121.5055551756
 20
424.796546338
 30
0.0
 11
1121.5055551756
 21
430.2890100459
 31
0.0
  0
ARC
  5
25F
330
1F
100
AcDbEntity
  8
0
  6
CONTINUOUS
 62
     7
100
AcDbCircle
 10
1137.8406449714
 20
815.2772832902
 30
0.0
 40
1.998967614714175
100
AcDbArc
 50
15.3169022798
 51
86.9896472997
  0
LINE
  5
260
330
1F
100
AcDbEntity
  8
0
  6
CONTINUOUS
 62
     7
100
AcDbLine
 10
1139.7686083246
 20
811.8458040932
 30
0.0
 11
1139.7686083246
 21
815.8053257445
 31
0.0
  0
ARC
  5
261
330
1F
100
AcDbEntity
  8
0
  6
CONTINUOUS
 62
     7
100
AcDbCircle
 10
1123.0381315767
 20
1257.0100645281
 30
0.0
 40
445.4785377779324
100
AcDbArc
 50
271.9177037654
 51
272.1523173645
  0
ARC
  5
262
330
1F
100
AcDbEntity
  8
0
  6
CONTINUOUS
 62
     7
100
AcDbCircle
 10
1123.038131574
 20
-14.0784406753
 30
0.0
 40
445.4785378568076
100
AcDbArc
 50
87.8476826356
 51
88.0822962346
  0
LINE
  5
263
330
1F
100
AcDbEntity
  8
0
  6
CONTINUOUS
 62
     7
100
AcDbLine
 10
1139.7686083246
 20
427.1262981871
 30
0.0
 11
1139.7686083246
 21
431.0858198384
 31
0.0
  0
ARC
  5
264
330
1F
100
AcDbEntity
  8
0
  6
CONTINUOUS
 62
     7
100
AcDbCircle
 10
1137.8406449714
 20
427.6543406414
 30
0.0
 40
1.998967614714644
100
AcDbArc
 50
273.0103527003
 51
344.6830977202
  0
LINE
  5
265
330
1F
100
AcDbEntity
  8
0
  6
CONTINUOUS
 62
     7
100
AcDbLine
 10
1139.7686083246
 20
810.1809569577
 30
0.0
 11
1139.7686083246
 21
811.8458040932
 31
0.0
  0
LINE
  5
266
330
1F
100
AcDbEntity
  8
0
  6
CONTINUOUS
 62
     7
100
AcDbLine
 10
1139.7686083246
 20
810.1809569577
 30
0.0
 11
1137.9730044309
 21
810.1809569577
 31
0.0
  0
LINE
  5
267
330
1F
100
AcDbEntity
  8
0
  6
CONTINUOUS
 62
     7
100
AcDbLine
 10
1139.7686083246
 20
432.7506669739
 30
0.0
 11
1137.9730044309
 21
432.7506669739
 31
0.0
  0
LINE
  5
268
330
1F
100
AcDbEntity
  8
0
  6
CONTINUOUS
 62
     7
100
AcDbLine
 10
1139.7686083246
 20
431.0858198384
 30
0.0
 11
1139.7686083246
 21
432.7506669739
 31
0.0
  0
LINE
  5
269
330
1F
100
AcDbEntity
  8
0
  6
CONTINUOUS
 62
     7
100
AcDbLine
 10
1139.8246283087
 20
796.1476393918
 30
0.0
 11
1139.8246283087
 21
446.7839845399
 31
0.0
  0
LINE
  5
26A
330
1F
100
AcDbEntity
  8
0
  6
CONTINUOUS
 62
     7
100
AcDbLine
 10
1139.7686083246
 20
446.7810490111
 30
0.0
 11
1139.8246283087
 21
446.7839845399
 31
0.0
  0
LINE
  5
26B
330
1F
100
AcDbEntity
  8
0
  6
CONTINUOUS
 62
     7
100
AcDbLine
 10
1139.7686083246
 20
432.7506669739
 30
0.0
 11
1139.7686083246
 21
446.7810490111
 31
0.0
  0
LINE
  5
26C
330
1F
100
AcDbEntity
  8
0
  6
CONTINUOUS
 62
     7
100
AcDbLine
 10
1139.7686083246
 20
796.1505749205
 30
0.0
 11
1139.7686083246
 21
810.1809569577
 31
0.0
  0
LWPOLYLINE
  5
26D
330
1F
100
AcDbEntity
  8
0
  6
CONTINUOUS
 62
     7
100
AcDbPolyline
 90
        4
 70
   128
 43
0.0
 10
1139.7686083246
 20
796.1505749205
 10
1139.7897651795
 20
796.1494573334
 10
1139.8084456477
 20
796.148488758
 10
1139.8246283087
 20
796.1476393918
  0
LINE
  5
26E
330
1F
100
AcDbEntity
  8
0
  6
CONTINUOUS
 62
     7
100
AcDbLine
 10
1142.1957979355
 20
446.9082602242
 30
0.0
 11
1142.1957979355
 21
796.0233637074
 31
0.0
  0
LINE
  5
26F
330
1F
100
AcDbEntity
  8
0
  6
CONTINUOUS
 62
     7
100
AcDbLine
 10
1139.8246283087
 20
446.7839845399
 30
0.0
 11
1142.1957979355
 21
446.9082602242
 31
0.0
  0
LINE
  5
270
330
1F
100
AcDbEntity
  8
0
  6
CONTINUOUS
 62
     7
100
AcDbLine
 10
1142.1957979355
 20
796.0233637074
 30
0.0
 11
1139.8246283087
 21
796.1476393918
 31
0.0
  0
ARC
  5
271
330
1F
100
AcDbEntity
  8
0
  6
CONTINUOUS
 62
     7
100
AcDbCircle
 10
1137.868332857
 20
815.2747926868
 30
0.0
 40
2.000000000000065
100
AcDbArc
 50
18.1695479236
 51
87.0
  0
LWPOLYLINE
  5
272
330
1F
100
AcDbEntity
  8
0
  6
CONTINUOUS
 62
     7
100
AcDbPolyline
 90
        3
 70
   128
 43
0.0
 10
1137.9456235472
 20
817.2734924534
 10
1137.9661582786
 20
817.2724046687
 10
1137.9730044309
 20
817.2720470408
  0
ARC
  5
273
330
1F
100
AcDbEntity
  8
0
  6
CONTINUOUS
 62
     7
100
AcDbCircle
 10
1137.868332857
 20
427.6568312448
 30
0.0
 40
2.000000000000083
100
AcDbArc
 50
273.0
 51
341.8304520764
  0
LWPOLYLINE
  5
274
330
1F
100
AcDbEntity
  8
0
  6
CONTINUOUS
 62
     7
100
AcDbPolyline
 90
        3
 70
   128
 43
0.0
 10
1137.9730044309
 20
425.6595768908
 10
1137.9661582786
 20
425.6592192629
 10
1137.9456235472
 20
425.6581314782
  0
LINE
  5
275
330
1F
100
AcDbEntity
  8
0
  6
CONTINUOUS
 62
     7
100
AcDbLine
 10
1144.047420882
 20
795.9263273457
 30
0.0
 11
1144.047420882
 21
447.0052965859
 31
0.0
  0
LWPOLYLINE
  5
276
330
1F
100
AcDbEntity
  8
0
  6
CONTINUOUS
 62
     7
100
AcDbPolyline
 90
        8
 70
   128
 43
0.0
 10
1144.047420882
 20
447.0052965859
 10
1143.6779316891
 20
446.9859250764
 10
1143.3249753344
 20
446.9674327353
 10
1143.0008583147
 20
446.9504454116
 10
1142.7168812979
 20
446.9355591515
 10
1142.4829461056
 20
446.923310397
 10
1142.3072092611
 20
446.9141014794
 10
1142.1957979355
 20
446.9082602242
  0
LWPOLYLINE
  5
277
330
1F
100
AcDbEntity
  8
0
  6
CONTINUOUS
 62
     7
100
AcDbPolyline
 90
        8
 70
   128
 43
0.0
 10
1142.1957979355
 20
796.0233637074
 10
1142.3072092611
 20
796.0175224522
 10
1142.4829461056
 20
796.0083135346
 10
1142.7168812979
 20
795.9960647801
 10
1143.0008583147
 20
795.9811785201
 10
1143.3249753344
 20
795.9641911963
 10
1143.6779316891
 20
795.9456988553
 10
1144.047420882
 20
795.9263273457
  0
LINE
  5
278
330
1F
100
AcDbEntity
  8
0
  6
CONTINUOUS
 62
     7
100
AcDbLine
 10
1139.7686083246
 20
802.4279423932
 30
0.0
 11
1162.0076107237
 21
801.2624480704
 31
0.0
  0
LINE
  5
279
330
1F
100
AcDbEntity
  8
0
  6
CONTINUOUS
 62
     7
100
AcDbLine
 10
1162.0076107237
 20
801.158780692
 30
0.0
 11
1162.0076107237
 21
801.2624480704
 31
0.0
  0
LINE
  5
27A
330
1F
100
AcDbEntity
  8
0
  6
CONTINUOUS
 62
     7
100
AcDbLine
 10
1162.0076107237
 20
796.8320646266
 30
0.0
 11
1162.0076107237
 21
801.158780692
 31
0.0
  0
LINE
  5
27B
330
1F
100
AcDbEntity
  8
0
  6
CONTINUOUS
 62
     7
100
AcDbLine
 10
1162.0076107237
 20
795.7699843625
 30
0.0
 11
1162.0076107237
 21
796.8320646266
 31
0.0
  0
LINE
  5
27C
330
1F
100
AcDbEntity
  8
0
  6
CONTINUOUS
 62
     7
100
AcDbLine
 10
1162.0076107237
 20
795.7699843625
 30
0.0
 11
1139.7686083246
 21
796.9354786852
 31
0.0
  0
LINE
  5
27D
330
1F
100
AcDbEntity
  8
0
  6
CONTINUOUS
 62
     7
100
AcDbLine
 10
1139.7686083246
 20
445.9961452464
 30
0.0
 11
1162.0076107237
 21
447.1616395692
 31
0.0
  0
LINE
  5
27E
330
1F
100
AcDbEntity
  8
0
  6
CONTINUOUS
 62
     7
100
AcDbLine
 10
1162.0076107237
 20
446.0995593051
 30
0.0
 11
1162.0076107237
 21
447.1616395692
 31
0.0
  0
LINE
  5
27F
330
1F
100
AcDbEntity
  8
0
  6
CONTINUOUS
 62
     7
100
AcDbLine
 10
1162.0076107237
 20
441.7728432397
 30
0.0
 11
1162.0076107237
 21
446.0995593051
 31
0.0
  0
LINE
  5
280
330
1F
100
AcDbEntity
  8
0
  6
CONTINUOUS
 62
     7
100
AcDbLine
 10
1162.0076107237
 20
441.6691758612
 30
0.0
 11
1162.0076107237
 21
441.7728432397
 31
0.0
  0
LINE
  5
281
330
1F
100
AcDbEntity
  8
0
  6
CONTINUOUS
 62
     7
100
AcDbLine
 10
1162.0076107237
 20
441.6691758612
 30
0.0
 11
1139.7686083246
 21
440.5036815385
 31
0.0
  0
LINE
  5
282
330
1F
100
AcDbEntity
  8
0
  6
CONTINUOUS
 62
     7
100
AcDbLine
 10
1162.0076107237
 20
447.1616395692
 30
0.0
 11
1162.0076107237
 21
795.7699843625
 31
0.0
  0
LINE
  5
283
330
1F
100
AcDbEntity
  8
0
  6
CONTINUOUS
 62
     7
100
AcDbLine
 10
1162.0076107237
 20
447.1616395692
 30
0.0
 11
1163.5055574033
 21
447.1616395692
 31
0.0
  0
LINE
  5
284
330
1F
100
AcDbEntity
  8
0
  6
CONTINUOUS
 62
     7
100
AcDbLine
 10
1163.5055574033
 20
447.1616395692
 30
0.0
 11
1163.5055574033
 21
443.3328011016
 31
0.0
  0
LINE
  5
285
330
1F
100
AcDbEntity
  8
0
  6
CONTINUOUS
 62
     7
100
AcDbLine
 10
1162.0076107237
 20
441.6691758612
 30
0.0
 11
1163.5055574033
 21
443.3328011016
 31
0.0
  0
LINE
  5
286
330
1F
100
AcDbEntity
  8
0
  6
CONTINUOUS
 62
     7
100
AcDbLine
 10
1163.5055574033
 20
799.5988228301
 30
0.0
 11
1163.5055574033
 21
795.7699843625
 31
0.0
  0
LINE
  5
287
330
1F
100
AcDbEntity
  8
0
  6
CONTINUOUS
 62
     7
100
AcDbLine
 10
1162.0076107237
 20
795.7699843625
 30
0.0
 11
1163.5055574033
 21
795.7699843625
 31
0.0
  0
LINE
  5
288
330
1F
100
AcDbEntity
  8
0
  6
CONTINUOUS
 62
     7
100
AcDbLine
 10
1163.5055574033
 20
799.5988228301
 30
0.0
 11
1162.0076107237
 21
801.2624480704
 31
0.0
  0
LINE
  5
289
330
1F
100
AcDbEntity
  8
0
  6
CONTINUOUS
 62
     7
100
AcDbLine
 10
1163.5055574033
 20
795.7699843625
 30
0.0
 11
1163.5055574033
 21
447.1616395692
 31
0.0
  0
ARC
  5
28A
330
1F
100
AcDbEntity
  8
0
  6
CONTINUOUS
 62
     7
100
AcDbCircle
 10
1144.3133060047
 20
438.739108591
 30
0.0
 40
1.999999999999992
100
AcDbArc
 50
93.0
 51
168.0
  0
LINE
  5
28B
330
1F
100
AcDbEntity
  8
0
  6
CONTINUOUS
 62
     7
100
AcDbLine
 10
1142.3570108044
 20
439.1549327353
 30
0.0
 11
1139.8246283087
 21
427.241007326
 31
0.0
  0
LINE
  5
28C
330
1F
100
AcDbEntity
  8
0
  6
CONTINUOUS
 62
     7
100
AcDbLine
 10
1139.8246283087
 20
815.6906166056
 30
0.0
 11
1142.3570108044
 21
803.7766911963
 31
0.0
  0
ARC
  5
28D
330
1F
100
AcDbEntity
  8
0
  6
CONTINUOUS
 62
     7
100
AcDbCircle
 10
1144.3133060047
 20
804.1925153406
 30
0.0
 40
1.999999999999992
100
AcDbArc
 50
192.0
 51
267.0
  0
LINE
  5
28E
330
1F
100
AcDbEntity
  8
0
  6
CONTINUOUS
 62
     7
100
AcDbLine
 10
932.8203711832
 20
540.9658127407
 30
0.0
 11
932.8203711832
 21
563.9658109227
 31
0.0
  0
LINE
  5
28F
330
1F
100
AcDbEntity
  8
0
  6
CONTINUOUS
 62
     7
100
AcDbLine
 10
932.8203711832
 20
724.9658130983
 30
0.0
 11
932.8203711832
 21
747.9658075551
 31
0.0
  0
LINE
  5
290
330
1F
100
AcDbEntity
  8
0
  6
CONTINUOUS
 62
     7
100
AcDbLine
 10
932.8203711832
 20
586.9658128301
 30
0.0
 11
932.8203711832
 21
609.9658119435
 31
0.0
  0
LINE
  5
291
330
1F
100
AcDbEntity
  8
0
  6
CONTINUOUS
 62
     7
100
AcDbLine
 10
932.8203711832
 20
632.9658119882
 30
0.0
 11
932.8203711832
 21
655.9658111015
 31
0.0
  0
LINE
  5
292
330
1F
100
AcDbEntity
  8
0
  6
CONTINUOUS
 62
     7
100
AcDbLine
 10
932.8203711832
 20
678.9658130089
 30
0.0
 11
932.8203711832
 21
701.965811191
 31
0.0
  0
LINE
  5
293
330
1F
100
AcDbEntity
  8
0
  6
CONTINUOUS
 62
     7
100
AcDbLine
 10
932.8203711832
 20
494.9658163766
 30
0.0
 11
932.8203711832
 21
517.9658108333
 31
0.0
  0
LINE
  5
294
330
1F
100
AcDbEntity
  8
0
  6
CONTINUOUS
 62
     7
100
AcDbLine
 10
932.8203711832
 20
448.9658125619
 30
0.0
 11
932.8203711832
 21
471.9658144692
 31
0.0
  0
LINE
  5
295
330
1F
100
AcDbEntity
  8
0
  6
CONTINUOUS
 62
     7
100
AcDbLine
 10
932.8203711832
 20
770.9658094624
 30
0.0
 11
932.8203711832
 21
793.9658113698
 31
0.0
  0
LINE
  5
296
330
1F
100
AcDbEntity
  8
0
  6
CONTINUOUS
 62
     7
100
AcDbLine
 10
919.2450706089
 20
571.3195563236
 30
0.0
 11
919.2863766278
 21
571.3160769025
 31
0.0
  0
LINE
  5
297
330
1F
100
AcDbEntity
  8
0
  6
CONTINUOUS
 62
     7
100
AcDbLine
 10
919.2450706089
 20
574.3964821974
 30
0.0
 11
919.2863766278
 21
574.3930027763
 31
0.0
  0
LINE
  5
298
330
1F
100
AcDbEntity
  8
0
  6
CONTINUOUS
 62
     7
100
AcDbLine
 10
920.4247955407
 20
570.9337727109
 30
0.0
 11
920.3834597195
 21
570.9302932898
 31
0.0
  0
LINE
  5
299
330
1F
100
AcDbEntity
  8
0
  6
CONTINUOUS
 62
     7
100
AcDbLine
 10
919.327816757
 20
577.0773314813
 30
0.0
 11
919.2865107382
 21
577.0738520602
 31
0.0
  0
LINE
  5
29A
330
1F
100
AcDbEntity
  8
0
  6
CONTINUOUS
 62
     7
100
AcDbLine
 10
919.327816757
 20
574.0004093329
 30
0.0
 11
919.2865107382
 21
573.9969299117
 31
0.0
  0
LINE
  5
29B
330
1F
100
AcDbEntity
  8
0
  6
CONTINUOUS
 62
     7
100
AcDbLine
 10
918.760589155
 20
580.0089449564
 30
0.0
 11
918.7192384327
 21
580.00546181
 31
0.0
  0
LINE
  5
29C
330
1F
100
AcDbEntity
  8
0
  6
CONTINUOUS
 62
     7
100
AcDbLine
 10
918.7061254109
 20
577.5154181698
 30
0.0
 11
918.7474463309
 21
577.5119387487
 31
0.0
  0
LINE
  5
29D
330
1F
100
AcDbEntity
  8
0
  6
CONTINUOUS
 62
     7
100
AcDbLine
 10
918.5918633068
 20
570.7270563522
 30
0.0
 11
918.5506913985
 21
570.723588107
 31
0.0
  0
ELLIPSE
  5
29E
330
1F
100
AcDbEntity
  8
0
  6
CONTINUOUS
 62
     7
100
AcDbEllipse
 10
920.76701479
 20
430.3040976345
 30
0.0
 11
3.899754338892876
 21
-3.899754338892876
 31
-1.421085471520200E-13
210
3.649035898903296E-14
220
4.997459488057855E-17
230
0.9999999999999998
 40
0.9972646886
 41
5.499156671652512
 42
7.067213942706656
  0
LINE
  5
29F
330
1F
100
AcDbEntity
  8
0
  6
CONTINUOUS
 62
     7
100
AcDbLine
 10
592.9285053337
 20
424.796546338
 30
0.0
 11
920.7820955838
 21
424.796546338
 31
0.0
  0
LINE
  5
2A0
330
1F
100
AcDbEntity
  8
0
  6
CONTINUOUS
 62
     7
100
AcDbLine
 10
920.7820955838
 20
818.1350775937
 30
0.0
 11
592.9285053337
 21
818.1350775937
 31
0.0
  0
ELLIPSE
  5
2A1
330
1F
100
AcDbEntity
  8
0
  6
CONTINUOUS
 62
     7
100
AcDbEllipse
 10
920.76701479
 20
812.6275262971
 30
0.0
 11
3.899754338892989
 21
3.899754338892876
 31
-1.421085471520200E-13
210
3.466334230983732E-14
220
1.777042084314058E-15
230
1.0
 40
0.9972646886
 41
5.499156671652537
 42
7.067213942706693
  0
LINE
  5
2A2
330
1F
100
AcDbEntity
  8
0
  6
CONTINUOUS
 62
     7
100
AcDbLine
 10
926.2745592917
 20
430.2890100459
 30
0.0
 11
926.2745592917
 21
812.6426138857
 31
0.0
  0
ELLIPSE
  5
2A3
330
1F
100
AcDbEntity
  8
0
  6
CONTINUOUS
 62
     7
100
AcDbEllipse
 10
920.76701479
 20
812.6275262971
 30
0.0
 11
1.772615608587784
 21
1.772615608587784
 31
-7.105427357601001E-14
210
4.013939488793661E-14
220
-5.497205437156087E-17
230
0.9999999999999998
 40
0.9972646886
 41
5.499156671652496
 42
7.067213942706657
  0
LINE
  5
2A4
330
1F
100
AcDbEntity
  8
0
  6
CONTINUOUS
 62
     7
100
AcDbLine
 10
920.7738701428
 20
815.1309587935
 30
0.0
 11
592.9367307747
 21
815.1309587935
 31
0.0
  0
ELLIPSE
  5
2A5
330
1F
100
AcDbEntity
  8
0
  6
CONTINUOUS
 62
     7
100
AcDbEllipse
 10
592.9435861275
 20
812.6275262971
 30
0.0
 11
-1.772615608587557
 21
1.772615608587785
 31
7.105427357601002E-14
210
4.013939488793791E-14
220
5.497205436770176E-17
230
1.0
 40
0.9972646886
 41
5.499156671652577
 42
7.067213942706752
  0
LINE
  5
2A6
330
1F
100
AcDbEntity
  8
0
  6
CONTINUOUS
 62
     7
100
AcDbLine
 10
590.440160426
 20
812.6343884448
 30
0.0
 11
590.440160426
 21
430.2972354869
 31
0.0
  0
ELLIPSE
  5
2A7
330
1F
100
AcDbEntity
  8
0
  6
CONTINUOUS
 62
     7
100
AcDbEllipse
 10
592.9435861275
 20
430.3040976345
 30
0.0
 11
-1.772615608587671
 21
-1.772615608587671
 31
7.105427357601002E-14
210
4.013939488793532E-14
220
-5.497205436770176E-17
230
0.9999999999999998
 40
0.9972646886
 41
5.499156671652561
 42
7.067213942706639
  0
LINE
  5
2A8
330
1F
100
AcDbEntity
  8
0
  6
CONTINUOUS
 62
     7
100
AcDbLine
 10
592.9367307747
 20
427.8006651381
 30
0.0
 11
920.7738701428
 21
427.8006651381
 31
0.0
  0
ELLIPSE
  5
2A9
330
1F
100
AcDbEntity
  8
0
  6
CONTINUOUS
 62
     7
100
AcDbEllipse
 10
920.76701479
 20
430.3040976345
 30
0.0
 11
1.772615608587671
 21
-1.772615608587614
 31
-7.105427357600999E-14
210
4.013939488793661E-14
220
5.497205436899550E-17
230
0.9999999999999998
 40
0.9972646886
 41
5.499156671652491
 42
7.067213942706632
  0
LINE
  5
2AA
330
1F
100
AcDbEntity
  8
0
  6
CONTINUOUS
 62
     7
100
AcDbLine
 10
923.2704404915
 20
430.2972354869
 30
0.0
 11
923.2704404915
 21
812.6343884448
 31
0.0
  0
ELLIPSE
  5
2AB
330
1F
100
AcDbEntity
  8
0
  6
CONTINUOUS
 62
     7
100
AcDbEllipse
 10
592.9435861275
 20
430.3040976345
 30
0.0
 11
-3.899754338892876
 21
-3.899754338892876
 31
1.421085471520200E-13
210
3.466334230983729E-14
220
1.777042084315097E-15
230
0.9999999999999998
 40
0.9972646886
 41
5.49915667165255
 42
7.067213942706671
  0
ELLIPSE
  5
2AC
330
1F
100
AcDbEntity
  8
0
  6
CONTINUOUS
 62
     7
100
AcDbEllipse
 10
592.9435861275
 20
812.6275262971
 30
0.0
 11
-3.899754338892876
 21
3.899754338892876
 31
1.421085471520200E-13
210
3.649035898903296E-14
220
4.997459488057540E-17
230
0.9999999999999998
 40
0.9972646886
 41
5.499156671652522
 42
7.067213942706679
  0
LINE
  5
2AD
330
1F
100
AcDbEntity
  8
0
  6
CONTINUOUS
 62
     7
100
AcDbLine
 10
587.4360416258
 20
812.6426138857
 30
0.0
 11
587.4360416258
 21
430.2890100459
 31
0.0
  0
ARC
  5
2AE
330
1F
100
AcDbEntity
  8
0
  6
CONTINUOUS
 62
     7
100
AcDbCircle
 10
593.7128547252
 20
811.8582644943
 30
0.0
 40
2.488281224551389
100
AcDbArc
 50
89.8088132401
 51
180.1911867599
  0
LINE
  5
2AF
330
1F
100
AcDbEntity
  8
0
  6
CONTINUOUS
 62
     7
100
AcDbLine
 10
590.440160426
 20
812.6343884448
 30
0.0
 11
591.2245873535
 21
811.8499615172
 31
0.0
  0
LINE
  5
2B0
330
1F
100
AcDbEntity
  8
0
  6
CONTINUOUS
 62
     7
100
AcDbLine
 10
593.7211577023
 20
814.3465318659
 30
0.0
 11
592.9367307747
 21
815.1309587935
 31
0.0
  0
ARC
  5
2B1
330
1F
100
AcDbEntity
  8
0
  6
CONTINUOUS
 62
     7
100
AcDbCircle
 10
593.7128362379
 20
431.07334095
 30
0.0
 40
2.488262799082275
100
AcDbArc
 50
179.808386125
 51
270.191613875
  0
LINE
  5
2B2
330
1F
100
AcDbEntity
  8
0
  6
CONTINUOUS
 62
     7
100
AcDbLine
 10
592.9367307747
 20
427.8006651381
 30
0.0
 11
593.7211577023
 21
428.5850920657
 31
0.0
  0
LINE
  5
2B3
330
1F
100
AcDbEntity
  8
0
  6
CONTINUOUS
 62
     7
100
AcDbLine
 10
591.2245873535
 20
431.0816624144
 30
0.0
 11
590.440160426
 21
430.2972354869
 31
0.0
  0
LINE
  5
2B4
330
1F
100
AcDbEntity
  8
0
  6
CONTINUOUS
 62
     7
100
AcDbLine
 10
591.2277016962
 20
809.5614411811
 30
0.0
 11
591.2277016962
 21
433.3701827506
 31
0.0
  0
ELLIPSE
  5
2B5
330
1F
100
AcDbEntity
  8
0
  6
CONTINUOUS
 62
     7
100
AcDbEllipse
 10
589.9815095122
 20
427.3420210193
 30
0.0
 11
0.2298196170971778
 21
32.73333771232922
 31
0.0
210
0.0
220
0.0
230
1.0
 40
0.0374179733
 41
4.827147552885458
 42
4.897868466113765
  0
ELLIPSE
  5
2B6
330
1F
100
AcDbEntity
  8
0
  6
CONTINUOUS
 62
     7
100
AcDbEllipse
 10
589.9815095122
 20
815.5896029123
 30
0.0
 11
-0.2298196170971778
 21
32.7333377123291
 31
0.0
210
0.0
220
0.0
230
1.0
 40
0.0374179733
 41
4.526909494655657
 42
4.597630407883942
  0
ELLIPSE
  5
2B7
330
1F
100
AcDbEntity
  8
0
  6
CONTINUOUS
 62
     7
100
AcDbEllipse
 10
589.9815095122
 20
427.3420210193
 30
0.0
 11
32.73333771232922
 21
0.2298196170971778
 31
0.0
210
0.0
220
0.0
230
1.0
 40
0.0374179733
 41
1.385316841065867
 42
1.456037754294156
  0
LINE
  5
2B8
330
1F
100
AcDbEntity
  8
0
  6
CONTINUOUS
 62
     7
100
AcDbLine
 10
596.0096631373
 20
428.5882064084
 30
0.0
 11
917.7009377802
 21
428.5882064084
 31
0.0
  0
ELLIPSE
  5
2B9
330
1F
100
AcDbEntity
  8
0
  6
CONTINUOUS
 62
     7
100
AcDbEllipse
 10
923.7290914053
 20
427.3420210193
 30
0.0
 11
32.73333771232922
 21
-0.2298196170971778
 31
0.0
210
0.0
220
0.0
230
1.0
 40
0.0374179733
 41
1.685554899295648
 42
1.756275812523937
  0
LINE
  5
2BA
330
1F
100
AcDbEntity
  8
0
  6
CONTINUOUS
 62
     7
100
AcDbLine
 10
919.9894432152
 20
428.5850920657
 30
0.0
 11
920.7738701428
 21
427.8006651381
 31
0.0
  0
LINE
  5
2BB
330
1F
100
AcDbEntity
  8
0
  6
CONTINUOUS
 62
     7
100
AcDbLine
 10
920.7738701428
 20
815.1309587935
 30
0.0
 11
919.9894432152
 21
814.3465318659
 31
0.0
  0
ELLIPSE
  5
2BC
330
1F
100
AcDbEntity
  8
0
  6
CONTINUOUS
 62
     7
100
AcDbEllipse
 10
923.7290914053
 20
815.5896029123
 30
0.0
 11
32.73333771232922
 21
0.2298196170971778
 31
0.0
210
0.0
220
0.0
230
1.0
 40
0.0374179733
 41
4.526909494655654
 42
4.597630407883942
  0
LINE
  5
2BD
330
1F
100
AcDbEntity
  8
0
  6
CONTINUOUS
 62
     7
100
AcDbLine
 10
917.7009377802
 20
814.3434175233
 30
0.0
 11
596.0096631373
 21
814.3434175233
 31
0.0
  0
ELLIPSE
  5
2BE
330
1F
100
AcDbEntity
  8
0
  6
CONTINUOUS
 62
     7
100
AcDbEllipse
 10
589.9815095122
 20
815.5896029123
 30
0.0
 11
32.7333377123291
 21
-0.2298196170971778
 31
0.0
210
0.0
220
0.0
230
1.0
 40
0.0374179733
 41
4.82714755288543
 42
4.897868466113739
  0
ARC
  5
2BF
330
1F
100
AcDbEntity
  8
0
  6
CONTINUOUS
 62
     7
100
AcDbCircle
 10
919.9977646796
 20
811.8582829816
 30
0.0
 40
2.488262799082502
100
AcDbArc
 50
359.808386125
 51
90.191613875
  0
LINE
  5
2C0
330
1F
100
AcDbEntity
  8
0
  6
CONTINUOUS
 62
     7
100
AcDbLine
 10
922.486013564
 20
811.8499615172
 30
0.0
 11
923.2704404915
 21
812.6343884448
 31
0.0
  0
ARC
  5
2C1
330
1F
100
AcDbEntity
  8
0
  6
CONTINUOUS
 62
     7
100
AcDbCircle
 10
919.9977461923
 20
431.0733594374
 30
0.0
 40
2.488281224551842
100
AcDbArc
 50
269.8088132401
 51
0.1911867599
  0
LINE
  5
2C2
330
1F
100
AcDbEntity
  8
0
  6
CONTINUOUS
 62
     7
100
AcDbLine
 10
923.2704404915
 20
430.2972354869
 30
0.0
 11
922.486013564
 21
431.0816624144
 31
0.0
  0
LINE
  5
2C3
330
1F
100
AcDbEntity
  8
0
  6
CONTINUOUS
 62
     7
100
AcDbLine
 10
923.1375221337
 20
770.9658094624
 30
0.0
 11
923.1375221337
 21
793.9658113698
 31
0.0
  0
LINE
  5
2C4
330
1F
100
AcDbEntity
  8
0
  6
CONTINUOUS
 62
     7
100
AcDbLine
 10
922.4828992213
 20
793.9658113698
 30
0.0
 11
922.4828992213
 21
809.5614411811
 31
0.0
  0
ELLIPSE
  5
2C5
330
1F
100
AcDbEntity
  8
0
  6
CONTINUOUS
 62
     7
100
AcDbEllipse
 10
923.7290914053
 20
815.5896029123
 30
0.0
 11
0.2298196170971778
 21
32.7333377123291
 31
0.0
210
0.0
220
0.0
230
1.0
 40
0.0374179733
 41
1.685554899295639
 42
1.756275812523908
  0
ELLIPSE
  5
2C6
330
1F
100
AcDbEntity
  8
0
  6
CONTINUOUS
 62
     7
100
AcDbEllipse
 10
923.7290914053
 20
427.3420210193
 30
0.0
 11
-0.2298196170971778
 21
32.73333771232927
 31
0.0
210
0.0
220
0.0
230
1.0
 40
0.0374179733
 41
1.385316841065852
 42
1.456037754294144
  0
LINE
  5
2C7
330
1F
100
AcDbEntity
  8
0
  6
CONTINUOUS
 62
     7
100
AcDbLine
 10
922.4828992213
 20
433.3701827506
 30
0.0
 11
922.4828992213
 21
448.9658125619
 31
0.0
  0
LINE
  5
2C8
330
1F
100
AcDbEntity
  8
0
  6
CONTINUOUS
 62
     7
100
AcDbLine
 10
923.1375221337
 20
448.9658125619
 30
0.0
 11
923.1375221337
 21
471.9658144692
 31
0.0
  0
LINE
  5
2C9
330
1F
100
AcDbEntity
  8
0
  6
CONTINUOUS
 62
     7
100
AcDbLine
 10
922.4828992213
 20
471.9658144692
 30
0.0
 11
922.4828992213
 21
494.9658163766
 31
0.0
  0
LINE
  5
2CA
330
1F
100
AcDbEntity
  8
0
  6
CONTINUOUS
 62
     7
100
AcDbLine
 10
923.1375221337
 20
494.9658163766
 30
0.0
 11
923.1375221337
 21
517.9658108333
 31
0.0
  0
LINE
  5
2CB
330
1F
100
AcDbEntity
  8
0
  6
CONTINUOUS
 62
     7
100
AcDbLine
 10
922.4828992213
 20
517.9658108333
 30
0.0
 11
922.4828992213
 21
540.9658127407
 31
0.0
  0
LINE
  5
2CC
330
1F
100
AcDbEntity
  8
0
  6
CONTINUOUS
 62
     7
100
AcDbLine
 10
923.1375221337
 20
540.9658127407
 30
0.0
 11
923.1375221337
 21
563.9658109227
 31
0.0
  0
LINE
  5
2CD
330
1F
100
AcDbEntity
  8
0
  6
CONTINUOUS
 62
     7
100
AcDbLine
 10
922.4828992213
 20
563.9658109227
 30
0.0
 11
922.4828992213
 21
586.9658128301
 31
0.0
  0
LINE
  5
2CE
330
1F
100
AcDbEntity
  8
0
  6
CONTINUOUS
 62
     7
100
AcDbLine
 10
923.1375221337
 20
586.9658128301
 30
0.0
 11
923.1375221337
 21
609.9658119435
 31
0.0
  0
LINE
  5
2CF
330
1F
100
AcDbEntity
  8
0
  6
CONTINUOUS
 62
     7
100
AcDbLine
 10
922.4828992213
 20
609.9658119435
 30
0.0
 11
922.4828992213
 21
632.9658119882
 31
0.0
  0
LINE
  5
2D0
330
1F
100
AcDbEntity
  8
0
  6
CONTINUOUS
 62
     7
100
AcDbLine
 10
923.1375221337
 20
632.9658119882
 30
0.0
 11
923.1375221337
 21
655.9658111015
 31
0.0
  0
LINE
  5
2D1
330
1F
100
AcDbEntity
  8
0
  6
CONTINUOUS
 62
     7
100
AcDbLine
 10
922.4828992213
 20
655.9658111015
 30
0.0
 11
922.4828992213
 21
678.9658130089
 31
0.0
  0
LINE
  5
2D2
330
1F
100
AcDbEntity
  8
0
  6
CONTINUOUS
 62
     7
100
AcDbLine
 10
923.1375221337
 20
678.9658130089
 30
0.0
 11
923.1375221337
 21
701.965811191
 31
0.0
  0
LINE
  5
2D3
330
1F
100
AcDbEntity
  8
0
  6
CONTINUOUS
 62
     7
100
AcDbLine
 10
922.4828992213
 20
701.965811191
 30
0.0
 11
922.4828992213
 21
724.9658130983
 31
0.0
  0
LINE
  5
2D4
330
1F
100
AcDbEntity
  8
0
  6
CONTINUOUS
 62
     7
100
AcDbLine
 10
923.1375221337
 20
724.9658130983
 30
0.0
 11
923.1375221337
 21
747.9658075551
 31
0.0
  0
LINE
  5
2D5
330
1F
100
AcDbEntity
  8
0
  6
CONTINUOUS
 62
     7
100
AcDbLine
 10
922.4828992213
 20
747.9658075551
 30
0.0
 11
922.4828992213
 21
770.9658094624
 31
0.0
  0
LINE
  5
2D6
330
1F
100
AcDbEntity
  8
0
  6
CONTINUOUS
 62
     7
100
AcDbLine
 10
932.8203711832
 20
563.9658109227
 30
0.0
 11
926.2593601073
 21
563.9658109227
 31
0.0
  0
LINE
  5
2D7
330
1F
100
AcDbEntity
  8
0
  6
CONTINUOUS
 62
     7
100
AcDbLine
 10
932.8203711832
 20
540.9658127407
 30
0.0
 11
926.2593601073
 21
540.9658127407
 31
0.0
  0
LINE
  5
2D8
330
1F
100
AcDbEntity
  8
0
  6
CONTINUOUS
 62
     7
100
AcDbLine
 10
932.8203711832
 20
724.9658130983
 30
0.0
 11
926.2593601073
 21
724.9658130983
 31
0.0
  0
LINE
  5
2D9
330
1F
100
AcDbEntity
  8
0
  6
CONTINUOUS
 62
     7
100
AcDbLine
 10
932.8203711832
 20
747.9658075551
 30
0.0
 11
926.2593601073
 21
747.9658075551
 31
0.0
  0
LINE
  5
2DA
330
1F
100
AcDbEntity
  8
0
  6
CONTINUOUS
 62
     7
100
AcDbLine
 10
932.8203711832
 20
609.9658119435
 30
0.0
 11
926.2593601073
 21
609.9658119435
 31
0.0
  0
LINE
  5
2DB
330
1F
100
AcDbEntity
  8
0
  6
CONTINUOUS
 62
     7
100
AcDbLine
 10
932.8203711832
 20
586.9658128301
 30
0.0
 11
926.2593601073
 21
586.9658128301
 31
0.0
  0
LINE
  5
2DC
330
1F
100
AcDbEntity
  8
0
  6
CONTINUOUS
 62
     7
100
AcDbLine
 10
932.8203711832
 20
655.9658111015
 30
0.0
 11
926.2593601073
 21
655.9658111015
 31
0.0
  0
LINE
  5
2DD
330
1F
100
AcDbEntity
  8
0
  6
CONTINUOUS
 62
     7
100
AcDbLine
 10
932.8203711832
 20
632.9658119882
 30
0.0
 11
926.2593601073
 21
632.9658119882
 31
0.0
  0
LINE
  5
2DE
330
1F
100
AcDbEntity
  8
0
  6
CONTINUOUS
 62
     7
100
AcDbLine
 10
932.8203711832
 20
701.965811191
 30
0.0
 11
926.2593601073
 21
701.965811191
 31
0.0
  0
LINE
  5
2DF
330
1F
100
AcDbEntity
  8
0
  6
CONTINUOUS
 62
     7
100
AcDbLine
 10
932.8203711832
 20
678.9658130089
 30
0.0
 11
926.2593601073
 21
678.9658130089
 31
0.0
  0
LINE
  5
2E0
330
1F
100
AcDbEntity
  8
0
  6
CONTINUOUS
 62
     7
100
AcDbLine
 10
932.8203711832
 20
517.9658108333
 30
0.0
 11
926.2593601073
 21
517.9658108333
 31
0.0
  0
LINE
  5
2E1
330
1F
100
AcDbEntity
  8
0
  6
CONTINUOUS
 62
     7
100
AcDbLine
 10
932.8203711832
 20
494.9658163766
 30
0.0
 11
926.2593601073
 21
494.9658163766
 31
0.0
  0
LINE
  5
2E2
330
1F
100
AcDbEntity
  8
0
  6
CONTINUOUS
 62
     7
100
AcDbLine
 10
932.8203711832
 20
471.9658144692
 30
0.0
 11
926.2593601073
 21
471.9658144692
 31
0.0
  0
LINE
  5
2E3
330
1F
100
AcDbEntity
  8
0
  6
CONTINUOUS
 62
     7
100
AcDbLine
 10
932.8203711832
 20
448.9658125619
 30
0.0
 11
926.2593601073
 21
448.9658125619
 31
0.0
  0
LINE
  5
2E4
330
1F
100
AcDbEntity
  8
0
  6
CONTINUOUS
 62
     7
100
AcDbLine
 10
932.8203711832
 20
793.9658113698
 30
0.0
 11
926.2593601073
 21
793.9658113698
 31
0.0
  0
LINE
  5
2E5
330
1F
100
AcDbEntity
  8
0
  6
CONTINUOUS
 62
     7
100
AcDbLine
 10
932.8203711832
 20
770.9658094624
 30
0.0
 11
926.2593601073
 21
770.9658094624
 31
0.0
  0
LINE
  5
2E6
330
1F
100
AcDbEntity
  8
0
  6
CONTINUOUS
 62
     7
100
AcDbLine
 10
916.7188618506
 20
540.9658127407
 30
0.0
 11
916.7188618506
 21
563.9658109227
 31
0.0
  0
LINE
  5
2E7
330
1F
100
AcDbEntity
  8
0
  6
CONTINUOUS
 62
     7
100
AcDbLine
 10
923.1375221337
 20
563.9658109227
 30
0.0
 11
916.7188618506
 21
563.9658109227
 31
0.0
  0
LINE
  5
2E8
330
1F
100
AcDbEntity
  8
0
  6
CONTINUOUS
 62
     7
100
AcDbLine
 10
923.1375221337
 20
540.9658127407
 30
0.0
 11
916.7188618506
 21
540.9658127407
 31
0.0
  0
LINE
  5
2E9
330
1F
100
AcDbEntity
  8
0
  6
CONTINUOUS
 62
     7
100
AcDbLine
 10
916.7188618506
 20
448.9658125619
 30
0.0
 11
916.7188618506
 21
471.9658144692
 31
0.0
  0
LINE
  5
2EA
330
1F
100
AcDbEntity
  8
0
  6
CONTINUOUS
 62
     7
100
AcDbLine
 10
923.1375221337
 20
448.9658125619
 30
0.0
 11
916.7188618506
 21
448.9658125619
 31
0.0
  0
LINE
  5
2EB
330
1F
100
AcDbEntity
  8
0
  6
CONTINUOUS
 62
     7
100
AcDbLine
 10
923.1375221337
 20
471.9658144692
 30
0.0
 11
916.7188618506
 21
471.9658144692
 31
0.0
  0
LINE
  5
2EC
330
1F
100
AcDbEntity
  8
0
  6
CONTINUOUS
 62
     7
100
AcDbLine
 10
916.7188618506
 20
494.9658163766
 30
0.0
 11
916.7188618506
 21
517.9658108333
 31
0.0
  0
LINE
  5
2ED
330
1F
100
AcDbEntity
  8
0
  6
CONTINUOUS
 62
     7
100
AcDbLine
 10
923.1375221337
 20
517.9658108333
 30
0.0
 11
916.7188618506
 21
517.9658108333
 31
0.0
  0
LINE
  5
2EE
330
1F
100
AcDbEntity
  8
0
  6
CONTINUOUS
 62
     7
100
AcDbLine
 10
923.1375221337
 20
494.9658163766
 30
0.0
 11
916.7188618506
 21
494.9658163766
 31
0.0
  0
LINE
  5
2EF
330
1F
100
AcDbEntity
  8
0
  6
CONTINUOUS
 62
     7
100
AcDbLine
 10
916.7188618506
 20
586.9658128301
 30
0.0
 11
916.7188618506
 21
609.9658119435
 31
0.0
  0
LINE
  5
2F0
330
1F
100
AcDbEntity
  8
0
  6
CONTINUOUS
 62
     7
100
AcDbLine
 10
923.1375221337
 20
609.9658119435
 30
0.0
 11
916.7188618506
 21
609.9658119435
 31
0.0
  0
LINE
  5
2F1
330
1F
100
AcDbEntity
  8
0
  6
CONTINUOUS
 62
     7
100
AcDbLine
 10
923.1375221337
 20
586.9658128301
 30
0.0
 11
916.7188618506
 21
586.9658128301
 31
0.0
  0
LINE
  5
2F2
330
1F
100
AcDbEntity
  8
0
  6
CONTINUOUS
 62
     7
100
AcDbLine
 10
916.7188618506
 20
678.9658130089
 30
0.0
 11
916.7188618506
 21
701.965811191
 31
0.0
  0
LINE
  5
2F3
330
1F
100
AcDbEntity
  8
0
  6
CONTINUOUS
 62
     7
100
AcDbLine
 10
923.1375221337
 20
701.965811191
 30
0.0
 11
916.7188618506
 21
701.965811191
 31
0.0
  0
LINE
  5
2F4
330
1F
100
AcDbEntity
  8
0
  6
CONTINUOUS
 62
     7
100
AcDbLine
 10
923.1375221337
 20
678.9658130089
 30
0.0
 11
916.7188618506
 21
678.9658130089
 31
0.0
  0
LINE
  5
2F5
330
1F
100
AcDbEntity
  8
0
  6
CONTINUOUS
 62
     7
100
AcDbLine
 10
916.7188618506
 20
770.9658094624
 30
0.0
 11
916.7188618506
 21
793.9658113698
 31
0.0
  0
LINE
  5
2F6
330
1F
100
AcDbEntity
  8
0
  6
CONTINUOUS
 62
     7
100
AcDbLine
 10
923.1375221337
 20
770.9658094624
 30
0.0
 11
916.7188618506
 21
770.9658094624
 31
0.0
  0
LINE
  5
2F7
330
1F
100
AcDbEntity
  8
0
  6
CONTINUOUS
 62
     7
100
AcDbLine
 10
923.1375221337
 20
793.9658113698
 30
0.0
 11
916.7188618506
 21
793.9658113698
 31
0.0
  0
LINE
  5
2F8
330
1F
100
AcDbEntity
  8
0
  6
CONTINUOUS
 62
     7
100
AcDbLine
 10
916.7188618506
 20
632.9658119882
 30
0.0
 11
916.7188618506
 21
655.9658111015
 31
0.0
  0
LINE
  5
2F9
330
1F
100
AcDbEntity
  8
0
  6
CONTINUOUS
 62
     7
100
AcDbLine
 10
923.1375221337
 20
655.9658111015
 30
0.0
 11
916.7188618506
 21
655.9658111015
 31
0.0
  0
LINE
  5
2FA
330
1F
100
AcDbEntity
  8
0
  6
CONTINUOUS
 62
     7
100
AcDbLine
 10
923.1375221337
 20
632.9658119882
 30
0.0
 11
916.7188618506
 21
632.9658119882
 31
0.0
  0
LINE
  5
2FB
330
1F
100
AcDbEntity
  8
0
  6
CONTINUOUS
 62
     7
100
AcDbLine
 10
916.7188618506
 20
724.9658130983
 30
0.0
 11
916.7188618506
 21
747.9658075551
 31
0.0
  0
LINE
  5
2FC
330
1F
100
AcDbEntity
  8
0
  6
CONTINUOUS
 62
     7
100
AcDbLine
 10
923.1375221337
 20
747.9658075551
 30
0.0
 11
916.7188618506
 21
747.9658075551
 31
0.0
  0
LINE
  5
2FD
330
1F
100
AcDbEntity
  8
0
  6
CONTINUOUS
 62
     7
100
AcDbLine
 10
923.1375221337
 20
724.9658130983
 30
0.0
 11
916.7188618506
 21
724.9658130983
 31
0.0
  0
LINE
  5
2FE
330
1F
100
AcDbEntity
  8
0
  6
CONTINUOUS
 62
     7
100
AcDbLine
 10
913.5351393545
 20
804.0929832438
 30
0.0
 11
912.4608252371
 21
804.8452236632
 31
0.0
  0
ARC
  5
2FF
330
1F
100
AcDbEntity
  8
0
  6
CONTINUOUS
 62
     7
100
AcDbCircle
 10
913.7072060939
 20
804.338735685
 30
0.0
 40
0.3000000000001189
100
AcDbArc
 50
235.0
 51
252.3414428028
  0
ARC
  5
300
330
1F
100
AcDbEntity
  8
0
  6
CONTINUOUS
 62
     7
100
AcDbCircle
 10
914.374562693
 20
806.4350742001
 30
0.0
 40
2.500000000000006
100
AcDbArc
 50
252.3414428028
 51
260.1131852542
  0
ELLIPSE
  5
301
330
1F
100
AcDbEntity
  8
0
  6
CONTINUOUS
 62
     7
100
AcDbEllipse
 10
907.9134995865
 20
797.5501591456
 30
0.0
 11
-6.284122227538205
 21
-6.17538971408635
 31
2.273736754432321E-13
210
3.538501679833968E-14
220
8.112694244292082E-16
230
1.0
 40
0.9988036078
 41
2.365519593132441
 42
3.181691522389633
  0
LINE
  5
302
330
1F
100
AcDbEntity
  8
0
  6
CONTINUOUS
 62
     7
100
AcDbLine
 10
916.7188618506
 20
793.9658113698
 30
0.0
 11
916.7188618506
 21
797.5607016066
 31
0.0
  0
LINE
  5
303
330
1F
100
AcDbEntity
  8
0
  6
CONTINUOUS
 62
     7
100
AcDbLine
 10
916.7188618506
 20
747.9658075551
 30
0.0
 11
916.7188618506
 21
770.9658094624
 31
0.0
  0
LINE
  5
304
330
1F
100
AcDbEntity
  8
0
  6
CONTINUOUS
 62
     7
100
AcDbLine
 10
916.7188618506
 20
701.965811191
 30
0.0
 11
916.7188618506
 21
724.9658130983
 31
0.0
  0
LINE
  5
305
330
1F
100
AcDbEntity
  8
0
  6
CONTINUOUS
 62
     7
100
AcDbLine
 10
916.7188618506
 20
655.9658111015
 30
0.0
 11
916.7188618506
 21
678.9658130089
 31
0.0
  0
LINE
  5
306
330
1F
100
AcDbEntity
  8
0
  6
CONTINUOUS
 62
     7
100
AcDbLine
 10
916.7188618506
 20
609.9658119435
 30
0.0
 11
916.7188618506
 21
632.9658119882
 31
0.0
  0
LINE
  5
307
330
1F
100
AcDbEntity
  8
0
  6
CONTINUOUS
 62
     7
100
AcDbLine
 10
916.7188618506
 20
563.9658109227
 30
0.0
 11
916.7188618506
 21
586.9658128301
 31
0.0
  0
LINE
  5
308
330
1F
100
AcDbEntity
  8
0
  6
CONTINUOUS
 62
     7
100
AcDbLine
 10
916.7188618506
 20
517.9658108333
 30
0.0
 11
916.7188618506
 21
540.9658127407
 31
0.0
  0
LINE
  5
309
330
1F
100
AcDbEntity
  8
0
  6
CONTINUOUS
 62
     7
100
AcDbLine
 10
916.7188618506
 20
471.9658144692
 30
0.0
 11
916.7188618506
 21
494.9658163766
 31
0.0
  0
LINE
  5
30A
330
1F
100
AcDbEntity
  8
0
  6
CONTINUOUS
 62
     7
100
AcDbLine
 10
916.7188618506
 20
445.370922325
 30
0.0
 11
916.7188618506
 21
448.9658125619
 31
0.0
  0
ELLIPSE
  5
30B
330
1F
100
AcDbEntity
  8
0
  6
CONTINUOUS
 62
     7
100
AcDbEllipse
 10
907.9134995865
 20
445.3814647861
 30
0.0
 11
-6.284122227538206
 21
6.175389714086236
 31
2.273736754432321E-13
210
3.651689403964731E-14
220
3.405372242623254E-16
230
0.9999999999999998
 40
0.9988036078
 41
3.101493784790005
 42
3.917665714047155
  0
ARC
  5
30C
330
1F
100
AcDbEntity
  8
0
  6
CONTINUOUS
 62
     7
100
AcDbCircle
 10
914.374562693
 20
436.4965497315
 30
0.0
 40
2.500000000000283
100
AcDbArc
 50
99.8868147458
 51
107.6585571972
  0
ARC
  5
30D
330
1F
100
AcDbEntity
  8
0
  6
CONTINUOUS
 62
     7
100
AcDbCircle
 10
913.7072060939
 20
438.5928882466
 30
0.0
 40
0.3000000000000258
100
AcDbArc
 50
107.6585571973
 51
125.0
  0
LINE
  5
30E
330
1F
100
AcDbEntity
  8
0
  6
CONTINUOUS
 62
     7
100
AcDbLine
 10
913.5351393545
 20
438.8386406878
 30
0.0
 11
912.4608252371
 21
438.0864002684
 31
0.0
  0
ARC
  5
30F
330
1F
100
AcDbEntity
  8
0
  6
CONTINUOUS
 62
     7
100
AcDbCircle
 10
912.6328982594
 20
437.8406498025
 30
0.0
 40
0.299999999999942
100
AcDbArc
 50
125.0
 51
142.3414428028
  0
ARC
  5
310
330
1F
100
AcDbEntity
  8
0
  6
CONTINUOUS
 62
     7
100
AcDbCircle
 10
914.374562693
 20
436.4965497315
 30
0.0
 40
2.500000000000278
100
AcDbArc
 50
142.3414428028
 51
152.1266123039
  0
ELLIPSE
  5
311
330
1F
100
AcDbEntity
  8
0
  6
CONTINUOUS
 62
     7
100
AcDbEllipse
 10
907.9134995865
 20
445.3814647861
 30
0.0
 11
-6.284122227538206
 21
6.175389714086236
 31
2.273736754432321E-13
210
3.651689403964731E-14
220
3.405372242623254E-16
230
0.9999999999999998
 40
0.9988036078
 41
2.365519593132439
 42
2.850702565503325
  0
LINE
  5
312
330
1F
100
AcDbEntity
  8
0
  6
CONTINUOUS
 62
     7
100
AcDbLine
 10
756.8553004588
 20
433.9380362013
 30
0.0
 11
908.0777082766
 21
436.5776278952
 31
0.0
  0
LINE
  5
313
330
1F
100
AcDbEntity
  8
0
  6
CONTINUOUS
 62
     7
100
AcDbLine
 10
605.6328926409
 20
436.5776278952
 30
0.0
 11
756.8553004588
 21
433.9380362013
 31
0.0
  0
ELLIPSE
  5
314
330
1F
100
AcDbEntity
  8
0
  6
CONTINUOUS
 62
     7
100
AcDbEllipse
 10
605.797101331
 20
445.3814647861
 30
0.0
 11
6.284122227538205
 21
6.175389714086293
 31
-2.273736754432321E-13
210
3.538501679834001E-14
220
8.112694244288801E-16
230
1.0
 40
0.9988036078
 41
3.432482741676219
 42
3.917665714047146
  0
ARC
  5
315
330
1F
100
AcDbEntity
  8
0
  6
CONTINUOUS
 62
     7
100
AcDbCircle
 10
599.3360382245
 20
436.4965497315
 30
0.0
 40
2.500000000000109
100
AcDbArc
 50
27.8733876961
 51
37.6585571972
  0
ARC
  5
316
330
1F
100
AcDbEntity
  8
0
  6
CONTINUOUS
 62
     7
100
AcDbCircle
 10
601.0777026581
 20
437.8406498025
 30
0.0
 40
0.2999999999999935
100
AcDbArc
 50
37.6585571973
 51
55.0
  0
LINE
  5
317
330
1F
100
AcDbEntity
  8
0
  6
CONTINUOUS
 62
     7
100
AcDbLine
 10
601.2497756804
 20
438.0864002684
 30
0.0
 11
600.175461563
 21
438.8386406878
 31
0.0
  0
ARC
  5
318
330
1F
100
AcDbEntity
  8
0
  6
CONTINUOUS
 62
     7
100
AcDbCircle
 10
600.0033948236
 20
438.5928882466
 30
0.0
 40
0.3000000000000258
100
AcDbArc
 50
55.0
 51
72.3414428027
  0
ARC
  5
319
330
1F
100
AcDbEntity
  8
0
  6
CONTINUOUS
 62
     7
100
AcDbCircle
 10
599.3360382245
 20
436.4965497315
 30
0.0
 40
2.500000000000062
100
AcDbArc
 50
72.3414428028
 51
80.1131852542
  0
ELLIPSE
  5
31A
330
1F
100
AcDbEntity
  8
0
  6
CONTINUOUS
 62
     7
100
AcDbEllipse
 10
605.797101331
 20
445.3814647861
 30
0.0
 11
6.284122227538205
 21
6.175389714086293
 31
-2.273736754432321E-13
210
3.538501679834001E-14
220
8.112694244288801E-16
230
1.0
 40
0.9988036078
 41
2.365519593132439
 42
3.181691522389637
  0
LINE
  5
31B
330
1F
100
AcDbEntity
  8
0
  6
CONTINUOUS
 62
     7
100
AcDbLine
 10
596.9917390669
 20
797.5607016066
 30
0.0
 11
596.9917390669
 21
445.370922325
 31
0.0
  0
ELLIPSE
  5
31C
330
1F
100
AcDbEntity
  8
0
  6
CONTINUOUS
 62
     7
100
AcDbEllipse
 10
605.797101331
 20
797.5501591456
 30
0.0
 11
6.284122227538206
 21
-6.175389714086236
 31
-2.273736754432321E-13
210
3.651689403964731E-14
220
3.405372242623254E-16
230
0.9999999999999998
 40
0.9988036078
 41
3.10149378478994
 42
3.91766571404715
  0
ARC
  5
31D
330
1F
100
AcDbEntity
  8
0
  6
CONTINUOUS
 62
     7
100
AcDbCircle
 10
600.0033948236
 20
804.338735685
 30
0.0
 40
0.3000000000000258
100
AcDbArc
 50
287.6585571973
 51
305.0
  0
LINE
  5
31E
330
1F
100
AcDbEntity
  8
0
  6
CONTINUOUS
 62
     7
100
AcDbLine
 10
601.2497756804
 20
804.8452236632
 30
0.0
 11
600.175461563
 21
804.0929832438
 31
0.0
  0
ARC
  5
31F
330
1F
100
AcDbEntity
  8
0
  6
CONTINUOUS
 62
     7
100
AcDbCircle
 10
601.0777026581
 20
805.0909741291
 30
0.0
 40
0.2999999999999885
100
AcDbArc
 50
305.0
 51
322.3414428028
  0
ELLIPSE
  5
320
330
1F
100
AcDbEntity
  8
0
  6
CONTINUOUS
 62
     7
100
AcDbEllipse
 10
605.797101331
 20
797.5501591456
 30
0.0
 11
6.284122227538206
 21
-6.175389714086236
 31
-2.273736754432321E-13
210
3.651689403964731E-14
220
3.405372242623254E-16
230
0.9999999999999998
 40
0.9988036078
 41
2.365519593132449
 42
2.85070256550338
  0
LINE
  5
321
330
1F
100
AcDbEntity
  8
0
  6
CONTINUOUS
 62
     7
100
AcDbLine
 10
756.8553004588
 20
808.9935877303
 30
0.0
 11
605.6328926409
 21
806.3539960364
 31
0.0
  0
LINE
  5
322
330
1F
100
AcDbEntity
  8
0
  6
CONTINUOUS
 62
     7
100
AcDbLine
 10
908.0777082766
 20
806.3539960364
 30
0.0
 11
756.8553004588
 21
808.9935877303
 31
0.0
  0
ELLIPSE
  5
323
330
1F
100
AcDbEntity
  8
0
  6
CONTINUOUS
 62
     7
100
AcDbEllipse
 10
907.9134995865
 20
797.5501591456
 30
0.0
 11
-6.284122227538205
 21
-6.17538971408635
 31
2.273736754432321E-13
210
3.538501679833968E-14
220
8.112694244292082E-16
230
1.0
 40
0.9988036078
 41
3.432482741676171
 42
3.917665714047155
  0
ARC
  5
324
330
1F
100
AcDbEntity
  8
0
  6
CONTINUOUS
 62
     7
100
AcDbCircle
 10
914.374562693
 20
806.4350742001
 30
0.0
 40
2.499999999999971
100
AcDbArc
 50
207.8733876961
 51
217.6585571972
  0
ARC
  5
325
330
1F
100
AcDbEntity
  8
0
  6
CONTINUOUS
 62
     7
100
AcDbCircle
 10
912.6328982594
 20
805.0909741291
 30
0.0
 40
0.2999999999999588
100
AcDbArc
 50
217.6585571972
 51
235.0
  0
ELLIPSE
  5
326
330
1F
100
AcDbEntity
  8
0
  6
CONTINUOUS
 62
     7
100
AcDbEllipse
 10
607.8926516576
 20
795.4908675749
 30
0.0
 11
1.071157197875891
 21
-1.052623246719236
 31
-4.263256414560601E-14
210
4.016858344361152E-14
220
3.745909466903288E-16
230
0.9999999999999999
 40
0.9988036078
 41
2.36551959313232
 42
3.917665714047096
  0
LINE
  5
327
330
1F
100
AcDbEntity
  8
0
  6
CONTINUOUS
 62
     7
100
AcDbLine
 10
606.3917342747
 20
795.4926588515
 30
0.0
 11
606.3917342747
 21
445.9658064822
 31
0.0
  0
LINE
  5
328
330
1F
100
AcDbEntity
  8
0
  6
CONTINUOUS
 62
     7
100
AcDbLine
 10
606.3917342747
 20
445.9658064822
 30
0.0
 11
756.8553004588
 21
443.3394619206
 31
0.0
  0
LINE
  5
329
330
1F
100
AcDbEntity
  8
0
  6
CONTINUOUS
 62
     7
100
AcDbLine
 10
756.8553004588
 20
443.3394619206
 30
0.0
 11
905.8459464634
 21
445.9401019791
 31
0.0
  0
ELLIPSE
  5
32A
330
1F
100
AcDbEntity
  8
0
  6
CONTINUOUS
 62
     7
100
AcDbEllipse
 10
905.8179492599
 20
447.4407563568
 30
0.0
 11
1.071157197876005
 21
-1.052623246719236
 31
-2.842170943040401E-14
210
2.677905562907005E-14
220
2.497272977920768E-16
230
1.0
 40
0.9988036078
 41
5.507112246722176
 42
7.059258367636886
  0
LINE
  5
32B
330
1F
100
AcDbEntity
  8
0
  6
CONTINUOUS
 62
     7
100
AcDbLine
 10
907.3188666428
 20
447.4389650801
 30
0.0
 11
907.3188666428
 21
795.4926588515
 31
0.0
  0
ELLIPSE
  5
32C
330
1F
100
AcDbEntity
  8
0
  6
CONTINUOUS
 62
     7
100
AcDbEllipse
 10
905.8179492599
 20
795.4908675749
 30
0.0
 11
-1.071157197875777
 21
-1.052623246719236
 31
4.263256414560600E-14
210
3.352823696127380E-14
220
6.382674725637069E-15
230
1.0
 40
0.9988036078
 41
2.365519593132531
 42
3.917665714047071
  0
LINE
  5
32D
330
1F
100
AcDbEntity
  8
0
  6
CONTINUOUS
 62
     7
100
AcDbLine
 10
905.8459464634
 20
796.9915219525
 30
0.0
 11
756.8553004588
 21
799.592162011
 31
0.0
  0
LINE
  5
32E
330
1F
100
AcDbEntity
  8
0
  6
CONTINUOUS
 62
     7
100
AcDbLine
 10
756.8553004588
 20
799.592162011
 30
0.0
 11
607.8646544541
 21
796.9915219525
 31
0.0
  0
ARC
  5
32F
330
1F
100
AcDbEntity
  8
0
  6
CONTINUOUS
 62
     7
100
AcDbCircle
 10
599.3360382245
 20
806.4350742001
 30
0.0
 40
2.500000000000109
100
AcDbArc
 50
322.3414428028
 51
332.1266123039
  0
ARC
  5
330
330
1F
100
AcDbEntity
  8
0
  6
CONTINUOUS
 62
     7
100
AcDbCircle
 10
599.3360382245
 20
806.4350742001
 30
0.0
 40
2.499999999999942
100
AcDbArc
 50
279.8868147458
 51
287.6585571972
  0
LINE
  5
331
330
1F
100
AcDbEntity
  8
0
  6
CONTINUOUS
 62
     7
100
AcDbLine
 10
596.9917390669
 20
797.5607016066
 30
0.0
 11
596.7056814755
 21
797.8418120125
 31
0.0
  0
ELLIPSE
  5
332
330
1F
100
AcDbEntity
  8
0
  6
CONTINUOUS
 62
     7
100
AcDbEllipse
 10
605.446166256
 20
797.8950220833
 30
0.0
 11
2.961928728213479
 21
8.302218762427515
 31
0.0
210
0.0
220
0.0
230
1.0
 40
0.9904973314
 41
1.338313449148058
 42
1.916516772877608
  0
LINE
  5
333
330
1F
100
AcDbEntity
  8
0
  6
CONTINUOUS
 62
     7
100
AcDbLine
 10
598.126477393
 20
802.6626654843
 30
0.0
 11
599.1341833199
 21
803.943241475
 31
0.0
  0
LWPOLYLINE
  5
334
330
1F
100
AcDbEntity
  8
0
  6
CONTINUOUS
 62
     7
100
AcDbPolyline
 90
        3
 70
   128
 43
0.0
 10
599.7652921999
 20
803.9722093323
 10
599.6251467789
 20
803.9518543461
 10
599.1341833199
 20
803.943241475
  0
LWPOLYLINE
  5
335
330
1F
100
AcDbEntity
  8
0
  6
CONTINUOUS
 62
     7
100
AcDbPolyline
 90
        3
 70
   128
 43
0.0
 10
599.1341833199
 20
438.9883824566
 10
598.8978956068
 20
439.246977208
 10
598.126477393
 20
440.2689584473
  0
ELLIPSE
  5
336
330
1F
100
AcDbEntity
  8
0
  6
CONTINUOUS
 62
     7
100
AcDbEllipse
 10
605.446166256
 20
445.0366018483
 30
0.0
 11
-2.961928728213593
 21
8.302218762427401
 31
0.0
210
0.0
220
0.0
230
0.9999999999999997
 40
0.9904973314
 41
1.225075880712164
 42
1.803279204441733
  0
LINE
  5
337
330
1F
100
AcDbEntity
  8
0
  6
CONTINUOUS
 62
     7
100
AcDbLine
 10
596.7056814755
 20
445.0898119191
 30
0.0
 11
596.9917390669
 21
445.370922325
 31
0.0
  0
LWPOLYLINE
  5
338
330
1F
100
AcDbEntity
  8
0
  6
CONTINUOUS
 62
     7
100
AcDbPolyline
 90
        3
 70
   128
 43
0.0
 10
599.7652921999
 20
438.9594145993
 10
599.6251467789
 20
438.9797695855
 10
599.1341833199
 20
438.9883824566
  0
LINE
  5
339
330
1F
100
AcDbEntity
  8
0
  6
CONTINUOUS
 62
     7
100
AcDbLine
 10
596.7056814755
 20
445.0898119191
 30
0.0
 11
596.7056814755
 21
797.8418120125
 31
0.0
  0
LINE
  5
33A
330
1F
100
AcDbEntity
  8
0
  6
CONTINUOUS
 62
     7
100
AcDbLine
 10
605.6328926409
 20
436.5776278952
 30
0.0
 11
605.3303990687
 21
436.2803646306
 31
0.0
  0
ELLIPSE
  5
33B
330
1F
100
AcDbEntity
  8
0
  6
CONTINUOUS
 62
     7
100
AcDbEllipse
 10
605.429734194
 20
445.020454106
 30
0.0
 11
8.278868221046309
 21
-3.028430899496982
 31
0.0
210
0.0
220
0.0
230
1.0
 40
0.9904809187
 41
4.879827987689638
 42
5.048715692216326
  0
LINE
  5
33C
330
1F
100
AcDbEntity
  8
0
  6
CONTINUOUS
 62
     7
100
AcDbLine
 10
603.8518164481
 20
436.4303597191
 30
0.0
 11
601.7620328987
 21
437.1003159264
 31
0.0
  0
LWPOLYLINE
  5
33D
330
1F
100
AcDbEntity
  8
0
  6
CONTINUOUS
 62
     7
100
AcDbPolyline
 90
        3
 70
   128
 43
0.0
 10
601.7620328987
 20
437.1003159264
 10
601.7008785332
 20
437.307442067
 10
601.5459958638
 20
437.6653530577
  0
ELLIPSE
  5
33E
330
1F
100
AcDbEntity
  8
0
  6
CONTINUOUS
 62
     7
100
AcDbEllipse
 10
605.429734194
 20
797.9111698256
 30
0.0
 11
8.278868221046309
 21
3.028430899497039
 31
0.0
210
0.0
220
0.0
230
0.9999999999999999
 40
0.9904809187
 41
1.23446961496327
 42
1.403357319489981
  0
LINE
  5
33F
330
1F
100
AcDbEntity
  8
0
  6
CONTINUOUS
 62
     7
100
AcDbLine
 10
605.3303990687
 20
806.6512593011
 30
0.0
 11
605.6328926409
 21
806.3539960364
 31
0.0
  0
LWPOLYLINE
  5
340
330
1F
100
AcDbEntity
  8
0
  6
CONTINUOUS
 62
     7
100
AcDbPolyline
 90
        3
 70
   128
 43
0.0
 10
601.7620328987
 20
805.8313080052
 10
602.5575462902
 20
806.1553486565
 10
603.8518164481
 20
806.5012642125
  0
LWPOLYLINE
  5
341
330
1F
100
AcDbEntity
  8
0
  6
CONTINUOUS
 62
     7
100
AcDbPolyline
 90
        3
 70
   128
 43
0.0
 10
601.7620328987
 20
805.8313080052
 10
601.7008785332
 20
805.6241818646
 10
601.5459958638
 20
805.2662708739
  0
LINE
  5
342
330
1F
100
AcDbEntity
  8
0
  6
CONTINUOUS
 62
     7
100
AcDbLine
 10
756.8553004588
 20
433.6549737433
 30
0.0
 11
756.8553004588
 21
433.9380362013
 31
0.0
  0
LINE
  5
343
330
1F
100
AcDbEntity
  8
0
  6
CONTINUOUS
 62
     7
100
AcDbLine
 10
756.8553004588
 20
433.6549737433
 30
0.0
 11
605.3303990687
 21
436.2803646306
 31
0.0
  0
LINE
  5
344
330
1F
100
AcDbEntity
  8
0
  6
CONTINUOUS
 62
     7
100
AcDbLine
 10
756.8553004588
 20
809.2766501883
 30
0.0
 11
756.8553004588
 21
808.9935877303
 31
0.0
  0
LINE
  5
345
330
1F
100
AcDbEntity
  8
0
  6
CONTINUOUS
 62
     7
100
AcDbLine
 10
605.3303990687
 20
806.6512593011
 30
0.0
 11
756.8553004588
 21
809.2766501883
 31
0.0
  0
LINE
  5
346
330
1F
100
AcDbEntity
  8
0
  6
CONTINUOUS
 62
     7
100
AcDbLine
 10
607.8646544541
 20
796.9915219525
 30
0.0
 11
608.926257881
 21
795.9482916573
 31
0.0
  0
ELLIPSE
  5
347
330
1F
100
AcDbEntity
  8
0
  6
CONTINUOUS
 62
     7
100
AcDbEllipse
 10
608.9542430502
 20
794.4476446189
 30
0.0
 11
1.071157197875891
 21
-1.052623246719349
 31
-2.842170943040401E-14
210
2.677905562907435E-14
220
2.497272977935425E-16
230
1.0
 40
0.9988036078
 41
2.365519593132502
 42
3.917665714047252
  0
LINE
  5
348
330
1F
100
AcDbEntity
  8
0
  6
CONTINUOUS
 62
     7
100
AcDbLine
 10
607.4533228005
 20
794.4494434575
 30
0.0
 11
606.3917342747
 21
795.4926588515
 31
0.0
  0
LINE
  5
349
330
1F
100
AcDbEntity
  8
0
  6
CONTINUOUS
 62
     7
100
AcDbLine
 10
756.8553004588
 20
443.6663486937
 30
0.0
 11
756.8553004588
 21
443.3394619206
 31
0.0
  0
LINE
  5
34A
330
1F
100
AcDbEntity
  8
0
  6
CONTINUOUS
 62
     7
100
AcDbLine
 10
607.4533228005
 20
447.0090367774
 30
0.0
 11
606.3917342747
 21
445.9658064822
 31
0.0
  0
LINE
  5
34B
330
1F
100
AcDbEntity
  8
0
  6
CONTINUOUS
 62
     7
100
AcDbLine
 10
607.4533228005
 20
447.0090367774
 30
0.0
 11
718.8950952316
 21
445.0638093928
 31
0.0
  0
LINE
  5
34C
330
1F
100
AcDbEntity
  8
0
  6
CONTINUOUS
 62
     7
100
AcDbLine
 10
739.0203576709
 20
444.0106996277
 30
0.0
 11
718.8950952316
 21
445.0638093928
 31
0.0
  0
LINE
  5
34D
330
1F
100
AcDbEntity
  8
0
  6
CONTINUOUS
 62
     7
100
AcDbLine
 10
739.0203576709
 20
444.0106996277
 30
0.0
 11
756.8553004588
 21
443.6663486937
 31
0.0
  0
LINE
  5
34E
330
1F
100
AcDbEntity
  8
0
  6
CONTINUOUS
 62
     7
100
AcDbLine
 10
607.4533228005
 20
794.4494434575
 30
0.0
 11
607.4533228005
 21
447.0090367774
 31
0.0
  0
LINE
  5
34F
330
1F
100
AcDbEntity
  8
0
  6
CONTINUOUS
 62
     7
100
AcDbLine
 10
756.8553004588
 20
799.2345639447
 30
0.0
 11
756.8553004588
 21
799.592162011
 31
0.0
  0
LINE
  5
350
330
1F
100
AcDbEntity
  8
0
  6
CONTINUOUS
 62
     7
100
AcDbLine
 10
739.0203576709
 20
798.9209243039
 30
0.0
 11
756.8553004588
 21
799.2345639447
 31
0.0
  0
LINE
  5
351
330
1F
100
AcDbEntity
  8
0
  6
CONTINUOUS
 62
     7
100
AcDbLine
 10
718.8950952316
 20
797.8678145388
 30
0.0
 11
739.0203576709
 21
798.9209243039
 31
0.0
  0
LINE
  5
352
330
1F
100
AcDbEntity
  8
0
  6
CONTINUOUS
 62
     7
100
AcDbLine
 10
718.8950952316
 20
797.8678145388
 30
0.0
 11
608.926257881
 21
795.9482916573
 31
0.0
  0
LINE
  5
353
330
1F
100
AcDbEntity
  8
0
  6
CONTINUOUS
 62
     7
100
AcDbLine
 10
756.8553004588
 20
809.2766501883
 30
0.0
 11
908.3802018488
 21
806.6512593011
 31
0.0
  0
LINE
  5
354
330
1F
100
AcDbEntity
  8
0
  6
CONTINUOUS
 62
     7
100
AcDbLine
 10
908.0777082766
 20
806.3539960364
 30
0.0
 11
908.3802018488
 21
806.6512593011
 31
0.0
  0
LINE
  5
355
330
1F
100
AcDbEntity
  8
0
  6
CONTINUOUS
 62
     7
100
AcDbLine
 10
908.3802018488
 20
436.2803646306
 30
0.0
 11
908.0777082766
 21
436.5776278952
 31
0.0
  0
LINE
  5
356
330
1F
100
AcDbEntity
  8
0
  6
CONTINUOUS
 62
     7
100
AcDbLine
 10
908.3802018488
 20
436.2803646306
 30
0.0
 11
756.8553004588
 21
433.6549737433
 31
0.0
  0
LINE
  5
357
330
1F
100
AcDbEntity
  8
0
  6
CONTINUOUS
 62
     7
100
AcDbLine
 10
774.6902432466
 20
798.9209243039
 30
0.0
 11
794.8155056859
 21
797.8678145388
 31
0.0
  0
LINE
  5
358
330
1F
100
AcDbEntity
  8
0
  6
CONTINUOUS
 62
     7
100
AcDbLine
 10
756.8553004588
 20
799.2345639447
 30
0.0
 11
774.6902432466
 21
798.9209243039
 31
0.0
  0
LINE
  5
359
330
1F
100
AcDbEntity
  8
0
  6
CONTINUOUS
 62
     7
100
AcDbLine
 10
904.7843430365
 20
795.9482916573
 30
0.0
 11
905.8459464634
 21
796.9915219525
 31
0.0
  0
LINE
  5
35A
330
1F
100
AcDbEntity
  8
0
  6
CONTINUOUS
 62
     7
100
AcDbLine
 10
904.7843430365
 20
795.9482916573
 30
0.0
 11
794.8155056859
 21
797.8678145388
 31
0.0
  0
LINE
  5
35B
330
1F
100
AcDbEntity
  8
0
  6
CONTINUOUS
 62
     7
100
AcDbLine
 10
794.8155056859
 20
445.0638093928
 30
0.0
 11
904.7843430365
 21
446.9833322743
 31
0.0
  0
LINE
  5
35C
330
1F
100
AcDbEntity
  8
0
  6
CONTINUOUS
 62
     7
100
AcDbLine
 10
905.8459464634
 20
445.9401019791
 30
0.0
 11
904.7843430365
 21
446.9833322743
 31
0.0
  0
LINE
  5
35D
330
1F
100
AcDbEntity
  8
0
  6
CONTINUOUS
 62
     7
100
AcDbLine
 10
774.6902432466
 20
444.0106996277
 30
0.0
 11
756.8553004588
 21
443.6663486937
 31
0.0
  0
LINE
  5
35E
330
1F
100
AcDbEntity
  8
0
  6
CONTINUOUS
 62
     7
100
AcDbLine
 10
794.8155056859
 20
445.0638093928
 30
0.0
 11
774.6902432466
 21
444.0106996277
 31
0.0
  0
ELLIPSE
  5
35F
330
1F
100
AcDbEntity
  8
0
  6
CONTINUOUS
 62
     7
100
AcDbEllipse
 10
904.7563578673
 20
448.4839793128
 30
0.0
 11
1.071157197875891
 21
-1.052623246719236
 31
-4.263256414560601E-14
210
4.016858344360938E-14
220
3.745909466881610E-16
230
0.9999999999999998
 40
0.9988036078
 41
5.50711224672223
 42
7.059258367636938
  0
LINE
  5
360
330
1F
100
AcDbEntity
  8
0
  6
CONTINUOUS
 62
     7
100
AcDbLine
 10
906.257278117
 20
448.4821804742
 30
0.0
 11
907.3188666428
 21
447.4389650801
 31
0.0
  0
LINE
  5
361
330
1F
100
AcDbEntity
  8
0
  6
CONTINUOUS
 62
     7
100
AcDbLine
 10
907.3188666428
 20
795.4926588515
 30
0.0
 11
906.257278117
 21
794.4494434575
 31
0.0
  0
ELLIPSE
  5
362
330
1F
100
AcDbEntity
  8
0
  6
CONTINUOUS
 62
     7
100
AcDbEllipse
 10
904.7563578673
 20
794.4476446189
 30
0.0
 11
-1.071157197875777
 21
-1.052623246719349
 31
2.842170943040400E-14
210
3.341940211141072E-14
220
-7.006992970111613E-15
230
1.0
 40
0.9988036078
 41
2.365519593132273
 42
3.917665714047068
  0
LINE
  5
363
330
1F
100
AcDbEntity
  8
0
  6
CONTINUOUS
 62
     7
100
AcDbLine
 10
906.257278117
 20
448.4821804742
 30
0.0
 11
906.257278117
 21
794.4494434575
 31
0.0
  0
LWPOLYLINE
  5
364
330
1F
100
AcDbEntity
  8
0
  6
CONTINUOUS
 62
     7
100
AcDbPolyline
 90
        3
 70
   128
 43
0.0
 10
911.9485680188
 20
437.1003159264
 10
911.1530546273
 20
436.7762752751
 10
909.8587844694
 20
436.4303597191
  0
ELLIPSE
  5
365
330
1F
100
AcDbEntity
  8
0
  6
CONTINUOUS
 62
     7
100
AcDbEllipse
 10
908.2808667235
 20
445.020454106
 30
0.0
 11
8.278868221046764
 21
3.028430899496015
 31
0.0
210
0.0
220
0.0
230
1.0
 40
0.9904809187
 41
4.376062268553206
 42
4.544949973079889
  0
LWPOLYLINE
  5
366
330
1F
100
AcDbEntity
  8
0
  6
CONTINUOUS
 62
     7
100
AcDbPolyline
 90
        3
 70
   128
 43
0.0
 10
912.1646050537
 20
437.6653530577
 10
912.0194379414
 20
437.3352178315
 10
911.9485680188
 20
437.1003159264
  0
ELLIPSE
  5
367
330
1F
100
AcDbEntity
  8
0
  6
CONTINUOUS
 62
     7
100
AcDbEllipse
 10
908.2808667235
 20
797.9111698256
 30
0.0
 11
8.278868221046764
 21
-3.028430899496015
 31
0.0
210
0.0
220
0.0
230
1.0
 40
0.9904809187
 41
1.738235334099698
 42
1.907123038626394
  0
LINE
  5
368
330
1F
100
AcDbEntity
  8
0
  6
CONTINUOUS
 62
     7
100
AcDbLine
 10
909.8587844694
 20
806.5012642125
 30
0.0
 11
911.9485680188
 21
805.8313080052
 31
0.0
  0
LWPOLYLINE
  5
369
330
1F
100
AcDbEntity
  8
0
  6
CONTINUOUS
 62
     7
100
AcDbPolyline
 90
        3
 70
   128
 43
0.0
 10
912.1646050537
 20
805.2662708739
 10
912.1315095747
 20
805.3311356286
 10
911.9485680188
 20
805.8313080052
  0
LINE
  5
36A
330
1F
100
AcDbEntity
  8
0
  6
CONTINUOUS
 62
     7
100
AcDbLine
 10
916.7188618506
 20
445.370922325
 30
0.0
 11
917.004919442
 21
445.0898119191
 31
0.0
  0
ELLIPSE
  5
36B
330
1F
100
AcDbEntity
  8
0
  6
CONTINUOUS
 62
     7
100
AcDbEllipse
 10
908.2644346615
 20
445.0366018483
 30
0.0
 11
2.961928728214389
 21
8.30221876242706
 31
0.0
210
0.0
220
0.0
230
0.9999999999999999
 40
0.9904973314
 41
4.479906102737948
 42
5.058109426467531
  0
LINE
  5
36C
330
1F
100
AcDbEntity
  8
0
  6
CONTINUOUS
 62
     7
100
AcDbLine
 10
915.5841235245
 20
440.2689584473
 30
0.0
 11
914.5764175976
 21
438.9883824566
 31
0.0
  0
LWPOLYLINE
  5
36D
330
1F
100
AcDbEntity
  8
0
  6
CONTINUOUS
 62
     7
100
AcDbPolyline
 90
        3
 70
   128
 43
0.0
 10
914.5764175976
 20
438.9883824566
 10
914.2493669117
 20
438.9934190491
 10
913.9453087176
 20
438.9594145993
  0
ELLIPSE
  5
36E
330
1F
100
AcDbEntity
  8
0
  6
CONTINUOUS
 62
     7
100
AcDbEllipse
 10
908.2644346615
 20
797.8950220833
 30
0.0
 11
-2.961928728214502
 21
8.30221876242706
 31
0.0
210
0.0
220
0.0
230
1.0
 40
0.9904973314
 41
4.366668534301867
 42
4.944871858031416
  0
LINE
  5
36F
330
1F
100
AcDbEntity
  8
0
  6
CONTINUOUS
 62
     7
100
AcDbLine
 10
917.004919442
 20
797.8418120125
 30
0.0
 11
916.7188618506
 21
797.5607016066
 31
0.0
  0
LWPOLYLINE
  5
370
330
1F
100
AcDbEntity
  8
0
  6
CONTINUOUS
 62
     7
100
AcDbPolyline
 90
        3
 70
   128
 43
0.0
 10
914.5764175976
 20
803.943241475
 10
914.8127053107
 20
803.6846467236
 10
915.5841235245
 20
802.6626654843
  0
LWPOLYLINE
  5
371
330
1F
100
AcDbEntity
  8
0
  6
CONTINUOUS
 62
     7
100
AcDbPolyline
 90
        3
 70
   128
 43
0.0
 10
914.5764175976
 20
803.943241475
 10
914.3534962262
 20
803.9351650456
 10
913.9453087176
 20
803.9722093323
  0
LINE
  5
372
330
1F
100
AcDbEntity
  8
0
  6
CONTINUOUS
 62
     7
100
AcDbLine
 10
917.004919442
 20
770.9658094624
 30
0.0
 11
917.004919442
 21
747.9658075551
 31
0.0
  0
LINE
  5
373
330
1F
100
AcDbEntity
  8
0
  6
CONTINUOUS
 62
     7
100
AcDbLine
 10
917.004919442
 20
797.8418120125
 30
0.0
 11
917.004919442
 21
793.9658113698
 31
0.0
  0
LINE
  5
374
330
1F
100
AcDbEntity
  8
0
  6
CONTINUOUS
 62
     7
100
AcDbLine
 10
917.004919442
 20
494.9658163766
 30
0.0
 11
917.004919442
 21
471.9658144692
 31
0.0
  0
LINE
  5
375
330
1F
100
AcDbEntity
  8
0
  6
CONTINUOUS
 62
     7
100
AcDbLine
 10
917.004919442
 20
448.9658125619
 30
0.0
 11
917.004919442
 21
445.0898119191
 31
0.0
  0
LINE
  5
376
330
1F
100
AcDbEntity
  8
0
  6
CONTINUOUS
 62
     7
100
AcDbLine
 10
917.004919442
 20
540.9658127407
 30
0.0
 11
917.004919442
 21
517.9658108333
 31
0.0
  0
LINE
  5
377
330
1F
100
AcDbEntity
  8
0
  6
CONTINUOUS
 62
     7
100
AcDbLine
 10
917.004919442
 20
678.9658130089
 30
0.0
 11
917.004919442
 21
655.9658111015
 31
0.0
  0
LINE
  5
378
330
1F
100
AcDbEntity
  8
0
  6
CONTINUOUS
 62
     7
100
AcDbLine
 10
917.004919442
 20
586.9658128301
 30
0.0
 11
917.004919442
 21
563.9658109227
 31
0.0
  0
LINE
  5
379
330
1F
100
AcDbEntity
  8
0
  6
CONTINUOUS
 62
     7
100
AcDbLine
 10
917.004919442
 20
724.9658130983
 30
0.0
 11
917.004919442
 21
701.965811191
 31
0.0
  0
LINE
  5
37A
330
1F
100
AcDbEntity
  8
0
  6
CONTINUOUS
 62
     7
100
AcDbLine
 10
917.004919442
 20
632.9658119882
 30
0.0
 11
917.004919442
 21
609.9658119435
 31
0.0
  0
ARC
  5
37B
330
1F
100
AcDbEntity
  8
0
  6
CONTINUOUS
 62
     7
100
AcDbCircle
 10
920.429657501
 20
575.6905533789
 30
0.0
 40
0.9322230738984396
100
AcDbArc
 50
2.1173275089
 51
73.9573811464
  0
ARC
  5
37C
330
1F
100
AcDbEntity
  8
0
  6
CONTINUOUS
 62
     7
100
AcDbCircle
 10
919.7545710642
 20
573.8028076696
 30
0.0
 40
2.935768036014188
100
AcDbArc
 50
71.4758052632
 51
91.0161697751
  0
LWPOLYLINE
  5
37D
330
1F
100
AcDbEntity
  8
0
  6
CONTINUOUS
 62
     7
100
AcDbPolyline
 90
        7
 70
   128
 43
0.0
 10
919.7025064553
 20
576.7381139973
 10
919.2534152592
 20
576.7142125348
 10
918.631351384
 20
576.5525982658
 10
918.340436014
 20
576.3681889454
 10
918.1296441878
 20
576.0876336077
 10
918.0474791849
 20
575.7877402881
 10
918.0437538946
 20
575.7250101248
  0
LWPOLYLINE
  5
37E
330
1F
100
AcDbEntity
  8
0
  6
CONTINUOUS
 62
     7
100
AcDbPolyline
 90
        6
 70
   128
 43
0.0
 10
918.0437538946
 20
575.7250101248
 10
918.1101981724
 20
575.4008130113
 10
918.2750050152
 20
575.1430340985
 10
918.5193244541
 20
574.9482461194
 10
918.9568970526
 20
574.7900106887
 10
919.7025064553
 20
574.7311324755
  0
LWPOLYLINE
  5
37F
330
1F
100
AcDbEntity
  8
0
  6
CONTINUOUS
 62
     7
100
AcDbPolyline
 90
        7
 70
   128
 43
0.0
 10
919.7025064553
 20
574.7311324755
 10
920.1517764653
 20
574.7490958253
 10
920.7315955485
 20
574.8725407699
 10
921.035132202
 20
575.0516825298
 10
921.2598417128
 20
575.3303379694
 10
921.3489953602
 20
575.5853080133
 10
921.3612441147
 20
575.7249952236
  0
LWPOLYLINE
  5
380
330
1F
100
AcDbEntity
  8
0
  6
CONTINUOUS
 62
     7
100
AcDbPolyline
 90
        7
 70
   128
 43
0.0
 10
919.7040710772
 20
574.3791409711
 10
919.2548457707
 20
574.3956700841
 10
918.370014819
 20
574.6084698418
 10
918.0137131537
 20
574.8547115306
 10
917.7581284369
 20
575.2118402103
 10
917.6539693201
 20
575.6026902178
 10
917.6493052567
 20
575.712988613
  0
LWPOLYLINE
  5
381
330
1F
100
AcDbEntity
  8
0
  6
CONTINUOUS
 62
     7
100
AcDbPolyline
 90
        6
 70
   128
 43
0.0
 10
917.6493052567
 20
575.712988613
 10
917.7308891142
 20
576.1570767442
 10
917.9707978094
 20
576.5389525274
 10
918.2775680149
 20
576.7840468267
 10
918.8824657524
 20
577.015923796
 10
919.7040710772
 20
577.0901055018
  0
LWPOLYLINE
  5
382
330
1F
100
AcDbEntity
  8
0
  6
CONTINUOUS
 62
     7
100
AcDbPolyline
 90
        7
 70
   128
 43
0.0
 10
919.7040710772
 20
577.0901055018
 10
920.1531920756
 20
577.0710059384
 10
921.0350576962
 20
576.8373631815
 10
921.4010451163
 20
576.5739106516
 10
921.658105048
 20
576.1949741224
 10
921.7530999506
 20
575.8003056923
 10
921.7557076538
 20
575.7129923383
  0
LWPOLYLINE
  5
383
330
1F
100
AcDbEntity
  8
0
  6
CONTINUOUS
 62
     7
100
AcDbPolyline
 90
        6
 70
   128
 43
0.0
 10
921.7557076538
 20
575.7129923383
 10
921.6769103134
 20
575.2802104632
 10
921.4439455593
 20
574.9078490714
 10
921.1400065745
 20
574.667720584
 10
920.5744479025
 20
574.4551592449
 10
919.7040710772
 20
574.3791409711
  0
LWPOLYLINE
  5
384
330
1F
100
AcDbEntity
  8
0
  6
CONTINUOUS
 62
     7
100
AcDbPolyline
 90
        4
 70
   128
 43
0.0
 10
921.7557076538
 20
575.7129923383
 10
921.7686269606
 20
575.7129923383
 10
921.7815462674
 20
575.7129923383
 10
921.8007091606
 20
575.712988613
  0
LWPOLYLINE
  5
385
330
1F
100
AcDbEntity
  8
0
  6
CONTINUOUS
 62
     7
100
AcDbPolyline
 90
        4
 70
   128
 43
0.0
 10
919.7040710772
 20
577.0901055018
 10
919.7160069073
 20
577.0911076048
 10
919.7279427374
 20
577.0921134332
 10
919.7456602181
 20
577.0935998241
  0
LWPOLYLINE
  5
386
330
1F
100
AcDbEntity
  8
0
  6
CONTINUOUS
 62
     7
100
AcDbPolyline
 90
        7
 70
   128
 43
0.0
 10
919.7456602181
 20
577.0935998241
 10
920.1947663153
 20
577.0745114366
 10
921.0766766394
 20
576.8412561098
 10
921.4443478907
 20
576.5770696977
 10
921.7026446188
 20
576.1967585364
 10
921.798056754
 20
575.8009129146
 10
921.8007091606
 20
575.712988613
  0
ARC
  5
387
330
1F
100
AcDbEntity
  8
0
  6
CONTINUOUS
 62
     7
100
AcDbCircle
 10
920.4296522359
 20
572.6136272603
 30
0.0
 40
0.9322283444922006
100
AcDbArc
 50
2.117330593
 51
73.9571375801
  0
ARC
  5
388
330
1F
100
AcDbEntity
  8
0
  6
CONTINUOUS
 62
     7
100
AcDbCircle
 10
919.7545266863
 20
570.7255973276
 30
0.0
 40
2.936055397632148
100
AcDbArc
 50
71.4767708799
 51
91.0152041584
  0
LWPOLYLINE
  5
389
330
1F
100
AcDbEntity
  8
0
  6
CONTINUOUS
 62
     7
100
AcDbPolyline
 90
        7
 70
   128
 43
0.0
 10
919.7025064553
 20
573.6611918489
 10
919.2534152592
 20
573.6372903863
 10
918.631351384
 20
573.475672392
 10
918.340436014
 20
573.2912667969
 10
918.1296441878
 20
573.0107114593
 10
918.0474791849
 20
572.7108181397
 10
918.0437538946
 20
572.6480879763
  0
LWPOLYLINE
  5
38A
330
1F
100
AcDbEntity
  8
0
  6
CONTINUOUS
 62
     7
100
AcDbPolyline
 90
        6
 70
   128
 43
0.0
 10
918.0437538946
 20
572.6480879763
 10
918.1101981724
 20
572.3238871375
 10
918.2750050152
 20
572.0661082247
 10
918.5193244541
 20
571.8713239709
 10
918.9568970526
 20
571.7130848149
 10
919.7025064553
 20
571.654210327
  0
LWPOLYLINE
  5
38B
330
1F
100
AcDbEntity
  8
0
  6
CONTINUOUS
 62
     7
100
AcDbPolyline
 90
        7
 70
   128
 43
0.0
 10
919.7025064553
 20
571.654210327
 10
920.1517764653
 20
571.6721736768
 10
920.7315955485
 20
571.7956186215
 10
921.035132202
 20
571.9747603813
 10
921.2598417128
 20
572.2534120957
 10
921.3489953602
 20
572.5083858648
 10
921.3612441147
 20
572.6480693499
  0
LWPOLYLINE
  5
38C
330
1F
100
AcDbEntity
  8
0
  6
CONTINUOUS
 62
     7
100
AcDbPolyline
 90
        7
 70
   128
 43
0.0
 10
919.7040710772
 20
571.3022188226
 10
919.2548457707
 20
571.3187479356
 10
918.370014819
 20
571.5315476934
 10
918.0137131537
 20
571.7777893821
 10
917.7581284369
 20
572.1349180618
 10
917.6539693201
 20
572.5257680694
 10
917.6493052567
 20
572.6360664645
  0
LWPOLYLINE
  5
38D
330
1F
100
AcDbEntity
  8
0
  6
CONTINUOUS
 62
     7
100
AcDbPolyline
 90
        6
 70
   128
 43
0.0
 10
917.6493052567
 20
572.6360664645
 10
917.7308891142
 20
573.0801508704
 10
917.9707978094
 20
573.4620266536
 10
918.2775680149
 20
573.707120953
 10
918.8824657524
 20
573.9390016476
 10
919.7040710772
 20
574.0131833533
  0
LWPOLYLINE
  5
38E
330
1F
100
AcDbEntity
  8
0
  6
CONTINUOUS
 62
     7
100
AcDbPolyline
 90
        7
 70
   128
 43
0.0
 10
919.7040710772
 20
574.0131833533
 10
920.1531920756
 20
573.9940800646
 10
921.0350576962
 20
573.760441033
 10
921.4010451163
 20
573.4969885031
 10
921.658105048
 20
573.1180519739
 10
921.7530999506
 20
572.7233835438
 10
921.7557076538
 20
572.6360701898
  0
LWPOLYLINE
  5
38F
330
1F
100
AcDbEntity
  8
0
  6
CONTINUOUS
 62
     7
100
AcDbPolyline
 90
        6
 70
   128
 43
0.0
 10
921.7557076538
 20
572.6360701898
 10
921.6769103134
 20
572.2032883147
 10
921.4439455593
 20
571.8309231976
 10
921.1400065745
 20
571.5907947103
 10
920.5744479025
 20
571.3782370964
 10
919.7040710772
 20
571.3022188226
  0
LWPOLYLINE
  5
390
330
1F
100
AcDbEntity
  8
0
  6
CONTINUOUS
 62
     7
100
AcDbPolyline
 90
        4
 70
   128
 43
0.0
 10
921.7557076538
 20
572.6360701898
 10
921.7686269606
 20
572.6360701898
 10
921.7815462674
 20
572.6360664645
 10
921.8007091606
 20
572.6360664645
  0
LWPOLYLINE
  5
391
330
1F
100
AcDbEntity
  8
0
  6
CONTINUOUS
 62
     7
100
AcDbPolyline
 90
        4
 70
   128
 43
0.0
 10
919.7040710772
 20
574.0131833533
 10
919.7160069073
 20
574.0141854564
 10
919.7279427374
 20
574.0151875595
 10
919.7456602181
 20
574.0166739503
  0
LWPOLYLINE
  5
392
330
1F
100
AcDbEntity
  8
0
  6
CONTINUOUS
 62
     7
100
AcDbPolyline
 90
        7
 70
   128
 43
0.0
 10
919.7456602181
 20
574.0166739503
 10
920.1947663153
 20
573.9975855628
 10
921.0766766394
 20
573.7643339614
 10
921.4443478907
 20
573.500143824
 10
921.7026446188
 20
573.119836388
 10
921.798056754
 20
572.7239907662
 10
921.8007091606
 20
572.6360664645
  0
LINE
  5
393
330
1F
100
AcDbEntity
  8
0
  6
CONTINUOUS
 62
     7
100
AcDbLine
 10
591.2277016962
 20
809.5614411811
 30
0.0
 11
598.126477393
 21
802.6626654843
 31
0.0
  0
LINE
  5
394
330
1F
100
AcDbEntity
  8
0
  6
CONTINUOUS
 62
     7
100
AcDbLine
 10
603.8518164481
 20
806.5012642125
 30
0.0
 11
596.0096631373
 21
814.3434175233
 31
0.0
  0
ARC
  5
395
330
1F
100
AcDbEntity
  8
0
  6
CONTINUOUS
 62
     7
100
AcDbCircle
 10
599.3360367856
 20
806.4350783332
 30
0.0
 40
2.499999149975981
100
AcDbArc
 50
346.0244265623
 51
265.3688165179
  0
ARC
  5
396
330
1F
100
AcDbEntity
  8
0
  6
CONTINUOUS
 62
     7
100
AcDbCircle
 10
602.2745985319
 20
440.6966662036
 30
0.0
 40
3.024670456372807
100
AcDbArc
 50
215.9449058763
 51
254.1346730487
  0
ARC
  5
397
330
1F
100
AcDbEntity
  8
0
  6
CONTINUOUS
 62
     7
100
AcDbCircle
 10
599.3417274928
 20
436.5018951991
 30
0.0
 40
2.467237766188653
100
AcDbArc
 50
78.6832541342
 51
31.3963247909
  0
LINE
  5
398
330
1F
100
AcDbEntity
  8
0
  6
CONTINUOUS
 62
     7
100
AcDbLine
 10
596.0096631373
 20
428.5882064084
 30
0.0
 11
603.8518164481
 21
436.4303597191
 31
0.0
  0
LINE
  5
399
330
1F
100
AcDbEntity
  8
0
  6
CONTINUOUS
 62
     7
100
AcDbLine
 10
598.126477393
 20
440.2689584473
 30
0.0
 11
591.2277016962
 21
433.3701827506
 31
0.0
  0
ARC
  5
39A
330
1F
100
AcDbEntity
  8
0
  6
CONTINUOUS
 62
     7
100
AcDbCircle
 10
911.4897602596
 20
440.6198578624
 30
0.0
 40
3.02458946614488
100
AcDbArc
 50
283.6048449973
 51
326.3146104137
  0
ARC
  5
39B
330
1F
100
AcDbEntity
  8
0
  6
CONTINUOUS
 62
     7
100
AcDbCircle
 10
914.3689276891
 20
436.5018231384
 30
0.0
 40
2.467263180353615
100
AcDbArc
 50
151.4726303038
 51
98.4468251072
  0
LINE
  5
39C
330
1F
100
AcDbEntity
  8
0
  6
CONTINUOUS
 62
     7
100
AcDbLine
 10
922.4828992213
 20
433.3701827506
 30
0.0
 11
915.5841235245
 21
440.2689584473
 31
0.0
  0
LINE
  5
39D
330
1F
100
AcDbEntity
  8
0
  6
CONTINUOUS
 62
     7
100
AcDbLine
 10
909.8587844694
 20
436.4303597191
 30
0.0
 11
917.7009377802
 21
428.5882064084
 31
0.0
  0
ARC
  5
39E
330
1F
100
AcDbEntity
  8
0
  6
CONTINUOUS
 62
     7
100
AcDbCircle
 10
911.4881912801
 20
802.3095236804
 30
0.0
 40
3.025003284107726
100
AcDbArc
 50
33.7407231187
 51
76.3394638479
  0
ARC
  5
39F
330
1F
100
AcDbEntity
  8
0
  6
CONTINUOUS
 62
     7
100
AcDbCircle
 10
914.3689387641
 20
806.4297909531
 30
0.0
 40
2.467262129506183
100
AcDbArc
 50
261.4860867907
 51
208.5941001759
  0
LINE
  5
3A0
330
1F
100
AcDbEntity
  8
0
  6
CONTINUOUS
 62
     7
100
AcDbLine
 10
917.7009377802
 20
814.3434175233
 30
0.0
 11
909.8587844694
 21
806.5012642125
 31
0.0
  0
LINE
  5
3A1
330
1F
100
AcDbEntity
  8
0
  6
CONTINUOUS
 62
     7
100
AcDbLine
 10
915.5841235245
 20
802.6626654843
 30
0.0
 11
922.4828992213
 21
809.5614411811
 31
0.0
  0
LWPOLYLINE
  5
3A2
330
1F
100
AcDbEntity
  8
0
  6
CONTINUOUS
 62
     7
100
AcDbPolyline
 90
        4
 70
   128
 43
0.0
 10
919.7040710772
 20
571.3022188226
 10
919.7160069073
 20
571.3012167195
 10
919.7279427374
 20
571.3002146164
 10
919.7456602181
 20
571.2987282256
  0
LWPOLYLINE
  5
3A3
330
1F
100
AcDbEntity
  8
0
  6
CONTINUOUS
 62
     7
100
AcDbPolyline
 90
        6
 70
   128
 43
0.0
 10
921.8007091606
 20
572.6360664645
 10
921.7216435994
 20
572.2019360343
 10
921.487918886
 20
571.8284347037
 10
921.183041128
 20
571.5876207629
 10
920.6162605608
 20
571.3747204224
 10
919.7456602181
 20
571.2987282256
  0
LWPOLYLINE
  5
3A4
330
1F
100
AcDbEntity
  8
0
  6
CONTINUOUS
 62
     7
100
AcDbPolyline
 90
        4
 70
   128
 43
0.0
 10
919.7040710772
 20
574.3791409711
 10
919.7160069073
 20
574.378138868
 10
919.7279427374
 20
574.3771367649
 10
919.7456602181
 20
574.375650374
  0
LWPOLYLINE
  5
3A5
330
1F
100
AcDbEntity
  8
0
  6
CONTINUOUS
 62
     7
100
AcDbPolyline
 90
        6
 70
   128
 43
0.0
 10
921.8007091606
 20
575.712988613
 10
921.7216435994
 20
575.2788581828
 10
921.487918886
 20
574.9053568522
 10
921.183041128
 20
574.6645429114
 10
920.6162605608
 20
574.4516425708
 10
919.7456602181
 20
574.375650374
  0
LINE
  5
3A6
330
1F
100
AcDbEntity
  8
0
  6
CONTINUOUS
 62
     7
100
AcDbLine
 10
918.6457012022
 20
568.7323533872
 30
0.0
 11
918.6457012022
 21
568.3800862113
 31
0.0
  0
ARC
  5
3A7
330
1F
100
AcDbEntity
  8
0
  6
CONTINUOUS
 62
     7
100
AcDbCircle
 10
918.8496794475
 20
569.5630072322
 30
0.0
 40
1.200378801121489
100
AcDbArc
 50
179.8412024292
 51
260.2163537627
  0
ARC
  5
3A8
330
1F
100
AcDbEntity
  8
0
  6
CONTINUOUS
 62
     7
100
AcDbCircle
 10
918.7244896306
 20
569.6541516434
 30
0.0
 40
1.07876473536989
100
AcDbArc
 50
93.2960940053
 51
184.6693656485
  0
ARC
  5
3A9
330
1F
100
AcDbEntity
  8
0
  6
CONTINUOUS
 62
     7
100
AcDbCircle
 10
918.6628762054
 20
569.8072896673
 30
0.0
 40
0.9238422440774464
100
AcDbArc
 50
29.3813796478
 51
90.0255020168
  0
ARC
  5
3AA
330
1F
100
AcDbEntity
  8
0
  6
CONTINUOUS
 62
     7
100
AcDbCircle
 10
920.4538798864
 20
569.852193854
 30
0.0
 40
1.067207512845016
100
AcDbArc
 50
127.5583898709
 51
157.5029513844
  0
ARC
  5
3AB
330
1F
100
AcDbEntity
  8
0
  6
CONTINUOUS
 62
     7
100
AcDbCircle
 10
920.4934946733
 20
569.8168403804
 30
0.0
 40
1.119424700021014
100
AcDbArc
 50
89.8492319067
 51
128.0627318136
  0
ARC
  5
3AC
330
1F
100
AcDbEntity
  8
0
  6
CONTINUOUS
 62
     7
100
AcDbCircle
 10
920.4387743399
 20
569.6190765005
 30
0.0
 40
1.318446400472191
100
AcDbArc
 50
357.25476319
 51
87.4932072862
  0
ARC
  5
3AD
330
1F
100
AcDbEntity
  8
0
  6
CONTINUOUS
 62
     7
100
AcDbCircle
 10
920.4224905364
 20
569.5462275901
 30
0.0
 40
1.333252416889159
100
AcDbArc
 50
278.0339147686
 51
0.4169331464
  0
LINE
  5
3AE
330
1F
100
AcDbEntity
  8
0
  6
CONTINUOUS
 62
     7
100
AcDbLine
 10
920.6088248814
 20
568.2260603586
 30
0.0
 11
920.6088248814
 21
568.5781896988
 31
0.0
  0
ARC
  5
3AF
330
1F
100
AcDbEntity
  8
0
  6
CONTINUOUS
 62
     7
100
AcDbCircle
 10
920.3620106467
 20
569.6248326078
 30
0.0
 40
1.07535047558031
100
AcDbArc
 50
283.2688024944
 51
317.0301386572
  0
ARC
  5
3B0
330
1F
100
AcDbEntity
  8
0
  6
CONTINUOUS
 62
     7
100
AcDbCircle
 10
920.2523780174
 20
569.544713749
 30
0.0
 40
1.109006426337638
100
AcDbArc
 50
323.9363065107
 51
0.911483849
  0
ARC
  5
3B1
330
1F
100
AcDbEntity
  8
0
  6
CONTINUOUS
 62
     7
100
AcDbCircle
 10
920.4744617122
 20
569.6900691435
 30
0.0
 40
0.8959318054487043
100
AcDbArc
 50
351.8046630478
 51
86.4375413721
  0
LWPOLYLINE
  5
3B2
330
1F
100
AcDbEntity
  8
0
  6
CONTINUOUS
 62
     7
100
AcDbPolyline
 90
        6
 70
   128
 43
0.0
 10
920.5301318491
 20
570.5842697004
 10
920.3069273556
 20
570.5471062044
 10
920.0687769974
 20
570.4105221609
 10
919.892913493
 20
570.2115171531
 10
919.7798434819
 20
569.9539356807
 10
919.6992729033
 20
569.353500841
  0
LINE
  5
3B3
330
1F
100
AcDbEntity
  8
0
  6
CONTINUOUS
 62
     7
100
AcDbLine
 10
919.6992729033
 20
569.353500841
 30
0.0
 11
919.3045709456
 21
569.353500841
 31
0.0
  0
LWPOLYLINE
  5
3B4
330
1F
100
AcDbEntity
  8
0
  6
CONTINUOUS
 62
     7
100
AcDbPolyline
 90
        6
 70
   128
 43
0.0
 10
919.3045709456
 20
569.353500841
 10
919.2422691906
 20
569.8118233064
 10
919.11611596
 20
570.1036364714
 10
918.986609968
 20
570.2573195974
 10
918.8115660275
 20
570.355574129
 10
918.6609152878
 20
570.3791440407
  0
ARC
  5
3B5
330
1F
100
AcDbEntity
  8
0
  6
CONTINUOUS
 62
     7
100
AcDbCircle
 10
918.7668351424
 20
569.6585561541
 30
0.0
 40
0.7283309123346787
100
AcDbArc
 50
98.362076163
 51
186.8931302046
  0
ARC
  5
3B6
330
1F
100
AcDbEntity
  8
0
  6
CONTINUOUS
 62
     7
100
AcDbCircle
 10
918.9329562732
 20
569.5738676863
 30
0.0
 40
0.8891916504851
100
AcDbArc
 50
180.1755369476
 51
251.1524070791
  0
LWPOLYLINE
  5
3B7
330
1F
100
AcDbEntity
  8
0
  6
CONTINUOUS
 62
     7
100
AcDbPolyline
 90
        3
 70
   128
 43
0.0
 10
920.6088248814
 20
568.2260603586
 10
920.6279132689
 20
568.2239332179
 10
920.6469867552
 20
568.2218023518
  0
LWPOLYLINE
  5
3B8
330
1F
100
AcDbEntity
  8
0
  6
CONTINUOUS
 62
     7
100
AcDbPolyline
 90
        4
 70
   128
 43
0.0
 10
921.7557076538
 20
569.5559293905
 10
921.7686269606
 20
569.5559331158
 10
921.7815462674
 20
569.5559331158
 10
921.8007091606
 20
569.5559368411
  0
ARC
  5
3B9
330
1F
100
AcDbEntity
  8
0
  6
CONTINUOUS
 62
     7
100
AcDbCircle
 10
920.4633823267
 20
569.5464991266
 30
0.0
 40
1.337360135213293
100
AcDbArc
 50
277.8909849679
 51
0.4043381321
  0
LWPOLYLINE
  5
3BA
330
1F
100
AcDbEntity
  8
0
  6
CONTINUOUS
 62
     7
100
AcDbPolyline
 90
        4
 70
   128
 43
0.0
 10
920.4964403237
 20
570.9362612048
 10
920.5083910549
 20
570.9372633079
 10
920.5203268851
 20
570.938265411
 10
920.5380443657
 20
570.9397518018
  0
ARC
  5
3BB
330
1F
100
AcDbEntity
  8
0
  6
CONTINUOUS
 62
     7
100
AcDbCircle
 10
920.4804852486
 20
569.6192638481
 30
0.0
 40
1.321741838576411
100
AcDbArc
 50
357.2538057443
 51
87.5040982691
  0
LWPOLYLINE
  5
3BC
330
1F
100
AcDbEntity
  8
0
  6
CONTINUOUS
 62
     7
100
AcDbPolyline
 90
        3
 70
   128
 43
0.0
 10
919.7456602181
 20
574.375650374
 10
919.2964349116
 20
574.3921683112
 10
919.2867193545
 20
574.394500343
  0
ARC
  5
3BD
330
1F
100
AcDbEntity
  8
0
  6
CONTINUOUS
 62
     7
100
AcDbCircle
 10
918.8084009226
 20
569.6585060109
 30
0.0
 40
0.7249266407323411
100
AcDbArc
 50
98.4033330386
 51
186.9201834587
  0
LINE
  5
3BE
330
1F
100
AcDbEntity
  8
0
  6
CONTINUOUS
 62
     7
100
AcDbLine
 10
919.7440955962
 20
569.350010244
 30
0.0
 11
919.342792424
 21
569.350010244
 31
0.0
  0
LWPOLYLINE
  5
3BF
330
1F
100
AcDbEntity
  8
0
  6
CONTINUOUS
 62
     7
100
AcDbPolyline
 90
        6
 70
   128
 43
0.0
 10
920.5717507923
 20
570.5807791034
 10
920.3485612
 20
570.5434367934
 10
920.1119009579
 20
570.4073035101
 10
919.9368570174
 20
570.2088274935
 10
919.824502262
 20
569.9522257725
 10
919.7440955962
 20
569.350010244
  0
LINE
  5
3C0
330
1F
100
AcDbEntity
  8
0
  6
CONTINUOUS
 62
     7
100
AcDbLine
 10
920.4249296511
 20
570.93183556
 30
0.0
 11
920.5380443657
 21
570.9397518018
 31
0.0
  0
ARC
  5
3C1
330
1F
100
AcDbEntity
  8
0
  6
CONTINUOUS
 62
     7
100
AcDbCircle
 10
918.7050757894
 20
569.8093780834
 30
0.0
 40
0.925244930829906
100
AcDbArc
 50
29.6771725328
 51
90.0651105615
  0
LINE
  5
3C2
330
1F
100
AcDbEntity
  8
0
  6
CONTINUOUS
 62
     7
100
AcDbLine
 10
918.5918931092
 20
570.7265608886
 30
0.0
 11
918.7040243471
 21
570.7346224168
 31
0.0
  0
LINE
  5
3C3
330
1F
100
AcDbEntity
  8
0
  6
CONTINUOUS
 62
     7
100
AcDbLine
 10
918.690702709
 20
568.7346258143
 30
0.0
 11
918.690702709
 21
568.3756493906
 31
0.0
  0
ARC
  5
3C4
330
1F
100
AcDbEntity
  8
0
  6
CONTINUOUS
 62
     7
100
AcDbCircle
 10
918.9752715078
 20
569.5742333644
 30
0.0
 40
0.886521426415332
100
AcDbArc
 50
180.198495705
 51
251.2769010607
  0
LWPOLYLINE
  5
3C5
330
1F
100
AcDbEntity
  8
0
  6
CONTINUOUS
 62
     7
100
AcDbPolyline
 90
        3
 70
   128
 43
0.0
 10
919.7456602181
 20
571.2987282256
 10
919.2964349116
 20
571.3152461628
 10
919.2867193545
 20
571.3175781945
  0
ARC
  5
3C6
330
1F
100
AcDbEntity
  8
0
  6
CONTINUOUS
 62
     7
100
AcDbCircle
 10
918.7113803149
 20
577.9086983492
 30
0.0
 40
2.115512354430767
100
AcDbArc
 50
51.1369824995
 51
85.1624812251
  0
LINE
  5
3C7
330
1F
100
AcDbEntity
  8
0
  6
CONTINUOUS
 62
     7
100
AcDbLine
 10
918.760767969
 20
580.0064788142
 30
0.0
 11
918.8897822226
 21
580.0166749338
 31
0.0
  0
ARC
  5
3C8
330
1F
100
AcDbEntity
  8
0
  6
CONTINUOUS
 62
     7
100
AcDbCircle
 10
918.8782530652
 20
578.6720223668
 30
0.0
 40
1.16819228636943
100
AcDbArc
 50
270.3732541984
 51
2.7963244786
  0
ARC
  5
3C9
330
1F
100
AcDbEntity
  8
0
  6
CONTINUOUS
 62
     7
100
AcDbCircle
 10
916.8220914445
 20
578.7083609219
 30
0.0
 40
3.22302907355773
100
AcDbArc
 50
0.3671422905
 51
7.3855156522
  0
LINE
  5
3CA
330
1F
100
AcDbEntity
  8
0
  6
CONTINUOUS
 62
     7
100
AcDbLine
 10
921.8007091606
 20
578.3243686834
 30
0.0
 11
921.6055486525
 21
578.0375101546
 31
0.0
  0
LINE
  5
3CB
330
1F
100
AcDbEntity
  8
0
  6
CONTINUOUS
 62
     7
100
AcDbLine
 10
920.0387809599
 20
579.5559384802
 30
0.0
 11
921.8007091606
 21
578.3243686834
 31
0.0
  0
LINE
  5
3CC
330
1F
100
AcDbEntity
  8
0
  6
CONTINUOUS
 62
     7
100
AcDbLine
 10
918.1890849198
 20
581.7602635304
 30
0.0
 11
918.1890849198
 21
581.1448791007
 31
0.0
  0
LINE
  5
3CD
330
1F
100
AcDbEntity
  8
0
  6
CONTINUOUS
 62
     7
100
AcDbLine
 10
921.7003796423
 20
581.7602635304
 30
0.0
 11
918.1890849198
 21
581.7602635304
 31
0.0
  0
LINE
  5
3CE
330
1F
100
AcDbEntity
  8
0
  6
CONTINUOUS
 62
     7
100
AcDbLine
 10
921.7003796423
 20
582.1192399541
 30
0.0
 11
921.7003796423
 21
581.7602635304
 31
0.0
  0
LINE
  5
3CF
330
1F
100
AcDbEntity
  8
0
  6
CONTINUOUS
 62
     7
100
AcDbLine
 10
917.7877966488
 20
582.1192399541
 30
0.0
 11
921.7003796423
 21
582.1192399541
 31
0.0
  0
ARC
  5
3D0
330
1F
100
AcDbEntity
  8
0
  6
CONTINUOUS
 62
     7
100
AcDbCircle
 10
918.8852717164
 20
578.8196596551
 30
0.0
 40
0.8437107052269903
100
AcDbArc
 50
94.1173347101
 51
184.1458534878
  0
ARC
  5
3D1
330
1F
100
AcDbEntity
  8
0
  6
CONTINUOUS
 62
     7
100
AcDbCircle
 10
918.86426121
 20
578.6824135393
 30
0.0
 40
0.8240277823363441
100
AcDbArc
 50
174.6906736695
 51
267.2467387064
  0
ARC
  5
3D2
330
1F
100
AcDbEntity
  8
0
  6
CONTINUOUS
 62
     7
100
AcDbCircle
 10
918.7391465355
 20
578.7244839784
 30
0.0
 40
0.8693648007088867
100
AcDbArc
 50
275.6461830107
 51
4.6869475088
  0
ARC
  5
3D3
330
1F
100
AcDbEntity
  8
0
  6
CONTINUOUS
 62
     7
100
AcDbCircle
 10
918.8137900774
 20
578.8662966721
 30
0.0
 40
0.7949709428585598
100
AcDbArc
 50
354.892240112
 51
89.214102723
  0
LINE
  5
3D4
330
1F
100
AcDbEntity
  8
0
  6
CONTINUOUS
 62
     7
100
AcDbLine
 10
921.7543516482
 20
578.3234708885
 30
0.0
 11
921.5630952442
 21
578.0423455814
 31
0.0
  0
LINE
  5
3D5
330
1F
100
AcDbEntity
  8
0
  6
CONTINUOUS
 62
     7
100
AcDbLine
 10
921.5630952442
 20
578.0423455814
 30
0.0
 11
919.9693862522
 21
579.156930087
 31
0.0
  0
ARC
  5
3D6
330
1F
100
AcDbEntity
  8
0
  6
CONTINUOUS
 62
     7
100
AcDbCircle
 10
916.5628089708
 20
578.6977404513
 30
0.0
 40
3.437386201194646
100
AcDbArc
 50
0.5214025533
 51
7.6769128963
  0
ARC
  5
3D7
330
1F
100
AcDbEntity
  8
0
  6
CONTINUOUS
 62
     7
100
AcDbCircle
 10
918.836731627
 20
578.6720405228
 30
0.0
 40
1.164715850204283
100
AcDbArc
 50
270.371770785
 51
2.8041503322
  0
ARC
  5
3D8
330
1F
100
AcDbEntity
  8
0
  6
CONTINUOUS
 62
     7
100
AcDbCircle
 10
918.8745430794
 20
578.7330065422
 30
0.0
 40
1.226030690072494
100
AcDbArc
 50
177.9393195598
 51
268.5859992446
  0
ARC
  5
3D9
330
1F
100
AcDbEntity
  8
0
  6
CONTINUOUS
 62
     7
100
AcDbCircle
 10
918.8537465608
 20
578.8083465872
 30
0.0
 40
1.204846754548934
100
AcDbArc
 50
90.2633847478
 51
181.4864584874
  0
ARC
  5
3DA
330
1F
100
AcDbEntity
  8
0
  6
CONTINUOUS
 62
     7
100
AcDbCircle
 10
918.669419176
 20
577.9076199775
 30
0.0
 40
2.113137719286383
100
AcDbArc
 50
51.1385620286
 51
85.1465040116
  0
LINE
  5
3DB
330
1F
100
AcDbEntity
  8
0
  6
CONTINUOUS
 62
     7
100
AcDbLine
 10
919.9952844704
 20
579.553047655
 30
0.0
 11
921.7543516482
 21
578.3234708885
 31
0.0
  0
LINE
  5
3DC
330
1F
100
AcDbEntity
  8
0
  6
CONTINUOUS
 62
     7
100
AcDbLine
 10
921.7543516482
 20
578.3234708885
 30
0.0
 11
921.8007091606
 21
578.3243686834
 31
0.0
  0
LWPOLYLINE
  5
3DD
330
1F
100
AcDbEntity
  8
0
  6
CONTINUOUS
 62
     7
100
AcDbPolyline
 90
        4
 70
   128
 43
0.0
 10
919.9952844704
 20
579.553047655
 10
920.0077716435
 20
579.5538783947
 10
920.0202588166
 20
579.5547091344
 10
920.0387809599
 20
579.5559384802
  0
LINE
  5
3DE
330
1F
100
AcDbEntity
  8
0
  6
CONTINUOUS
 62
     7
100
AcDbLine
 10
921.5630952442
 20
578.0423455814
 30
0.0
 11
921.6055486525
 21
578.0375101546
 31
0.0
  0
LINE
  5
3DF
330
1F
100
AcDbEntity
  8
0
  6
CONTINUOUS
 62
     7
100
AcDbLine
 10
921.6553930367
 20
582.1157493571
 30
0.0
 11
921.7003796423
 21
582.1192399541
 31
0.0
  0
LINE
  5
3E0
330
1F
100
AcDbEntity
  8
0
  6
CONTINUOUS
 62
     7
100
AcDbLine
 10
917.7496198738
 20
582.1157493571
 30
0.0
 11
921.6553930367
 21
582.1157493571
 31
0.0
  0
LINE
  5
3E1
330
1F
100
AcDbEntity
  8
0
  6
CONTINUOUS
 62
     7
100
AcDbLine
 10
917.7496198738
 20
582.1157493571
 30
0.0
 11
917.7877966488
 21
582.1192399541
 31
0.0
  0
LINE
  5
3E2
330
1F
100
AcDbEntity
  8
0
  6
CONTINUOUS
 62
     7
100
AcDbLine
 10
917.7496198738
 20
581.3816809038
 30
0.0
 11
917.7496198738
 21
582.1157493571
 31
0.0
  0
LINE
  5
3E3
330
1F
100
AcDbEntity
  8
0
  6
CONTINUOUS
 62
     7
100
AcDbLine
 10
921.6553930367
 20
582.1157493571
 30
0.0
 11
921.6553930367
 21
581.7637578527
 31
0.0
  0
LINE
  5
3E4
330
1F
100
AcDbEntity
  8
0
  6
CONTINUOUS
 62
     7
100
AcDbLine
 10
921.6553930367
 20
581.7637578527
 30
0.0
 11
918.144083413
 21
581.7637578527
 31
0.0
  0
LINE
  5
3E5
330
1F
100
AcDbEntity
  8
0
  6
CONTINUOUS
 62
     7
100
AcDbLine
 10
918.144083413
 20
581.7637578527
 30
0.0
 11
918.144083413
 21
581.1508991698
 31
0.0
  0
LINE
  5
3E6
330
1F
100
AcDbEntity
  8
0
  6
CONTINUOUS
 62
     7
100
AcDbLine
 10
918.144083413
 20
581.1508991698
 30
0.0
 11
917.7496198738
 21
581.3816809038
 31
0.0
  0
LINE
  5
3E7
330
1F
100
AcDbEntity
  8
0
  6
CONTINUOUS
 62
     7
100
AcDbLine
 10
918.144083413
 20
581.7637578527
 30
0.0
 11
918.1890849198
 21
581.7602635304
 31
0.0
  0
LINE
  5
3E8
330
1F
100
AcDbEntity
  8
0
  6
CONTINUOUS
 62
     7
100
AcDbLine
 10
921.6553930367
 20
581.7637578527
 30
0.0
 11
921.7003796423
 21
581.7602635304
 31
0.0
  0
LWPOLYLINE
  5
3E9
330
1F
100
AcDbEntity
  8
0
  6
CONTINUOUS
 62
     7
100
AcDbPolyline
 90
        4
 70
   128
 43
0.0
 10
919.7025064553
 20
574.7311324755
 10
919.7144422854
 20
574.7321345786
 10
919.7263781155
 20
574.7331366817
 10
919.7440955962
 20
574.7346230725
  0
LINE
  5
3EA
330
1F
100
AcDbEntity
  8
0
  6
CONTINUOUS
 62
     7
100
AcDbLine
 10
919.7440955962
 20
574.7346230725
 30
0.0
 11
920.193350705
 21
574.7526013235
 31
0.0
  0
LWPOLYLINE
  5
3EB
330
1F
100
AcDbEntity
  8
0
  6
CONTINUOUS
 62
     7
100
AcDbPolyline
 90
        4
 70
   128
 43
0.0
 10
919.7025064553
 20
571.654210327
 10
919.7144422854
 20
571.6552124301
 10
919.7263781155
 20
571.6562145332
 10
919.7440955962
 20
571.657700924
  0
LINE
  5
3EC
330
1F
100
AcDbEntity
  8
0
  6
CONTINUOUS
 62
     7
100
AcDbLine
 10
919.7440955962
 20
571.657700924
 30
0.0
 11
920.193350705
 21
571.6756754497
 31
0.0
  0
LWPOLYLINE
  5
3ED
330
1F
100
AcDbEntity
  8
0
  6
CONTINUOUS
 62
     7
100
AcDbPolyline
 90
        7
 70
   128
 43
0.0
 10
919.7440955962
 20
576.7346234003
 10
919.2950044001
 20
576.710699586
 10
918.6741624201
 20
576.5493311862
 10
918.3842901314
 20
576.3655849675
 10
918.1742582644
 20
576.0860242823
 10
918.0924359883
 20
575.7872336486
 10
918.0887554015
 20
575.7250101248
  0
LWPOLYLINE
  5
3EE
330
1F
100
AcDbEntity
  8
0
  6
CONTINUOUS
 62
     7
100
AcDbPolyline
 90
        3
 70
   128
 43
0.0
 10
920.1535348023
 20
576.7102413753
 10
920.0188283051
 20
576.7252244929
 10
919.7440955962
 20
576.7346234003
  0
LWPOLYLINE
  5
3EF
330
1F
100
AcDbEntity
  8
0
  6
CONTINUOUS
 62
     7
100
AcDbPolyline
 90
        6
 70
   128
 43
0.0
 10
918.0887554015
 20
575.7250101248
 10
918.1547079409
 20
575.4026868323
 10
918.318620714
 20
575.1459174732
 10
918.5619864786
 20
574.9516324082
 10
918.9980093563
 20
574.7936577479
 10
919.7440955962
 20
574.7346230725
  0
LWPOLYLINE
  5
3F0
330
1F
100
AcDbEntity
  8
0
  6
CONTINUOUS
 62
     7
100
AcDbPolyline
 90
        7
 70
   128
 43
0.0
 10
919.7440955962
 20
573.6577012519
 10
919.2950044001
 20
573.6337774376
 10
918.6741624201
 20
573.4724053124
 10
918.3842901314
 20
573.288662819
 10
918.1742582644
 20
573.0091021339
 10
918.0924359883
 20
572.7103115002
 10
918.0887554015
 20
572.648084251
  0
LWPOLYLINE
  5
3F1
330
1F
100
AcDbEntity
  8
0
  6
CONTINUOUS
 62
     7
100
AcDbPolyline
 90
        3
 70
   128
 43
0.0
 10
920.1535348023
 20
573.6333192268
 10
920.0188283051
 20
573.6482986191
 10
919.7440955962
 20
573.6577012519
  0
LWPOLYLINE
  5
3F2
330
1F
100
AcDbEntity
  8
0
  6
CONTINUOUS
 62
     7
100
AcDbPolyline
 90
        6
 70
   128
 43
0.0
 10
918.0887554015
 20
572.648084251
 10
918.1547079409
 20
572.3257646838
 10
918.318620714
 20
572.0689953247
 10
918.5619864786
 20
571.8747102598
 10
918.9980093563
 20
571.7167355994
 10
919.7440955962
 20
571.657700924
  0
LWPOLYLINE
  5
3F3
330
1F
100
AcDbEntity
  8
0
  6
CONTINUOUS
 62
     7
100
AcDbPolyline
 90
        4
 70
   128
 43
0.0
 10
919.7025064553
 20
576.7381139973
 10
919.7144422854
 20
576.7371118942
 10
919.7263781155
 20
576.7361097911
 10
919.7440955962
 20
576.7346234003
  0
LWPOLYLINE
  5
3F4
330
1F
100
AcDbEntity
  8
0
  6
CONTINUOUS
 62
     7
100
AcDbPolyline
 90
        4
 70
   128
 43
0.0
 10
919.7025064553
 20
573.6611918489
 10
919.7144422854
 20
573.6601897458
 10
919.7263781155
 20
573.6591876427
 10
919.7440955962
 20
573.6577012519
  0
LWPOLYLINE
  5
3F5
330
1F
100
AcDbEntity
  8
0
  6
CONTINUOUS
 62
     7
100
AcDbPolyline
 90
        3
 70
   128
 43
0.0
 10
919.6992729033
 20
569.353500841
 10
919.7216842497
 20
569.3517536799
 10
919.7440955962
 20
569.350010244
  0
LWPOLYLINE
  5
3F6
330
1F
100
AcDbEntity
  8
0
  6
CONTINUOUS
 62
     7
100
AcDbPolyline
 90
        4
 70
   128
 43
0.0
 10
918.8442889775
 20
577.5073491911
 10
918.8562248076
 20
577.5063433627
 10
918.8681606377
 20
577.5053412596
 10
918.8858632172
 20
577.5038548688
  0
LWPOLYLINE
  5
3F7
330
1F
100
AcDbEntity
  8
0
  6
CONTINUOUS
 62
     7
100
AcDbPolyline
 90
        4
 70
   128
 43
0.0
 10
920.000052842
 20
578.7290208915
 10
920.0129721487
 20
578.7290208915
 10
920.0258914555
 20
578.7290171662
 10
920.0450543488
 20
578.729013441
  0
LWPOLYLINE
  5
3F8
330
1F
100
AcDbEntity
  8
0
  6
CONTINUOUS
 62
     7
100
AcDbPolyline
 90
        4
 70
   128
 43
0.0
 10
918.8482079829
 20
580.0131806115
 10
918.860143813
 20
580.0141864399
 10
918.8720647419
 20
580.015188543
 10
918.8897822226
 20
580.0166749338
  0
LINE
  5
3F9
330
1F
100
AcDbEntity
  8
0
  6
CONTINUOUS
 62
     7
100
AcDbLine
 10
918.0437538946
 20
575.7250101248
 30
0.0
 11
918.0887554015
 21
575.7250101248
 31
0.0
  0
LWPOLYLINE
  5
3FA
330
1F
100
AcDbEntity
  8
0
  6
CONTINUOUS
 62
     7
100
AcDbPolyline
 90
        4
 70
   128
 43
0.0
 10
918.0437538946
 20
572.6480879763
 10
918.0566732014
 20
572.6480879763
 10
918.0695925082
 20
572.6480879763
 10
918.0887554015
 20
572.648084251
  0
LWPOLYLINE
  5
3FB
330
1F
100
AcDbEntity
  8
0
  6
CONTINUOUS
 62
     7
100
AcDbPolyline
 90
        4
 70
   128
 43
0.0
 10
918.8246790493
 20
577.8593369702
 10
918.8366148795
 20
577.8603390733
 10
918.8485507096
 20
577.8613411764
 10
918.8662681902
 20
577.8628275672
  0
LWPOLYLINE
  5
3FC
330
1F
100
AcDbEntity
  8
0
  6
CONTINUOUS
 62
     7
100
AcDbPolyline
 90
        4
 70
   128
 43
0.0
 10
918.8246939505
 20
579.6611928323
 10
918.8366297806
 20
579.6601907292
 10
918.8485507096
 20
579.6591886262
 10
918.8662681902
 20
579.6577022353
  0
LWPOLYLINE
  5
3FD
330
1F
100
AcDbEntity
  8
0
  6
CONTINUOUS
 62
     7
100
AcDbPolyline
 90
        3
 70
   128
 43
0.0
 10
919.3045709456
 20
569.353500841
 10
919.3236891354
 20
569.3517536799
 10
919.342792424
 20
569.350010244
  0
LWPOLYLINE
  5
3FE
330
1F
100
AcDbEntity
  8
0
  6
CONTINUOUS
 62
     7
100
AcDbPolyline
 90
        4
 70
   128
 43
0.0
 10
918.6624650086
 20
570.7311318198
 10
918.6743859375
 20
570.7321339229
 10
918.6863217676
 20
570.733136026
 10
918.7040243471
 20
570.7346224168
  0
ARC
  5
3FF
330
1F
100
AcDbEntity
  8
0
  6
CONTINUOUS
 62
     7
100
AcDbCircle
 10
918.905834473
 20
578.6824947691
 30
0.0
 40
0.8206216013815393
100
AcDbArc
 50
174.6742684631
 51
267.2364116787
  0
ARC
  5
400
330
1F
100
AcDbEntity
  8
0
  6
CONTINUOUS
 62
     7
100
AcDbCircle
 10
918.9269083045
 20
578.819532693
 30
0.0
 40
0.8403602829792737
100
AcDbArc
 50
94.1380405582
 51
184.1537324966
  0
LINE
  5
401
330
1F
100
AcDbEntity
  8
0
  6
CONTINUOUS
 62
     7
100
AcDbLine
 10
918.0437687958
 20
578.7586630264
 30
0.0
 11
918.0887554015
 21
578.7586630264
 31
0.0
  0
LWPOLYLINE
  5
402
330
1F
100
AcDbEntity
  8
0
  6
CONTINUOUS
 62
     7
100
AcDbPolyline
 90
        4
 70
   128
 43
0.0
 10
918.0437687958
 20
569.5711434761
 10
918.0566732014
 20
569.5711472014
 10
918.0695925082
 20
569.571154652
 10
918.0887554015
 20
569.5711621026
  0
LINE
  5
403
330
1F
100
AcDbEntity
  8
0
  6
CONTINUOUS
 62
     7
100
AcDbLine
 10
918.6457012022
 20
568.7323533872
 30
0.0
 11
918.690702709
 21
568.7346258143
 31
0.0
  0
LWPOLYLINE
  5
404
330
1F
100
AcDbEntity
  8
0
  6
CONTINUOUS
 62
     7
100
AcDbPolyline
 90
        3
 70
   128
 43
0.0
 10
918.6457012022
 20
568.3800862113
 10
918.6682019556
 20
568.3778659383
 10
918.690702709
 20
568.3756493906
  0
LINE
  5
405
330
1F
100
AcDbEntity
  8
0
  6
CONTINUOUS
 62
     7
100
AcDbLine
 10
918.144083413
 20
581.1508991698
 30
0.0
 11
918.1890849198
 21
581.1448791007
 31
0.0
  0
LINE
  5
406
330
1F
100
AcDbEntity
  8
0
  6
CONTINUOUS
 62
     7
100
AcDbLine
 10
739.0203576709
 20
444.0106996277
 30
0.0
 11
774.6902432466
 21
444.0106996277
 31
0.0
  0
LINE
  5
407
330
1F
100
AcDbEntity
  8
0
  6
CONTINUOUS
 62
     7
100
AcDbLine
 10
774.6902432466
 20
798.9209243039
 30
0.0
 11
739.0203576709
 21
798.9209243039
 31
0.0
  0
LINE
  5
408
330
1F
100
AcDbEntity
  8
0
  6
CONTINUOUS
 62
     7
100
AcDbLine
 10
794.8155056859
 20
797.8678145388
 30
0.0
 11
718.8950952316
 21
797.8678145388
 31
0.0
  0
LINE
  5
409
330
1F
100
AcDbEntity
  8
0
  6
CONTINUOUS
 62
     7
100
AcDbLine
 10
718.8950952316
 20
445.0638093928
 30
0.0
 11
794.8155056859
 21
445.0638093928
 31
0.0
  0
CIRCLE
  5
40A
330
1F
100
AcDbEntity
  8
0
  6
CONTINUOUS
 62
     7
100
AcDbCircle
 10
617.1553004588
 20
456.3658119658
 30
0.0
 40
3.75
  0
CIRCLE
  5
40B
330
1F
100
AcDbEntity
  8
0
  6
CONTINUOUS
 62
     7
100
AcDbCircle
 10
617.1553004588
 20
456.3658119658
 30
0.0
 40
1.700000000000045
  0
CIRCLE
  5
40C
330
1F
100
AcDbEntity
  8
0
  6
CONTINUOUS
 62
     7
100
AcDbCircle
 10
617.1553004588
 20
786.5658119658
 30
0.0
 40
1.700000000000045
  0
CIRCLE
  5
40D
330
1F
100
AcDbEntity
  8
0
  6
CONTINUOUS
 62
     7
100
AcDbCircle
 10
617.1553004588
 20
786.5658119658
 30
0.0
 40
3.75
  0
CIRCLE
  5
40E
330
1F
100
AcDbEntity
  8
0
  6
CONTINUOUS
 62
     7
100
AcDbCircle
 10
896.5553004588
 20
786.5658119658
 30
0.0
 40
3.75
  0
CIRCLE
  5
40F
330
1F
100
AcDbEntity
  8
0
  6
CONTINUOUS
 62
     7
100
AcDbCircle
 10
896.5553004588
 20
786.5658119658
 30
0.0
 40
1.700000000000045
  0
CIRCLE
  5
410
330
1F
100
AcDbEntity
  8
0
  6
CONTINUOUS
 62
     7
100
AcDbCircle
 10
896.5553004588
 20
456.3658119658
 30
0.0
 40
1.700000000000045
  0
CIRCLE
  5
411
330
1F
100
AcDbEntity
  8
0
  6
CONTINUOUS
 62
     7
100
AcDbCircle
 10
896.5553004588
 20
456.3658119658
 30
0.0
 40
3.75
  0
ENDSEC
  0
SECTION
  2
OBJECTS
  0
DICTIONARY
  5
C
330
0
100
AcDbDictionary
  3
ACAD_GROUP
350
D
  3
ACAD_LAYOUT
350
1A
  3
ACAD_MLEADERSTYLE
350
435
  3
ACAD_MLINESTYLE
350
17
  3
ACAD_PLOTSETTINGS
350
19
  3
ACAD_SCALELIST
350
3B
  3
ACAD_TABLESTYLE
350
434
  3
ACAD_VISUALSTYLE
350
2A
  3
ACDBHEADERROUNDTRIPXREC
350
412
  3
ACDBVARIABLEDICTIONARY
350
432
  0
DICTIONARY
  5
D
102
{ACAD_REACTORS
330
C
102
}
330
C
100
AcDbDictionary
  0
DICTIONARY
  5
1A
102
{ACAD_REACTORS
330
C
102
}
330
C
100
AcDbDictionary
  0
DICTIONARY
  5
435
102
{ACAD_REACTORS
330
C
102
}
330
C
100
AcDbDictionary
  0
DICTIONARY
  5
17
102
{ACAD_REACTORS
330
C
102
}
330
C
100
AcDbDictionary
  3
STANDARD
350
18
  0
DICTIONARY
  5
19
102
{ACAD_REACTORS
330
C
102
}
330
C
100
AcDbDictionary
  0
DICTIONARY
  5
3B
102
{ACAD_REACTORS
330
C
102
}
330
C
100
AcDbDictionary
  3
A0
350
3C
  3
A1
350
3D
  3
A2
350
3E
  3
A3
350
3F
  3
A4
350
40
  3
A5
350
41
  3
A6
350
42
  3
A7
350
43
  3
A8
350
44
  3
A9
350
45
  3
B0
350
46
  3
B1
350
47
  3
B2
350
48
  3
B3
350
49
  3
B4
350
4A
  3
B5
350
4B
  3
B6
350
4C
  3
B7
350
4D
  3
B8
350
4E
  3
B9
350
4F
  3
C0
350
50
  3
C1
350
51
  3
C2
350
52
  3
C3
350
53
  3
C4
350
54
  3
C5
350
55
  3
C6
350
56
  3
C7
350
57
  3
C8
350
58
  3
C9
350
59
  3
D0
350
5A
  3
D1
350
5B
  3
D2
350
5C
  0
DICTIONARY
  5
434
102
{ACAD_REACTORS
330
C
102
}
330
C
100
AcDbDictionary
  0
DICTIONARY
  5
2A
102
{ACAD_REACTORS
330
C
102
}
330
C
100
AcDbDictionary
  3
2DWIREFRAME
350
2F
  3
3D_HIDDEN
350
31
  3
3DWIREFRAME
350
30
  3
BASIC
350
32
  3
BRIGHTEN
350
36
  3
COLORCHANGE
350
3A
  3
CONCEPTUAL
350
34
  3
DIM
350
35
  3
FACEPATTERN
350
39
  3
FLAT
350
2B
  3
FLATWITHEDGES
350
2C
  3
GOURAUD
350
2D
  3
GOURAUDWITHEDGES
350
2E
  3
LINEPATTERN
350
38
  3
REALISTIC
350
33
  3
THICKEN
350
37
  0
DICTIONARY
  5
412
102
{ACAD_REACTORS
330
C
102
}
330
C
100
AcDbDictionary
  3
CEPSNTYPE
350
41B
  3
DIMSTYLEDATA
350
431
  3
FINGERPRINTGUID
350
41C
  3
HYPERLINKBASE
350
415
  3
INSUNITS
350
41A
  3
LAYOUTDICT
350
417
  3
LWETCUNION
350
419
  3
PLOTSETDICT
350
418
  3
PSVPSCALE
350
41E
  3
PUCSBASE
350
421
  3
PUCSORGBACK
350
427
  3
PUCSORGBOTTOM
350
423
  3
PUCSORGFRONT
350
426
  3
PUCSORGLEFT
350
424
  3
PUCSORGRIGHT
350
425
  3
PUCSORGTOP
350
422
  3
PUCSORTHOREF
350
41F
  3
PUCSORTHOVIEW
350
420
  3
STYLESHEET
350
416
  3
TSTACKALIGN
350
413
  3
TSTACKSIZE
350
414
  3
UCSBASE
350
42A
  3
UCSORGBACK
350
430
  3
UCSORGBOTTOM
350
42C
  3
UCSORGFRONT
350
42F
  3
UCSORGLEFT
350
42D
  3
UCSORGRIGHT
350
42E
  3
UCSORGTOP
350
42B
  3
UCSORTHOREF
350
428
  3
UCSORTHOVIEW
350
429
  3
VERSIONGUID
350
41D
  0
DICTIONARY
  5
432
102
{ACAD_REACTORS
330
C
102
}
330
C
100
AcDbDictionary
  3
CANNOSCALE
350
433
  3
PSOLHEIGHT
350
437
  3
PSOLWIDTH
350
436
  0
MLINESTYLE
  5
18
102
{ACAD_REACTORS
330
17
102
}
330
17
100
AcDbMlineStyle
  2
Standard
 70
     0
  3

 62
   256
 51
90.0
 52
90.0
 71
     2
 49
0.5
 62
   256
  6
BYLAYER
 49
-0.5
 62
   256
  6
BYLAYER
  0
SCALE
  5
3C
102
{ACAD_REACTORS
330
3B
102
}
330
3B
100
AcDbScale
 70
     0
300
1:1
140
1.0
141
1.0
290
     1
  0
SCALE
  5
3D
102
{ACAD_REACTORS
330
3B
102
}
330
3B
100
AcDbScale
 70
     0
300
1:2
140
1.0
141
2.0
290
     0
  0
SCALE
  5
3E
102
{ACAD_REACTORS
330
3B
102
}
330
3B
100
AcDbScale
 70
     0
300
1:4
140
1.0
141
4.0
290
     0
  0
SCALE
  5
3F
102
{ACAD_REACTORS
330
3B
102
}
330
3B
100
AcDbScale
 70
     0
300
1:5
140
1.0
141
5.0
290
     0
  0
SCALE
  5
40
102
{ACAD_REACTORS
330
3B
102
}
330
3B
100
AcDbScale
 70
     0
300
1:8
140
1.0
141
8.0
290
     0
  0
SCALE
  5
41
102
{ACAD_REACTORS
330
3B
102
}
330
3B
100
AcDbScale
 70
     0
300
1:10
140
1.0
141
10.0
290
     0
  0
SCALE
  5
42
102
{ACAD_REACTORS
330
3B
102
}
330
3B
100
AcDbScale
 70
     0
300
1:16
140
1.0
141
16.0
290
     0
  0
SCALE
  5
43
102
{ACAD_REACTORS
330
3B
102
}
330
3B
100
AcDbScale
 70
     0
300
1:20
140
1.0
141
20.0
290
     0
  0
SCALE
  5
44
102
{ACAD_REACTORS
330
3B
102
}
330
3B
100
AcDbScale
 70
     0
300
1:30
140
1.0
141
30.0
290
     0
  0
SCALE
  5
45
102
{ACAD_REACTORS
330
3B
102
}
330
3B
100
AcDbScale
 70
     0
300
1:40
140
1.0
141
40.0
290
     0
  0
SCALE
  5
46
102
{ACAD_REACTORS
330
3B
102
}
330
3B
100
AcDbScale
 70
     0
300
1:50
140
1.0
141
50.0
290
     0
  0
SCALE
  5
47
102
{ACAD_REACTORS
330
3B
102
}
330
3B
100
AcDbScale
 70
     0
300
1:100
140
1.0
141
100.0
290
     0
  0
SCALE
  5
48
102
{ACAD_REACTORS
330
3B
102
}
330
3B
100
AcDbScale
 70
     0
300
2:1
140
2.0
141
1.0
290
     0
  0
SCALE
  5
49
102
{ACAD_REACTORS
330
3B
102
}
330
3B
100
AcDbScale
 70
     0
300
4:1
140
4.0
141
1.0
290
     0
  0
SCALE
  5
4A
102
{ACAD_REACTORS
330
3B
102
}
330
3B
100
AcDbScale
 70
     0
300
8:1
140
8.0
141
1.0
290
     0
  0
SCALE
  5
4B
102
{ACAD_REACTORS
330
3B
102
}
330
3B
100
AcDbScale
 70
     0
300
10:1
140
10.0
141
1.0
290
     0
  0
SCALE
  5
4C
102
{ACAD_REACTORS
330
3B
102
}
330
3B
100
AcDbScale
 70
     0
300
100:1
140
100.0
141
1.0
290
     0
  0
SCALE
  5
4D
102
{ACAD_REACTORS
330
3B
102
}
330
3B
100
AcDbScale
 70
     0
300
1/128" = 1'-0"
140
0.0078125
141
12.0
290
     0
  0
SCALE
  5
4E
102
{ACAD_REACTORS
330
3B
102
}
330
3B
100
AcDbScale
 70
     0
300
1/64" = 1'-0"
140
0.015625
141
12.0
290
     0
  0
SCALE
  5
4F
102
{ACAD_REACTORS
330
3B
102
}
330
3B
100
AcDbScale
 70
     0
300
1/32" = 1'-0"
140
0.03125
141
12.0
290
     0
  0
SCALE
  5
50
102
{ACAD_REACTORS
330
3B
102
}
330
3B
100
AcDbScale
 70
     0
300
1/16" = 1'-0"
140
0.0625
141
12.0
290
     0
  0
SCALE
  5
51
102
{ACAD_REACTORS
330
3B
102
}
330
3B
100
AcDbScale
 70
     0
300
3/32" = 1'-0"
140
0.09375
141
12.0
290
     0
  0
SCALE
  5
52
102
{ACAD_REACTORS
330
3B
102
}
330
3B
100
AcDbScale
 70
     0
300
1/8" = 1'-0"
140
0.125
141
12.0
290
     0
  0
SCALE
  5
53
102
{ACAD_REACTORS
330
3B
102
}
330
3B
100
AcDbScale
 70
     0
300
3/16" = 1'-0"
140
0.1875
141
12.0
290
     0
  0
SCALE
  5
54
102
{ACAD_REACTORS
330
3B
102
}
330
3B
100
AcDbScale
 70
     0
300
1/4" = 1'-0"
140
0.25
141
12.0
290
     0
  0
SCALE
  5
55
102
{ACAD_REACTORS
330
3B
102
}
330
3B
100
AcDbScale
 70
     0
300
3/8" = 1'-0"
140
0.375
141
12.0
290
     0
  0
SCALE
  5
56
102
{ACAD_REACTORS
330
3B
102
}
330
3B
100
AcDbScale
 70
     0
300
1/2" = 1'-0"
140
0.5
141
12.0
290
     0
  0
SCALE
  5
57
102
{ACAD_REACTORS
330
3B
102
}
330
3B
100
AcDbScale
 70
     0
300
3/4" = 1'-0"
140
0.75
141
12.0
290
     0
  0
SCALE
  5
58
102
{ACAD_REACTORS
330
3B
102
}
330
3B
100
AcDbScale
 70
     0
300
1" = 1'-0"
140
1.0
141
12.0
290
     0
  0
SCALE
  5
59
102
{ACAD_REACTORS
330
3B
102
}
330
3B
100
AcDbScale
 70
     0
300
1-1/2" = 1'-0"
140
1.5
141
12.0
290
     0
  0
SCALE
  5
5A
102
{ACAD_REACTORS
330
3B
102
}
330
3B
100
AcDbScale
 70
     0
300
3" = 1'-0"
140
3.0
141
12.0
290
     0
  0
SCALE
  5
5B
102
{ACAD_REACTORS
330
3B
102
}
330
3B
100
AcDbScale
 70
     0
300
6" = 1'-0"
140
6.0
141
12.0
290
     0
  0
SCALE
  5
5C
102
{ACAD_REACTORS
330
3B
102
}
330
3B
100
AcDbScale
 70
     0
300
1'-0" = 1'-0"
140
12.0
141
12.0
290
     0
  0
VISUALSTYLE
  5
2F
102
{ACAD_REACTORS
330
2A
102
}
330
2A
100
AcDbVisualStyle
  2
2dWireframe
 70
     4
 71
     0
 72
     2
 73
     0
 90
        0
 40
-0.6
 41
-30.0
 62
     5
 63
     7
 74
     1
 91
        4
 64
     7
 65
   257
 75
     1
175
     1
 42
1.0
 92
        0
 66
   257
 43
1.0
 76
     1
 77
     6
 78
     2
 67
     7
 79
     5
170
     0
171
     0
290
     0
174
     0
 93
        1
 44
0.0
173
     0
291
     0
 45
0.0
1001
ACAD
1000
AcDbSavedByObjectVersion
1070
     0
  0
VISUALSTYLE
  5
31
102
{ACAD_REACTORS
330
2A
102
}
330
2A
100
AcDbVisualStyle
  2
3D Hidden
 70
     6
 71
     1
 72
     2
 73
     2
 90
        0
 40
-0.6
 41
-30.0
 62
     5
 63
     7
 74
     2
 91
        2
 64
     7
 65
   257
 75
     2
175
     1
 42
40.0
 92
        0
 66
   257
 43
1.0
 76
     1
 77
     6
 78
     2
 67
     7
 79
     3
170
     0
171
     0
290
     0
174
     0
 93
        1
 44
0.0
173
     0
291
     0
 45
0.0
1001
ACAD
1000
AcDbSavedByObjectVersion
1070
     0
  0
VISUALSTYLE
  5
30
102
{ACAD_REACTORS
330
2A
102
}
330
2A
100
AcDbVisualStyle
  2
3dWireframe
 70
     5
 71
     0
 72
     2
 73
     0
 90
        0
 40
-0.6
 41
-30.0
 62
     5
 63
     7
 74
     1
 91
        4
 64
     7
 65
   257
 75
     1
175
     1
 42
1.0
 92
        0
 66
   257
 43
1.0
 76
     1
 77
     6
 78
     2
 67
     7
 79
     5
170
     0
171
     0
290
     0
174
     0
 93
        1
 44
0.0
173
     0
291
     0
 45
0.0
1001
ACAD
1000
AcDbSavedByObjectVersion
1070
     0
  0
VISUALSTYLE
  5
32
102
{ACAD_REACTORS
330
2A
102
}
330
2A
100
AcDbVisualStyle
  2
Basic
 70
     7
 71
     1
 72
     0
 73
     1
 90
        0
 40
-0.6
 41
-30.0
 62
     5
 63
     7
 74
     0
 91
        4
 64
     7
 65
   257
 75
     1
175
     1
 42
1.0
 92
        8
 66
     7
 43
1.0
 76
     1
 77
     6
 78
     2
 67
     7
 79
     5
170
     0
171
     0
290
     0
174
     0
 93
        1
 44
0.0
173
     0
291
     1
 45
0.0
1001
ACAD
1000
AcDbSavedByObjectVersion
1070
     0
  0
VISUALSTYLE
  5
36
102
{ACAD_REACTORS
330
2A
102
}
330
2A
100
AcDbVisualStyle
  2
Brighten
 70
    12
 71
     2
 72
     2
 73
     0
 90
        0
 40
-0.6
 41
-30.0
 62
     5
 63
     7
 74
     1
 91
        4
 64
     7
 65
   257
 75
     1
175
     1
 42
1.0
 92
        8
 66
     7
 43
1.0
 76
     1
 77
     6
 78
     2
 67
     7
 79
     5
170
     0
171
     0
290
     0
174
     0
 93
        1
 44
50.0
173
     0
291
     1
 45
0.0
1001
ACAD
1000
AcDbSavedByObjectVersion
1070
     0
  0
VISUALSTYLE
  5
3A
102
{ACAD_REACTORS
330
2A
102
}
330
2A
100
AcDbVisualStyle
  2
ColorChange
 70
    16
 71
     2
 72
     2
 73
     3
 90
        0
 40
-0.6
 41
-30.0
 62
     5
 63
     8
 74
     1
 91
        4
 64
     7
 65
   257
 75
     1
175
     1
 42
1.0
 92
        8
 66
     8
 43
1.0
 76
     1
 77
     6
 78
     2
 67
     7
 79
     5
170
     0
171
     0
290
     0
174
     0
 93
        1
 44
0.0
173
     0
291
     1
 45
0.0
1001
ACAD
1000
AcDbSavedByObjectVersion
1070
     0
  0
VISUALSTYLE
  5
34
102
{ACAD_REACTORS
330
2A
102
}
330
2A
100
AcDbVisualStyle
  2
Conceptual
 70
     9
 71
     3
 72
     2
 73
     0
 90
        0
 40
-0.6
 41
-30.0
 62
     5
 63
     7
 74
     2
 91
        2
 64
     7
 65
   257
 75
     1
175
     1
 42
40.0
 92
        8
 66
     7
 43
1.0
 76
     1
 77
     6
 78
     2
 67
     7
 79
     3
170
     0
171
     0
290
     0
174
     0
 93
        1
 44
0.0
173
     0
291
     0
 45
0.0
1001
ACAD
1000
AcDbSavedByObjectVersion
1070
     0
  0
VISUALSTYLE
  5
35
102
{ACAD_REACTORS
330
2A
102
}
330
2A
100
AcDbVisualStyle
  2
Dim
 70
    11
 71
     2
 72
     2
 73
     0
 90
        0
 40
-0.6
 41
-30.0
 62
     5
 63
     7
 74
     1
 91
        4
 64
     7
 65
   257
 75
     1
175
     1
 42
1.0
 92
        8
 66
     7
 43
1.0
 76
     1
 77
     6
 78
     2
 67
     7
 79
     5
170
     0
171
     0
290
     0
174
     0
 93
        1
 44
-50.0
173
     0
291
     1
 45
0.0
1001
ACAD
1000
AcDbSavedByObjectVersion
1070
     0
  0
VISUALSTYLE
  5
39
102
{ACAD_REACTORS
330
2A
102
}
330
2A
100
AcDbVisualStyle
  2
Facepattern
 70
    15
 71
     2
 72
     2
 73
     0
 90
        0
 40
-0.6
 41
-30.0
 62
     5
 63
     7
 74
     1
 91
        4
 64
     7
 65
   257
 75
     1
175
     1
 42
1.0
 92
        8
 66
     7
 43
1.0
 76
     1
 77
     6
 78
     2
 67
     7
 79
     5
170
     0
171
     0
290
     0
174
     0
 93
        1
 44
0.0
173
     0
291
     1
 45
0.0
1001
ACAD
1000
AcDbSavedByObjectVersion
1070
     0
  0
VISUALSTYLE
  5
2B
102
{ACAD_REACTORS
330
2A
102
}
330
2A
100
AcDbVisualStyle
  2
Flat
 70
     0
 71
     2
 72
     1
 73
     1
 90
        2
 40
-0.6
 41
30.0
 62
     5
 63
     7
 74
     0
 91
        4
 64
     7
 65
   257
 75
     1
175
     1
 42
1.0
 92
        8
 66
     7
 43
1.0
 76
     1
 77
     6
 78
     2
 67
     7
 79
     5
170
     0
171
     0
290
     0
174
     0
 93
       13
 44
0.0
173
     0
291
     1
 45
0.0
1001
ACAD
1000
AcDbSavedByObjectVersion
1070
     0
  0
VISUALSTYLE
  5
2C
102
{ACAD_REACTORS
330
2A
102
}
330
2A
100
AcDbVisualStyle
  2
FlatWithEdges
 70
     1
 71
     2
 72
     1
 73
     1
 90
        2
 40
-0.6
 41
30.0
 62
     5
 63
     7
 74
     1
 91
        4
 64
     7
 65
   257
 75
     1
175
     1
 42
1.0
 92
        0
 66
   257
 43
1.0
 76
     1
 77
     6
 78
     2
 67
     7
 79
     5
170
     0
171
     0
290
     0
174
     0
 93
       13
 44
0.0
173
     0
291
     1
 45
0.0
1001
ACAD
1000
AcDbSavedByObjectVersion
1070
     0
  0
VISUALSTYLE
  5
2D
102
{ACAD_REACTORS
330
2A
102
}
330
2A
100
AcDbVisualStyle
  2
Gouraud
 70
     2
 71
     2
 72
     2
 73
     1
 90
        2
 40
-0.6
 41
30.0
 62
     5
 63
     7
 74
     0
 91
        4
 64
     7
 65
   257
 75
     1
175
     1
 42
1.0
 92
        0
 66
     7
 43
1.0
 76
     1
 77
     6
 78
     2
 67
     7
 79
     5
170
     0
171
     0
290
     0
174
     0
 93
       13
 44
0.0
173
     0
291
     1
 45
0.0
1001
ACAD
1000
AcDbSavedByObjectVersion
1070
     0
  0
VISUALSTYLE
  5
2E
102
{ACAD_REACTORS
330
2A
102
}
330
2A
100
AcDbVisualStyle
  2
GouraudWithEdges
 70
     3
 71
     2
 72
     2
 73
     1
 90
        2
 40
-0.6
 41
30.0
 62
     5
 63
     7
 74
     1
 91
        4
 64
     7
 65
   257
 75
     1
175
     1
 42
1.0
 92
        0
 66
   257
 43
1.0
 76
     1
 77
     6
 78
     2
 67
     7
 79
     5
170
     0
171
     0
290
     0
174
     0
 93
       13
 44
0.0
173
     0
291
     1
 45
0.0
1001
ACAD
1000
AcDbSavedByObjectVersion
1070
     0
  0
VISUALSTYLE
  5
38
102
{ACAD_REACTORS
330
2A
102
}
330
2A
100
AcDbVisualStyle
  2
Linepattern
 70
    14
 71
     2
 72
     2
 73
     0
 90
        0
 40
-0.6
 41
-30.0
 62
     5
 63
     7
 74
     1
 91
        4
 64
     7
 65
   257
 75
     7
175
     7
 42
1.0
 92
        8
 66
     7
 43
1.0
 76
     1
 77
     6
 78
     2
 67
     7
 79
     5
170
     0
171
     0
290
     0
174
     0
 93
        1
 44
0.0
173
     0
291
     1
 45
0.0
1001
ACAD
1000
AcDbSavedByObjectVersion
1070
     0
  0
VISUALSTYLE
  5
33
102
{ACAD_REACTORS
330
2A
102
}
330
2A
100
AcDbVisualStyle
  2
Realistic
 70
     8
 71
     2
 72
     2
 73
     0
 90
        0
 40
-0.6
 41
-30.0
 62
     5
 63
     7
 74
     1
 91
        0
 64
     7
 65
   257
 75
     1
175
     1
 42
1.0
 92
        8
 66
     8
 43
1.0
 76
     1
 77
     6
 78
     2
 67
     7
 79
     5
170
     0
171
     0
290
     0
174
     0
 93
       13
 44
0.0
173
     0
291
     0
 45
0.0
1001
ACAD
1000
AcDbSavedByObjectVersion
1070
     0
  0
VISUALSTYLE
  5
37
102
{ACAD_REACTORS
330
2A
102
}
330
2A
100
AcDbVisualStyle
  2
Thicken
 70
    13
 71
     2
 72
     2
 73
     0
 90
        0
 40
-0.6
 41
-30.0
 62
     5
 63
     7
 74
     1
 91
        4
 64
     7
 65
   257
 75
     1
175
     1
 42
1.0
 92
       12
 66
     7
 43
1.0
 76
     1
 77
     6
 78
     2
 67
     7
 79
     5
170
     0
171
     0
290
     0
174
     0
 93
        1
 44
0.0
173
     0
291
     1
 45
0.0
1001
ACAD
1000
AcDbSavedByObjectVersion
1070
     0
  0
XRECORD
  5
41B
102
{ACAD_REACTORS
330
412
102
}
330
412
100
AcDbXrecord
 90
        0
  0
XRECORD
  5
431
102
{ACAD_REACTORS
330
412
102
}
330
412
100
AcDbXrecord
1000
DSTYLE
1002
{
1070
   143
 40
0.0393700787
1070
    41
 40
30.0
1070
    44
 40
5.0
1070
    42
 40
5.0
1070
   147
 40
7.62
1070
    73
 70
     1
1070
    74
 70
     1
1070
   340
340
11
1070
   140
 40
17.5
1070
   284
 70
     0
1070
    78
 70
     0
1002
}
  0
XRECORD
  5
41C
102
{ACAD_REACTORS
330
412
102
}
330
412
100
AcDbXrecord
  1
{D7636325-FBD2-40BD-A625-6E93F88DFEC2}
  0
XRECORD
  5
415
102
{ACAD_REACTORS
330
412
102
}
330
412
100
AcDbXrecord
  1

  0
XRECORD
  5
41A
102
{ACAD_REACTORS
330
412
102
}
330
412
100
AcDbXrecord
 90
        4
  0
XRECORD
  5
417
102
{ACAD_REACTORS
330
412
102
}
330
412
100
AcDbXrecord
340
1A
  0
XRECORD
  5
419
102
{ACAD_REACTORS
330
412
102
}
330
412
100
AcDbXrecord
 90
    10269
  0
XRECORD
  5
418
102
{ACAD_REACTORS
330
412
102
}
330
412
100
AcDbXrecord
340
19
  0
XRECORD
  5
41E
102
{ACAD_REACTORS
330
412
102
}
330
412
100
AcDbXrecord
 40
0.0
  0
XRECORD
  5
421
102
{ACAD_REACTORS
330
412
102
}
330
412
100
AcDbXrecord
340
0
  0
XRECORD
  5
427
102
{ACAD_REACTORS
330
412
102
}
330
412
100
AcDbXrecord
 10
0.0
 20
0.0
 30
0.0
  0
XRECORD
  5
423
102
{ACAD_REACTORS
330
412
102
}
330
412
100
AcDbXrecord
 10
0.0
 20
0.0
 30
0.0
  0
XRECORD
  5
426
102
{ACAD_REACTORS
330
412
102
}
330
412
100
AcDbXrecord
 10
0.0
 20
0.0
 30
0.0
  0
XRECORD
  5
424
102
{ACAD_REACTORS
330
412
102
}
330
412
100
AcDbXrecord
 10
0.0
 20
0.0
 30
0.0
  0
XRECORD
  5
425
102
{ACAD_REACTORS
330
412
102
}
330
412
100
AcDbXrecord
 10
0.0
 20
0.0
 30
0.0
  0
XRECORD
  5
422
102
{ACAD_REACTORS
330
412
102
}
330
412
100
AcDbXrecord
 10
0.0
 20
0.0
 30
0.0
  0
XRECORD
  5
41F
102
{ACAD_REACTORS
330
412
102
}
330
412
100
AcDbXrecord
340
0
  0
XRECORD
  5
420
102
{ACAD_REACTORS
330
412
102
}
330
412
100
AcDbXrecord
 70
     0
  0
XRECORD
  5
416
102
{ACAD_REACTORS
330
412
102
}
330
412
100
AcDbXrecord
  1

  0
XRECORD
  5
413
102
{ACAD_REACTORS
330
412
102
}
330
412
100
AcDbXrecord
 90
        1
  0
XRECORD
  5
414
102
{ACAD_REACTORS
330
412
102
}
330
412
100
AcDbXrecord
 90
       70
  0
XRECORD
  5
42A
102
{ACAD_REACTORS
330
412
102
}
330
412
100
AcDbXrecord
340
0
  0
XRECORD
  5
430
102
{ACAD_REACTORS
330
412
102
}
330
412
100
AcDbXrecord
 10
0.0
 20
0.0
 30
0.0
  0
XRECORD
  5
42C
102
{ACAD_REACTORS
330
412
102
}
330
412
100
AcDbXrecord
 10
0.0
 20
0.0
 30
0.0
  0
XRECORD
  5
42F
102
{ACAD_REACTORS
330
412
102
}
330
412
100
AcDbXrecord
 10
0.0
 20
0.0
 30
0.0
  0
XRECORD
  5
42D
102
{ACAD_REACTORS
330
412
102
}
330
412
100
AcDbXrecord
 10
0.0
 20
0.0
 30
0.0
  0
XRECORD
  5
42E
102
{ACAD_REACTORS
330
412
102
}
330
412
100
AcDbXrecord
 10
0.0
 20
0.0
 30
0.0
  0
XRECORD
  5
42B
102
{ACAD_REACTORS
330
412
102
}
330
412
100
AcDbXrecord
 10
0.0
 20
0.0
 30
0.0
  0
XRECORD
  5
428
102
{ACAD_REACTORS
330
412
102
}
330
412
100
AcDbXrecord
340
0
  0
XRECORD
  5
429
102
{ACAD_REACTORS
330
412
102
}
330
412
100
AcDbXrecord
 70
     0
  0
XRECORD
  5
41D
102
{ACAD_REACTORS
330
412
102
}
330
412
100
AcDbXrecord
  1
{FAEB1C32-E019-11D5-929B-00C0DF256EC4}
  0
DICTIONARYVAR
  5
433
102
{ACAD_REACTORS
330
432
102
}
330
432
100
DictionaryVariables
280
     0
  1
1:1
  0
DICTIONARYVAR
  5
437
102
{ACAD_REACTORS
330
432
102
}
330
432
100
DictionaryVariables
280
     0
  1
80.000000
  0
DICTIONARYVAR
  5
436
102
{ACAD_REACTORS
330
432
102
}
330
432
100
DictionaryVariables
280
     0
  1
5.000000
  0
ENDSEC
  0
EOF
