  0
SECTION
  2
HEADER
  9
$ACADVER
  1
AC1009
  9
$INSBASE
 10
0.0
 20
0.0
 30
0.0
  9
$EXTMIN
 10
-127.94333504730911
 20
500.59278770238319
 30
0.0
  9
$EXTMAX
 10
662.45665631798499
 20
798.53308012598131
 30
0.0
  9
$LIMMIN
 10
0.0
 20
0.0
  9
$LIMMAX
 10
0.0
 20
0.0
  9
$ORTHOMODE
 70
     1
  9
$REGENMODE
 70
     1
  9
$FILLMODE
 70
     1
  9
$QTEXTMODE
 70
     0
  9
$MIRRTEXT
 70
     1
  9
$DRAGMODE
 70
     2
  9
$LTSCALE
 40
1.0
  9
$OSMODE
 70
    37
  9
$ATTMODE
 70
     1
  9
$TEXTSIZE
 40
0.0
  9
$TRACEWID
 40
0.05
  9
$TEXTSTYLE
  7
STANDARD
  9
$CLAYER
  8
0
  9
$CELTYPE
  6
CONTINUOUS
  9
$CECOLOR
 62
   256
  9
$DIMSCALE
 40
1.0
  9
$DIMASZ
 40
0.0
  9
$DIMEXO
 40
0.0
  9
$DIMDLI
 40
0.38
  9
$DIMRND
 40
0.0
  9
$DIMDLE
 40
0.0
  9
$DIMEXE
 40
0.18
  9
$DIMTP
 40
0.0
  9
$DIMTM
 40
0.0
  9
$DIMTXT
 40
3.5
  9
$DIMCEN
 40
0.09
  9
$DIMTSZ
 40
0.0
  9
$DIMTOL
 70
     0
  9
$DIMLIM
 70
     0
  9
$DIMTIH
 70
     1
  9
$DIMTOH
 70
     1
  9
$DIMSE1
 70
     0
  9
$DIMSE2
 70
     0
  9
$DIMTAD
 70
     1
  9
$DIMZIN
 70
     0
  9
$DIMBLK
  1

  9
$DIMASO
 70
     1
  9
$DIMSHO
 70
     1
  9
$DIMPOST
  1

  9
$DIMAPOST
  1

  9
$DIMALT
 70
     0
  9
$DIMALTD
 70
     2
  9
$DIMALTF
 40
0.0394
  9
$DIMLFAC
 40
1.0
  9
$DIMTOFL
 70
     0
  9
$DIMTVP
 40
0.0
  9
$DIMTIX
 70
     0
  9
$DIMSOXD
 70
     0
  9
$DIMSAH
 70
     0
  9
$DIMBLK1
  1

  9
$DIMBLK2
  1

  9
$DIMSTYLE
  2
STANDARD
  9
$DIMCLRD
 70
     0
  9
$DIMCLRE
 70
     0
  9
$DIMCLRT
 70
     0
  9
$DIMTFAC
 40
1.0
  9
$DIMGAP
 40
0.0
  9
$LUNITS
 70
     2
  9
$LUPREC
 70
     2
  9
$SKETCHINC
 40
0.1
  9
$FILLETRAD
 40
0.0
  9
$AUNITS
 70
     0
  9
$AUPREC
 70
     2
  9
$MENU
  1
acad
  9
$ELEVATION
 40
0.0
  9
$PELEVATION
 40
0.0
  9
$THICKNESS
 40
0.0
  9
$LIMCHECK
 70
     0
  9
$BLIPMODE
 70
     0
  9
$CHAMFERA
 40
0.0
  9
$CHAMFERB
 40
0.0
  9
$SKPOLY
 70
     0
  9
$TDCREATE
 40
2444972.125
  9
$TDUPDATE
 40
2453620.4635978588
  9
$TDINDWG
 40
0.0223750231
  9
$TDUSRTIMER
 40
0.0223750231
  9
$USRTIMER
 70
     1
  9
$ANGBASE
 50
0.0
  9
$ANGDIR
 70
     0
  9
$PDMODE
 70
     0
  9
$PDSIZE
 40
-1.0
  9
$PLINEWID
 40
0.0
  9
$COORDS
 70
     2
  9
$SPLFRAME
 70
     0
  9
$SPLINETYPE
 70
     6
  9
$SPLINESEGS
 70
     8
  9
$ATTDIA
 70
     0
  9
$ATTREQ
 70
     1
  9
$HANDLING
 70
-16383
  9
$HANDSEED
  5
10B8
  9
$SURFTAB1
 70
     6
  9
$SURFTAB2
 70
     6
  9
$SURFTYPE
 70
     6
  9
$SURFU
 70
     6
  9
$SURFV
 70
     6
  9
$UCSNAME
  2

  9
$UCSORG
 10
0.0
 20
0.0
 30
0.0
  9
$UCSXDIR
 10
1.0
 20
0.0
 30
0.0
  9
$UCSYDIR
 10
0.0
 20
1.0
 30
0.0
  9
$PUCSNAME
  2

  9
$PUCSORG
 10
0.0
 20
0.0
 30
0.0
  9
$PUCSXDIR
 10
1.0
 20
0.0
 30
0.0
  9
$PUCSYDIR
 10
0.0
 20
1.0
 30
0.0
  9
$USERI1
 70
     0
  9
$USERI2
 70
     0
  9
$USERI3
 70
     0
  9
$USERI4
 70
     0
  9
$USERI5
 70
     0
  9
$USERR1
 40
0.0
  9
$USERR2
 40
0.0
  9
$USERR3
 40
0.0
  9
$USERR4
 40
0.0
  9
$USERR5
 40
0.0
  9
$WORLDVIEW
 70
     1
  9
$SHADEDGE
 70
     3
  9
$SHADEDIF
 70
    70
  9
$TILEMODE
 70
     1
  9
$MAXACTVP
 70
    16
  9
$PLIMCHECK
 70
     0
  9
$PEXTMIN
 10
1.0000000000000000E+020
 20
1.0000000000000000E+020
 30
1.0000000000000000E+020
  9
$PEXTMAX
 10
-1.0000000000000000E+020
 20
-1.0000000000000000E+020
 30
-1.0000000000000000E+020
  9
$PLIMMIN
 10
0.0
 20
0.0
  9
$PLIMMAX
 10
12.0
 20
9.0
  9
$UNITMODE
 70
     0
  9
$VISRETAIN
 70
     0
  9
$PLINEGEN
 70
     1
  9
$PSLTSCALE
 70
     1
  0
ENDSEC
  0
SECTION
  2
TABLES
  0
TABLE
  2
VPORT
 70
     2
  0
VPORT
  2
*ACTIVE
 70
     0
 10
0.0
 20
0.0
 11
1.0
 21
1.0
 12
267.26165875939381
 22
649.56514104533142
 13
0.0
 23
0.0
 14
1.0
 24
1.0
 15
0.0
 25
0.0
 16
0.0
 26
0.0
 36
1.0
 17
0.0
 27
0.0
 37
0.0
 40
510.32847801109199
 41
1.5552208835341359
 42
50.0
 43
0.0
 44
0.0
 50
0.0
 51
0.0
 71
     0
 72
  2000
 73
     1
 74
     1
 75
     0
 76
     0
 77
     0
 78
     0
  0
ENDTAB
  0
TABLE
  2
LTYPE
 70
     3
  0
LTYPE
  2
CONTINUOUS
 70
     0
  3
Solid line
 72
    65
 73
     0
 40
0.0
  0
LTYPE
  2
CENTER
 70
     0
  3
Center ____ _ ____ _ ____ _ ____ _ ____ _ ____
 72
    65
 73
     4
 40
10.16
 49
6.3499999999999988
 49
-1.27
 49
1.27
 49
-1.27
  0
LTYPE
  2
DASHED
 70
     0
  3
__ __ __ __ __ __ __ _
 72
    65
 73
     2
 40
7.5
 49
5.0
 49
-2.5
  0
ENDTAB
  0
TABLE
  2
LAYER
 70
     6
  0
LAYER
  2
0
 70
     0
 62
     7
  6
CONTINUOUS
  0
LAYER
  2
DEFPOINTS
 70
     0
 62
     7
  6
CONTINUOUS
  0
LAYER
  2
L20
 70
     0
 62
     3
  6
CONTINUOUS
  0
LAYER
  2
13
 70
     0
 62
     1
  6
CENTER
  0
LAYER
  2
52
 70
     0
 62
     1
  6
DASHED
  0
LAYER
  2
63
 70
     0
 62
     1
  6
CENTER
  0
ENDTAB
  0
TABLE
  2
STYLE
 70
     2
  0
STYLE
  2
STANDARD
 70
     0
 40
0.0
 41
1.0
 50
0.0
 71
     0
 42
0.0
  3
txt
  4

  0
STYLE
  2
TKKISO
 70
     0
 40
0.0
 41
1.0
 50
0.0
 71
     0
 42
2.5
  3
caeiso
  4

  0
ENDTAB
  0
TABLE
  2
VIEW
 70
     0
  0
ENDTAB
  0
TABLE
  2
UCS
 70
     0
  0
ENDTAB
  0
TABLE
  2
APPID
 70
     2
  0
APPID
  2
ACAD
 70
     0
  0
APPID
  2
DCO15
 70
     0
  0
ENDTAB
  0
TABLE
  2
DIMSTYLE
 70
     1
  0
DIMSTYLE
  2
STANDARD
 70
     0
  3

  4

  5

  6

  7

 40
1.0
 41
0.18
 42
0.0625
 43
0.38
 44
0.18
 45
0.0
 46
0.0
 47
0.0
 48
0.0
140
0.18
141
0.09
142
0.0
143
25.399999999999999
144
1.0
145
0.0
146
1.0
147
0.09
 71
     0
 72
     0
 73
     1
 74
     1
 75
     0
 76
     0
 77
     0
 78
     0
170
     0
171
     2
172
     0
173
     0
174
     0
175
     0
176
     0
177
     0
178
     0
  0
ENDTAB
  0
ENDSEC
  0
SECTION
  2
BLOCKS
  0
BLOCK
  8
0
  2
$MODEL_SPACE
 70
     0
 10
0.0
 20
0.0
 30
0.0
  3
$MODEL_SPACE
  1

  0
ENDBLK
  5
E
  8
0
  0
BLOCK
 67
     1
  8
0
  2
$PAPER_SPACE
 70
     0
 10
0.0
 20
0.0
 30
0.0
  3
$PAPER_SPACE
  1

  0
ENDBLK
  5
10
 67
     1
  8
0
  0
ENDSEC
  0
SECTION
  2
ENTITIES
  0
ARC
  5
37
  8
0
  6
CONTINUOUS
 62
     7
 10
318.2534681921602
 20
706.81937342733295
 30
0.0
 40
0.4999753834219662
 50
329.99947592666001
 51
48.693270763944042
  0
CIRCLE
  5
3F
  8
0
  6
CONTINUOUS
 62
     7
 10
315.83125248490938
 20
704.06293391418228
 30
0.0
 40
4.3973933631785371
  0
ARC
  5
8F
  8
0
  6
CONTINUOUS
 62
     7
 10
313.4090367777514
 20
701.3064944010348
 30
0.0
 40
0.4999753834856782
 50
149.99947593131091
 51
228.69327075620669
  0
ARC
  5
A1
  8
0
  6
CONTINUOUS
 62
     7
 10
317.0072912737059
 20
707.53885400662466
 30
0.0
 40
0.4999753834657389
 50
71.306729241900143
 51
150.00052407100171
  0
ARC
  5
D7
  8
0
  6
CONTINUOUS
 62
     7
 10
314.65521369613822
 20
700.58701382166498
 30
0.0
 40
0.4999753834064366
 50
251.3067292352068
 51
330.00052407698888
  0
LINE
  5
DC
  8
0
  6
CONTINUOUS
 62
     7
 10
309.83823732784617
 20
705.6629339141823
 30
0.0
 11
309.83823732784617
 21
593.46293391418214
 31
0.0
  0
LINE
  5
DE
  8
0
  6
CONTINUOUS
 62
     7
 10
308.64755884071189
 20
593.46293391418214
 30
0.0
 11
308.64755884071189
 21
705.6629339141823
 31
0.0
  0
LINE
  5
E0
  8
0
  6
CONTINUOUS
 62
     7
 10
546.43125248490935
 20
710.05594907124555
 30
0.0
 11
314.23125248490942
 21
710.05594907124555
 31
0.0
  0
LINE
  5
E1
  8
0
  6
CONTINUOUS
 62
     7
 10
550.82426764197248
 20
593.46293391418214
 30
0.0
 11
550.82426764197271
 21
705.6629339141823
 31
0.0
  0
LINE
  5
E3
  8
0
  6
CONTINUOUS
 62
     7
 10
314.23125248490942
 20
589.06991875711913
 30
0.0
 11
546.43125248490935
 21
589.06991875711913
 31
0.0
  0
ARC
  5
E5
  8
0
  6
CONTINUOUS
 62
     7
 10
314.23125248490942
 20
705.6629339141823
 30
0.0
 40
4.3930151570631892
 50
90.0
 51
180.0
  0
LINE
  5
E6
  8
0
  6
CONTINUOUS
 62
     7
 10
552.01494612910676
 20
705.6629339141823
 30
0.0
 11
552.01494612910699
 21
593.46293391418214
 31
0.0
  0
LINE
  5
E9
  8
0
  6
CONTINUOUS
 62
     7
 10
314.23125248490942
 20
711.24662755837971
 30
0.0
 11
546.43125248490935
 21
711.24662755837971
 31
0.0
  0
ARC
  5
EA
  8
0
  6
CONTINUOUS
 62
     7
 10
314.23125248490942
 20
705.6629339141823
 30
0.0
 40
5.5836936441974672
 50
90.0
 51
180.0
  0
LINE
  5
ED
  8
0
  6
CONTINUOUS
 62
     7
 10
546.43125248490935
 20
587.87924026998485
 30
0.0
 11
314.23125248490942
 21
587.87924026998485
 31
0.0
  0
ARC
  5
F1
  8
0
  6
CONTINUOUS
 62
     7
 10
315.83125248490938
 20
704.06293391418228
 30
0.0
 40
4.1694559627323278
 50
48.692746686847428
 51
71.30725331315621
  0
ARC
  5
F4
  8
0
  6
CONTINUOUS
 62
     7
 10
315.83125248490938
 20
704.06293391418228
 30
0.0
 40
4.1694559627323784
 50
228.6927466868452
 51
251.30725331315341
  0
LINE
  5
100
  8
0
  6
CONTINUOUS
 62
     7
 10
552.43125248490935
 20
593.46293391418214
 30
0.0
 11
552.43125248490935
 21
705.6629339141823
 31
0.0
  0
LINE
  5
105
  8
0
  6
CONTINUOUS
 62
     7
 10
314.23125248490942
 20
587.46293391418214
 30
0.0
 11
546.43125248490935
 21
587.46293391418214
 31
0.0
  0
LINE
  5
108
  8
0
  6
CONTINUOUS
 62
     7
 10
546.43125248490935
 20
711.6629339141823
 30
0.0
 11
314.23125248490942
 21
711.6629339141823
 31
0.0
  0
ARC
  5
10A
  8
0
  6
CONTINUOUS
 62
     7
 10
314.23125248490942
 20
705.6629339141823
 30
0.0
 40
6.000000000000056
 50
90.0
 51
180.0
  0
LINE
  5
10E
  8
0
  6
CONTINUOUS
 62
     7
 10
308.23125248490942
 20
705.6629339141823
 30
0.0
 11
308.23125248490942
 21
593.46293391418214
 31
0.0
  0
LINE
  5
129
  8
0
  6
CONTINUOUS
 62
     7
 10
313.41268180859009
 20
702.37384662110105
 30
0.0
 11
313.43138219854762
 21
702.37466761193878
 31
0.0
  0
ARC
  5
12A
  8
0
  6
CONTINUOUS
 62
     7
 10
295.86271352738152
 20
713.36842684380417
 30
0.0
 40
20.724885064227699
 50
327.96333986608738
 51
331.18619778887751
  0
LINE
  5
12B
  8
0
  6
CONTINUOUS
 62
     7
 10
314.0216630696558
 20
703.37976264649592
 30
0.0
 11
314.16251812489401
 21
703.6237307586714
 31
0.0
  0
LINE
  5
12C
  8
0
  6
CONTINUOUS
 62
     7
 10
314.16906704871258
 20
703.62285621255296
 30
0.0
 11
314.16251812489401
 21
703.6237307586714
 31
0.0
  0
LINE
  5
12D
  8
0
  6
CONTINUOUS
 62
     7
 10
312.97604768097631
 20
701.55648605322006
 30
0.0
 11
314.16906704871258
 21
703.62285621255296
 31
0.0
  0
LINE
  5
14D
  8
0
  6
CONTINUOUS
 62
     7
 10
318.24982316122868
 20
705.75202120726362
 30
0.0
 11
318.2311227712712
 21
705.75120021642579
 31
0.0
  0
ARC
  5
14E
  8
0
  6
CONTINUOUS
 62
     7
 10
335.7997914421411
 20
694.75744098472569
 30
0.0
 40
20.724885063888589
 50
147.96333986603921
 51
151.18619778888279
  0
LINE
  5
14F
  8
0
  6
CONTINUOUS
 62
     7
 10
317.64084190016303
 20
704.74610518186864
 30
0.0
 11
317.49998684492482
 21
704.50213706969316
 31
0.0
  0
LINE
  5
150
  8
0
  6
CONTINUOUS
 62
     7
 10
317.49343792110778
 20
704.50301161581433
 30
0.0
 11
317.49998684492482
 21
704.50213706969316
 31
0.0
  0
LINE
  5
151
  8
0
  6
CONTINUOUS
 62
     7
 10
318.68645728884252
 20
706.56938177514462
 30
0.0
 11
317.49343792110778
 21
704.50301161581433
 31
0.0
  0
LINE
  5
158
  8
0
  6
CONTINUOUS
 62
     7
 10
316.28122673375782
 20
702.40340024982072
 30
0.0
 11
316.28525857482248
 21
702.39816598848552
 31
0.0
  0
LINE
  5
159
  8
0
  6
CONTINUOUS
 62
     7
 10
316.28525857482248
 20
702.39816598848552
 30
0.0
 11
316.14440351958422
 21
702.15419787631004
 31
0.0
  0
ARC
  5
15A
  8
0
  6
CONTINUOUS
 62
     7
 10
354.38538809961562
 20
679.78245156384469
 30
0.0
 40
44.30426542354013
 50
149.67150599063331
 51
151.17895635443739
  0
LINE
  5
15D
  8
0
  6
CONTINUOUS
 62
     7
 10
316.28122673375782
 20
702.40340024982072
 30
0.0
 11
315.08820736602161
 21
700.3370300904877
 31
0.0
  0
LINE
  5
176
  8
0
  6
CONTINUOUS
 62
     7
 10
315.38127823606089
 20
705.72246757854373
 30
0.0
 11
315.3772463949964
 21
705.72770183987905
 31
0.0
  0
LINE
  5
177
  8
0
  6
CONTINUOUS
 62
     7
 10
315.3772463949964
 20
705.72770183987905
 30
0.0
 11
315.51810145023461
 21
705.97166995205453
 31
0.0
  0
ARC
  5
178
  8
0
  6
CONTINUOUS
 62
     7
 10
277.27711686957377
 20
728.34341626487537
 30
0.0
 40
44.304265424263129
 50
329.67150599064797
 51
331.1789563544275
  0
LINE
  5
179
  8
0
  6
CONTINUOUS
 62
     7
 10
316.09339884782452
 20
706.9854156990807
 30
0.0
 11
316.08475965176763
 21
707.00202120726362
 31
0.0
  0
LINE
  5
17B
  8
0
  6
CONTINUOUS
 62
     7
 10
315.38127823606089
 20
705.72246757854373
 30
0.0
 11
316.57429760379728
 21
707.78883773787686
 31
0.0
  0
ARC
  5
188
  8
0
  6
CONTINUOUS
 62
     7
 10
315.83125248490938
 20
704.06293391418228
 30
0.0
 40
2.9500000000000668
 50
85.070227949328356
 51
214.92977205065739
  0
ARC
  5
189
  8
0
  6
CONTINUOUS
 62
     7
 10
315.83125248490938
 20
704.06293391418228
 30
0.0
 40
2.934215482655151
 50
84.874291446295715
 51
215.12570855368509
  0
ARC
  5
18E
  8
0
  6
CONTINUOUS
 62
     7
 10
315.83125248490938
 20
704.06293391418228
 30
0.0
 40
2.9500000000000339
 50
265.07022794934142
 51
34.929772050658812
  0
ARC
  5
18F
  8
0
  6
CONTINUOUS
 62
     7
 10
315.83125248490938
 20
704.06293391418228
 30
0.0
 40
2.9342154826550941
 50
264.87429144631329
 51
35.12570855368665
  0
ARC
  5
1B0
  8
0
  6
CONTINUOUS
 62
     7
 10
315.83125248490938
 20
704.06293391418228
 30
0.0
 40
1.7255647701859029
 50
105.2544291313034
 51
118.7729831162215
  0
LINE
  5
1B1
  8
0
  6
CONTINUOUS
 62
     7
 10
314.1060833914301
 20
704.02598293300025
 30
0.0
 11
315.00066842656821
 21
705.57544966555008
 31
0.0
  0
ARC
  5
1B2
  8
0
  6
CONTINUOUS
 62
     7
 10
315.83125248490938
 20
704.06293391418228
 30
0.0
 40
1.725564770185932
 50
181.2270168837785
 51
194.7455708687001
  0
ARC
  5
1C1
  8
0
  6
CONTINUOUS
 62
     7
 10
315.83125248490938
 20
704.06293391418228
 30
0.0
 40
1.7255647701858181
 50
1.2270168837794591
 51
14.74557086870186
  0
LINE
  5
1C2
  8
0
  6
CONTINUOUS
 62
     7
 10
317.55027679877281
 20
704.10145943977523
 30
0.0
 11
317.55642157838872
 21
704.09988489536431
 31
0.0
  0
ARC
  5
1C3
  8
0
  6
CONTINUOUS
 62
     7
 10
315.83125248490938
 20
704.06293391418228
 30
0.0
 40
1.7194559627346619
 50
1.283856519742423
 51
14.82929661050466
  0
LINE
  5
1C8
  8
0
  6
CONTINUOUS
 62
     7
 10
315.00510441183542
 20
705.57091540250747
 30
0.0
 11
315.00066842656821
 21
705.57544966555008
 31
0.0
  0
LINE
  5
1C9
  8
0
  6
CONTINUOUS
 62
     7
 10
314.11222817104601
 20
704.02440838858922
 30
0.0
 11
315.00510441183542
 21
705.57091540250747
 31
0.0
  0
LINE
  5
1CA
  8
0
  6
CONTINUOUS
 62
     7
 10
314.11222817104601
 20
704.02440838858922
 30
0.0
 11
314.1060833914301
 21
704.02598293300025
 31
0.0
  0
ARC
  5
1CB
  8
0
  6
CONTINUOUS
 62
     7
 10
315.83125248490938
 20
704.06293391418228
 30
0.0
 40
1.725564770185863
 50
285.2544291312995
 51
298.77298311622189
  0
ARC
  5
1CC
  8
0
  6
CONTINUOUS
 62
     7
 10
315.83125248490938
 20
704.06293391418228
 30
0.0
 40
1.719455962732338
 50
285.17070338957262
 51
298.71614348025759
  0
LINE
  5
1CD
  8
0
  6
CONTINUOUS
 62
     7
 10
316.65740055798352
 20
702.55495242585687
 30
0.0
 11
316.66183654325067
 21
702.55041816281425
 31
0.0
  0
LINE
  5
1D1
  8
0
  6
CONTINUOUS
 62
     7
 10
317.55642157838872
 20
704.09988489536431
 30
0.0
 11
316.66183654325067
 21
702.55041816281425
 31
0.0
  0
ARC
  5
1D2
  8
0
  6
CONTINUOUS
 62
     7
 10
315.83125248490938
 20
704.06293391418228
 30
0.0
 40
1.719455962732412
 50
181.28385651974421
 51
194.82929661042471
  0
ARC
  5
1D7
  8
0
  6
CONTINUOUS
 62
     7
 10
315.83125248490938
 20
704.06293391418228
 30
0.0
 40
1.7194559627323629
 50
105.17070338957851
 51
118.71614348025631
  0
LINE
  5
1DF
  8
0
  6
CONTINUOUS
 62
     7
 10
317.55027679877281
 20
704.10145943977523
 30
0.0
 11
316.65740055798352
 21
702.55495242585687
 31
0.0
  0
LINE
  5
1E1
  8
0
  6
CONTINUOUS
 62
     7
 10
546.43125248490958
 20
783.34693199419758
 30
0.0
 11
314.23125248490942
 21
783.34693199419758
 31
0.0
  0
LINE
  5
1E3
  8
0
  6
CONTINUOUS
 62
     7
 10
314.23125248490942
 20
759.4967568436274
 30
0.0
 11
546.43125248490958
 21
759.4967568436274
 31
0.0
  0
LINE
  5
1E4
  8
0
  6
CONTINUOUS
 62
     7
 10
308.64755884071189
 20
783.34693199419758
 30
0.0
 11
308.23125248490942
 21
759.4967568436274
 31
0.0
  0
LINE
  5
1E5
  8
0
  6
CONTINUOUS
 62
     7
 10
314.23125248490942
 20
783.34693199419758
 30
0.0
 11
308.64755884071189
 21
783.34693199419758
 31
0.0
  0
LINE
  5
1E6
  8
0
  6
CONTINUOUS
 62
     7
 10
308.23125248490942
 20
759.4967568436274
 30
0.0
 11
314.23125248490942
 21
759.4967568436274
 31
0.0
  0
LINE
  5
1E7
  8
0
  6
CONTINUOUS
 62
     7
 10
552.01494612910699
 20
783.34693199419758
 30
0.0
 11
546.43125248490958
 21
783.34693199419758
 31
0.0
  0
LINE
  5
1E8
  8
0
  6
CONTINUOUS
 62
     7
 10
552.01494612910699
 20
783.34693199419758
 30
0.0
 11
552.43125248490935
 21
759.4967568436274
 31
0.0
  0
LINE
  5
1E9
  8
0
  6
CONTINUOUS
 62
     7
 10
546.43125248490958
 20
759.4967568436274
 30
0.0
 11
552.43125248490935
 21
759.4967568436274
 31
0.0
  0
LINE
  5
1EB
  8
0
  6
CONTINUOUS
 62
     7
 10
314.23125248490942
 20
784.4967568436274
 30
0.0
 11
546.43125248490958
 21
784.4967568436274
 31
0.0
  0
LINE
  5
1ED
  8
0
  6
CONTINUOUS
 62
     7
 10
308.64755884071189
 20
783.34693199419758
 30
0.0
 11
309.83823732784617
 21
784.4967568436274
 31
0.0
  0
LINE
  5
1EE
  8
0
  6
CONTINUOUS
 62
     7
 10
309.83823732784617
 20
784.4967568436274
 30
0.0
 11
314.23125248490942
 21
784.4967568436274
 31
0.0
  0
LINE
  5
1EF
  8
0
  6
CONTINUOUS
 62
     7
 10
546.43125248490958
 20
784.4967568436274
 30
0.0
 11
550.82426764197271
 21
784.4967568436274
 31
0.0
  0
LINE
  5
1F0
  8
0
  6
CONTINUOUS
 62
     7
 10
552.01494612910699
 20
783.34693199419758
 30
0.0
 11
550.82426764197271
 21
784.4967568436274
 31
0.0
  0
LINE
  5
1F1
  8
0
  6
CONTINUOUS
 62
     7
 10
537.33125248490944
 20
757.4967568436274
 30
0.0
 11
323.3312524849095
 21
757.4967568436274
 31
0.0
  0
LINE
  5
1F2
  8
0
  6
CONTINUOUS
 62
     7
 10
323.3312524849095
 20
757.4967568436274
 30
0.0
 11
322.06616261476591
 21
757.4967568436274
 31
0.0
  0
LINE
  5
1F3
  8
0
  6
CONTINUOUS
 62
     7
 10
322.06616261476591
 20
757.4967568436274
 30
0.0
 11
322.03125248490949
 21
759.4967568436274
 31
0.0
  0
LINE
  5
1F4
  8
0
  6
CONTINUOUS
 62
     7
 10
538.59634235505314
 20
757.4967568436274
 30
0.0
 11
537.33125248490944
 21
757.4967568436274
 31
0.0
  0
LINE
  5
1F5
  8
0
  6
CONTINUOUS
 62
     7
 10
538.59634235505314
 20
757.4967568436274
 30
0.0
 11
538.63125248490951
 21
759.4967568436274
 31
0.0
  0
LINE
  5
1F6
  8
0
  6
CONTINUOUS
 62
     7
 10
544.53125248490949
 20
757.4967568436274
 30
0.0
 11
538.59634235505314
 21
757.4967568436274
 31
0.0
  0
LINE
  5
1F7
  8
0
  6
CONTINUOUS
 62
     7
 10
322.06616261476591
 20
757.4967568436274
 30
0.0
 11
316.1312524849094
 21
757.4967568436274
 31
0.0
  0
LINE
  5
1F8
  8
0
  6
CONTINUOUS
 62
     7
 10
316.1312524849094
 20
757.4967568436274
 30
0.0
 11
313.1312524849094
 21
757.4967568436274
 31
0.0
  0
LINE
  5
1F9
  8
0
  6
CONTINUOUS
 62
     7
 10
547.53125248490937
 20
757.4967568436274
 30
0.0
 11
544.53125248490949
 21
757.4967568436274
 31
0.0
  0
LINE
  5
1FA
  8
0
  6
CONTINUOUS
 62
     7
 10
311.86616261476581
 20
757.49675684362728
 30
0.0
 11
311.8312524849095
 21
759.4967568436274
 31
0.0
  0
LINE
  5
1FB
  8
0
  6
CONTINUOUS
 62
     7
 10
313.1312524849094
 20
757.4967568436274
 30
0.0
 11
311.86616261476581
 21
757.49675684362728
 31
0.0
  0
LINE
  5
1FC
  8
0
  6
CONTINUOUS
 62
     7
 10
548.79634235505318
 20
757.49675684362728
 30
0.0
 11
548.83125248490956
 21
759.4967568436274
 31
0.0
  0
LINE
  5
1FD
  8
0
  6
CONTINUOUS
 62
     7
 10
548.79634235505318
 20
757.49675684362728
 30
0.0
 11
547.53125248490937
 21
757.4967568436274
 31
0.0
  0
LINE
  5
204
  8
0
  6
CONTINUOUS
 62
     7
 10
233.91655064416341
 20
593.46293391418237
 30
0.0
 11
233.91655064416341
 21
705.66293391418253
 31
0.0
  0
LINE
  5
206
  8
0
  6
CONTINUOUS
 62
     7
 10
210.0663754935932
 20
705.66293391418253
 30
0.0
 11
210.0663754935932
 21
593.46293391418237
 31
0.0
  0
LINE
  5
208
  8
0
  6
CONTINUOUS
 62
     7
 10
233.91655064416341
 20
705.66293391418253
 30
0.0
 11
233.91655064416341
 21
711.66293391418253
 31
0.0
  0
LINE
  5
209
  8
0
  6
CONTINUOUS
 62
     7
 10
210.0663754935932
 20
711.24662755837994
 30
0.0
 11
210.0663754935932
 21
705.66293391418253
 31
0.0
  0
LINE
  5
20A
  8
0
  6
CONTINUOUS
 62
     7
 10
210.0663754935932
 20
711.24662755837994
 30
0.0
 11
233.91655064416341
 21
711.66293391418253
 31
0.0
  0
LINE
  5
20B
  8
0
  6
CONTINUOUS
 62
     7
 10
210.0663754935932
 20
587.87924026998496
 30
0.0
 11
233.91655064416341
 21
587.46293391418249
 31
0.0
  0
LINE
  5
20C
  8
0
  6
CONTINUOUS
 62
     7
 10
210.0663754935932
 20
593.46293391418237
 30
0.0
 11
210.0663754935932
 21
587.87924026998496
 31
0.0
  0
LINE
  5
20D
  8
0
  6
CONTINUOUS
 62
     7
 10
233.91655064416341
 20
587.46293391418249
 30
0.0
 11
233.91655064416341
 21
593.46293391418237
 31
0.0
  0
LINE
  5
20E
  8
0
  6
CONTINUOUS
 62
     7
 10
208.91655064416329
 20
593.46293391418237
 30
0.0
 11
208.91655064416329
 21
705.66293391418253
 31
0.0
  0
LINE
  5
211
  8
0
  6
CONTINUOUS
 62
     7
 10
210.0663754935932
 20
587.87924026998496
 30
0.0
 11
208.91655064416329
 21
589.06991875711924
 31
0.0
  0
LINE
  5
212
  8
0
  6
CONTINUOUS
 62
     7
 10
208.91655064416329
 20
589.06991875711924
 30
0.0
 11
208.91655064416329
 21
593.46293391418237
 31
0.0
  0
LINE
  5
213
  8
0
  6
CONTINUOUS
 62
     7
 10
208.91655064416329
 20
705.66293391418253
 30
0.0
 11
208.91655064416329
 21
710.05594907124555
 31
0.0
  0
LINE
  5
214
  8
0
  6
CONTINUOUS
 62
     7
 10
208.91655064416329
 20
710.05594907124555
 30
0.0
 11
210.0663754935932
 21
711.24662755837994
 31
0.0
  0
LINE
  5
215
  8
0
  6
CONTINUOUS
 62
     7
 10
235.91655064416329
 20
612.16293391418242
 30
0.0
 11
235.91655064416329
 21
610.89784404403883
 31
0.0
  0
LINE
  5
216
  8
0
  6
CONTINUOUS
 62
     7
 10
235.91655064416329
 20
610.89784404403883
 30
0.0
 11
233.91655064416341
 21
610.86293391418235
 31
0.0
  0
LINE
  5
217
  8
0
  6
CONTINUOUS
 62
     7
 10
235.91655064416329
 20
686.96293391418226
 30
0.0
 11
235.91655064416329
 21
612.16293391418242
 31
0.0
  0
LINE
  5
218
  8
0
  6
CONTINUOUS
 62
     7
 10
235.91655064416329
 20
688.22802378432596
 30
0.0
 11
235.91655064416329
 21
686.96293391418226
 31
0.0
  0
LINE
  5
219
  8
0
  6
CONTINUOUS
 62
     7
 10
235.91655064416329
 20
688.22802378432596
 30
0.0
 11
233.91655064416341
 21
688.26293391418244
 31
0.0
  0
LINE
  5
21A
  8
0
  6
CONTINUOUS
 62
     7
 10
235.91655064416329
 20
694.16293391418242
 30
0.0
 11
235.91655064416329
 21
688.22802378432596
 31
0.0
  0
LINE
  5
21B
  8
0
  6
CONTINUOUS
 62
     7
 10
235.91655064416329
 20
610.89784404403883
 30
0.0
 11
235.91655064416329
 21
604.96293391418226
 31
0.0
  0
LINE
  5
21C
  8
0
  6
CONTINUOUS
 62
     7
 10
235.91655064416329
 20
706.76293391418244
 30
0.0
 11
235.91655064416329
 21
694.16293391418242
 31
0.0
  0
LINE
  5
21D
  8
0
  6
CONTINUOUS
 62
     7
 10
235.91655064416329
 20
591.09784404403865
 30
0.0
 11
233.91655064416341
 21
591.06293391418239
 31
0.0
  0
LINE
  5
21E
  8
0
  6
CONTINUOUS
 62
     7
 10
235.91655064416329
 20
592.36293391418235
 30
0.0
 11
235.91655064416329
 21
591.09784404403865
 31
0.0
  0
LINE
  5
21F
  8
0
  6
CONTINUOUS
 62
     7
 10
235.91655064416329
 20
604.96293391418226
 30
0.0
 11
235.91655064416329
 21
592.36293391418235
 31
0.0
  0
LINE
  5
220
  8
0
  6
CONTINUOUS
 62
     7
 10
235.91655064416329
 20
708.02802378432602
 30
0.0
 11
233.91655064416341
 21
708.06293391418239
 31
0.0
  0
LINE
  5
221
  8
0
  6
CONTINUOUS
 62
     7
 10
235.91655064416329
 20
708.02802378432602
 30
0.0
 11
235.91655064416329
 21
706.76293391418244
 31
0.0
  0
LINE
  5
230
  8
52
  6
CONTINUOUS
 10
-93.01187498591753
 20
591.09784404403865
 30
0.0
 11
120.9881250140824
 21
591.09784404403865
 31
0.0
  0
LINE
  5
235
  8
0
  6
CONTINUOUS
 62
     7
 10
-92.511874985917586
 20
592.0280237843258
 30
0.0
 11
120.4881250140825
 21
592.02802378432568
 31
0.0
  0
LINE
  5
23B
  8
0
  6
CONTINUOUS
 62
     7
 10
131.52303514393901
 20
612.6629339141823
 30
0.0
 11
131.52303514393901
 21
686.46293391418214
 31
0.0
  0
LINE
  5
241
  8
0
  6
CONTINUOUS
 62
     7
 10
120.4881250140825
 20
707.09784404403865
 30
0.0
 11
-92.511874985917473
 21
707.09784404403865
 31
0.0
  0
ARC
  5
242
  8
0
  6
CONTINUOUS
 62
     7
 10
-92.511874985917515
 20
706.26293391418233
 30
0.0
 40
0.8349101298564391
 50
90.0
 51
180.0
  0
LINE
  5
243
  8
0
  6
CONTINUOUS
 62
     7
 10
-93.346785115773926
 20
706.26293391418233
 30
0.0
 11
-93.346785115773969
 21
694.16293391418219
 31
0.0
  0
ARC
  5
244
  8
0
  6
CONTINUOUS
 62
     7
 10
-100.2118749859175
 20
694.16293391418219
 30
0.0
 40
6.8650898701435494
 50
270.0000000000004
 51
0.0000000000007994
  0
LINE
  5
245
  8
0
  6
CONTINUOUS
 62
     7
 10
-100.2118749859175
 20
687.2978440440387
 30
0.0
 11
-102.7118749859175
 21
687.2978440440387
 31
0.0
  0
ARC
  5
246
  8
0
  6
CONTINUOUS
 62
     7
 10
-102.7118749859175
 20
686.46293391418214
 30
0.0
 40
0.8349101298564391
 50
90.0
 51
180.0
  0
LINE
  5
247
  8
0
  6
CONTINUOUS
 62
     7
 10
-103.546785115774
 20
686.46293391418214
 30
0.0
 11
-103.546785115774
 21
612.6629339141823
 31
0.0
  0
LINE
  5
24C
  8
52
  6
CONTINUOUS
 10
132.4532148842261
 20
612.1629339141823
 30
0.0
 11
132.4532148842261
 21
686.96293391418214
 31
0.0
  0
LINE
  5
255
  8
52
  6
CONTINUOUS
 10
-104.4769648560611
 20
686.96293391418214
 30
0.0
 11
-104.4769648560612
 21
612.1629339141823
 31
0.0
  0
ARC
  5
256
  8
52
  6
CONTINUOUS
 10
-103.2118749859175
 20
686.96293391418214
 30
0.0
 40
1.2650898701435831
 50
90.0
 51
180.0
  0
LINE
  5
257
  8
52
  6
CONTINUOUS
 10
-100.2118749859175
 20
688.22802378432584
 30
0.0
 11
-103.2118749859175
 21
688.22802378432584
 31
0.0
  0
ARC
  5
258
  8
52
  6
CONTINUOUS
 10
-100.2118749859175
 20
694.16293391418219
 30
0.0
 40
5.9349101298564051
 50
270.0000000000004
 51
0.0000000000007994
  0
LINE
  5
259
  8
52
  6
CONTINUOUS
 10
-94.276964856061056
 20
706.76293391418233
 30
0.0
 11
-94.276964856061099
 21
694.16293391418219
 31
0.0
  0
ARC
  5
25A
  8
52
  6
CONTINUOUS
 10
-93.01187498591753
 20
706.76293391418233
 30
0.0
 40
1.2650898701435831
 50
90.0
 51
180.0
  0
LINE
  5
25B
  8
52
  6
CONTINUOUS
 10
120.9881250140824
 20
708.0280237843258
 30
0.0
 11
-93.011874985917473
 21
708.0280237843258
 31
0.0
  0
LINE
  5
263
  8
52
  6
CONTINUOUS
 10
120.4881250140825
 20
592.43135763732255
 30
0.0
 11
-92.511874985917586
 21
592.43135763732255
 31
0.0
  0
LINE
  5
28A
  8
52
  6
CONTINUOUS
 10
131.11970129094209
 20
686.46293391418214
 30
0.0
 11
131.11970129094209
 21
612.66293391418196
 31
0.0
  0
LINE
  5
28D
  8
52
  6
CONTINUOUS
 10
-103.14345126277711
 20
612.66293391418196
 30
0.0
 11
-103.14345126277711
 21
686.46293391418214
 31
0.0
  0
ARC
  5
291
  8
52
  6
CONTINUOUS
 10
-102.7118749859175
 20
686.46293391418214
 30
0.0
 40
0.4315762768596301
 50
90.0
 51
180.0
  0
ARC
  5
293
  8
52
  6
CONTINUOUS
 10
-100.2118749859175
 20
694.16293391418219
 30
0.0
 40
7.2684237231403577
 50
270.0000000000004
 51
0.0000000000007994
  0
LINE
  5
299
  8
52
  6
CONTINUOUS
 10
-102.7118749859175
 20
686.89451019104172
 30
0.0
 11
-100.2118749859175
 21
686.89451019104172
 31
0.0
  0
LINE
  5
2AB
  8
52
  6
CONTINUOUS
 10
-92.943451262777174
 20
694.16293391418208
 30
0.0
 11
-92.943451262777046
 21
706.26293391418221
 31
0.0
  0
ARC
  5
2B1
  8
52
  6
CONTINUOUS
 10
-92.511874985917515
 20
706.26293391418221
 30
0.0
 40
0.4315762768595733
 50
90.0
 51
180.0
  0
LINE
  5
2B2
  8
52
  6
CONTINUOUS
 10
-92.511874985917473
 20
706.69451019104156
 30
0.0
 11
120.4881250140825
 21
706.69451019104156
 31
0.0
  0
ARC
  5
2B8
  8
52
  6
CONTINUOUS
 10
-93.01187498591753
 20
706.76293391418233
 30
0.0
 40
3.8000000000000109
 50
90.0
 51
180.0
  0
LINE
  5
2B9
  8
52
  6
CONTINUOUS
 10
-96.811874985917427
 20
706.76293391418221
 30
0.0
 11
-96.811874985917541
 21
694.16293391418219
 31
0.0
  0
ARC
  5
2BA
  8
52
  6
CONTINUOUS
 10
-100.2118749859175
 20
694.16293391418219
 30
0.0
 40
3.3999999999999768
 50
270.0000000000004
 51
0.0000000000007994
  0
LINE
  5
2BB
  8
52
  6
CONTINUOUS
 10
-100.2118749859175
 20
690.76293391418233
 30
0.0
 11
-103.2118749859175
 21
690.76293391418221
 31
0.0
  0
ARC
  5
2BC
  8
52
  6
CONTINUOUS
 10
-103.2118749859175
 20
686.96293391418214
 30
0.0
 40
3.8000000000000109
 50
90.0
 51
180.0
  0
LINE
  5
2BD
  8
52
  6
CONTINUOUS
 10
-107.0118749859175
 20
686.96293391418214
 30
0.0
 11
-107.0118749859175
 21
612.1629339141823
 31
0.0
  0
LINE
  5
2C3
  8
52
  6
CONTINUOUS
 10
-93.011874985917586
 20
588.56293391418217
 30
0.0
 11
120.9881250140824
 21
588.56293391418205
 31
0.0
  0
LINE
  5
2C9
  8
52
  6
CONTINUOUS
 10
134.9881250140825
 20
612.16293391418208
 30
0.0
 11
134.98812501408261
 21
686.96293391418214
 31
0.0
  0
LINE
  5
2CF
  8
52
  6
CONTINUOUS
 10
-93.011874985917473
 20
710.56293391418217
 30
0.0
 11
120.9881250140825
 21
710.56293391418205
 31
0.0
  0
LINE
  5
2D0
  8
0
  6
CONTINUOUS
 62
     7
 10
-102.1118749859174
 20
711.6629339141823
 30
0.0
 11
130.08812501408249
 21
711.6629339141823
 31
0.0
  0
LINE
  5
2D2
  8
0
  6
CONTINUOUS
 62
     7
 10
136.08812501408241
 20
705.6629339141823
 30
0.0
 11
136.08812501408241
 21
593.46293391418214
 31
0.0
  0
LINE
  5
2D4
  8
0
  6
CONTINUOUS
 62
     7
 10
130.08812501408249
 20
587.46293391418214
 30
0.0
 11
-102.1118749859175
 21
587.46293391418214
 31
0.0
  0
LINE
  5
2D6
  8
0
  6
CONTINUOUS
 62
     7
 10
-108.11187498591759
 20
593.46293391418214
 30
0.0
 11
-108.1118749859174
 21
705.6629339141823
 31
0.0
  0
ARC
  5
2D7
  8
0
  6
CONTINUOUS
 62
     7
 10
-102.1118749859175
 20
705.6629339141823
 30
0.0
 40
6.0
 50
90.0
 51
180.0
  0
ARC
  5
2D8
  8
52
  6
CONTINUOUS
 10
-106.91172942776289
 20
689.69590492767679
 30
0.0
 40
0.2001455692203359
 50
179.9809474150934
 51
234.73387130700979
  0
ARC
  5
2D9
  8
52
  6
CONTINUOUS
 10
-103.2118749859175
 20
686.96293391418214
 30
0.0
 40
4.6000000000000218
 50
90.0
 51
146.04102123804901
  0
LINE
  5
2DA
  8
52
  6
CONTINUOUS
 10
-103.2118749859175
 20
691.56293391418228
 30
0.0
 11
-100.2118749859175
 21
691.56293391418228
 31
0.0
  0
ARC
  5
2DB
  8
52
  6
CONTINUOUS
 10
-100.2118749859175
 20
694.16293391418219
 30
0.0
 40
2.599999999999965
 50
270.0000000000004
 51
0.0000000000007994
  0
LINE
  5
2DC
  8
52
  6
CONTINUOUS
 10
-97.611874985917552
 20
694.16293391418219
 30
0.0
 11
-97.611874985917495
 21
699.98135837903783
 31
0.0
  0
LINE
  5
2DE
  8
52
  6
CONTINUOUS
 10
-97.411874985917507
 20
699.98135837903783
 30
0.0
 11
-97.411874985917507
 21
706.76293391418221
 31
0.0
  0
ARC
  5
2DF
  8
52
  6
CONTINUOUS
 10
-93.01187498591753
 20
706.76293391418233
 30
0.0
 40
4.4000000000000483
 50
164.2015313587444
 51
180.0
  0
LINE
  5
2E0
  8
52
  6
CONTINUOUS
 10
-97.438111230164168
 20
708.01530474988419
 30
0.0
 11
-97.245666176066536
 21
707.96085384398395
 31
0.0
  0
ARC
  5
2E1
  8
52
  6
CONTINUOUS
 10
-93.01187498591753
 20
706.76293391418233
 30
0.0
 40
4.6000000000000227
 50
126.452681773869
 51
164.20153135874449
  0
LINE
  5
2E2
  8
52
  6
CONTINUOUS
 10
-95.745005059660741
 20
710.46293391418226
 30
0.0
 11
-102.1118749859174
 21
710.46293391418226
 31
0.0
  0
ARC
  5
2E3
  8
52
  6
CONTINUOUS
 10
-102.1118749859175
 20
705.6629339141823
 30
0.0
 40
4.8000000000000114
 50
90.0
 51
180.0
  0
LINE
  5
2E4
  8
52
  6
CONTINUOUS
 10
-106.91187498591739
 20
705.6629339141823
 30
0.0
 11
-106.91187498591739
 21
704.72356658824197
 31
0.0
  0
LINE
  5
2E5
  8
52
  6
CONTINUOUS
 10
-106.91187498591739
 20
704.72356658824197
 30
0.0
 11
-107.1118749859174
 21
704.72356658824197
 31
0.0
  0
LINE
  5
2E6
  8
52
  6
CONTINUOUS
 10
-107.1118749859174
 20
704.72356658824197
 30
0.0
 11
-107.11187498591759
 21
689.69597148214916
 31
0.0
  0
LINE
  5
49F
  8
52
  6
CONTINUOUS
 10
-97.437428447024786
 20
708.04934210421152
 30
0.0
 11
-97.589441751351842
 21
708.12847727744816
 31
0.0
  0
LINE
  5
4E8
  8
52
  6
CONTINUOUS
 10
-97.656670181984396
 20
706.56938177514439
 30
0.0
 11
-98.849689549720779
 21
704.50301161581126
 31
0.0
  0
ARC
  5
4E9
  8
52
  6
CONTINUOUS
 10
-98.089659278691457
 20
706.81937342733443
 30
0.0
 40
0.4999753834370602
 50
329.9994759274594
 51
48.693270761709179
  0
ARC
  5
4EA
  8
52
  6
CONTINUOUS
 10
-100.5118749859175
 20
704.06293391418228
 30
0.0
 40
4.1694559627323011
 50
48.692746686846633
 51
71.307253313156139
  0
ARC
  5
4EB
  8
52
  6
CONTINUOUS
 10
-99.335836197116976
 20
707.53885400658453
 30
0.0
 40
0.4999753835012395
 50
71.306729244256005
 51
150.0005240680326
  0
LINE
  5
4EC
  8
52
  6
CONTINUOUS
 10
-100.96184923476601
 20
705.72246757854373
 30
0.0
 11
-99.768829867029638
 21
707.78883773787675
 31
0.0
  0
ARC
  5
4ED
  8
52
  6
CONTINUOUS
 10
-100.5118749859175
 20
704.06293391418228
 30
0.0
 40
1.7194559627323249
 50
105.1707033895775
 51
118.716143480258
  0
LINE
  5
4EE
  8
52
  6
CONTINUOUS
 10
-102.2308992997809
 20
704.02440838858934
 30
0.0
 11
-101.3380230589914
 21
705.57091540250747
 31
0.0
  0
ARC
  5
4EF
  8
52
  6
CONTINUOUS
 10
-100.5118749859175
 20
704.06293391418228
 30
0.0
 40
1.7194559627324111
 50
181.2838565197433
 51
194.82929661042471
  0
LINE
  5
4F0
  8
52
  6
CONTINUOUS
 10
-103.36707978985061
 20
701.55648605321994
 30
0.0
 11
-102.1740604221142
 21
703.62285621255319
 31
0.0
  0
ARC
  5
4F1
  8
52
  6
CONTINUOUS
 10
-102.9340906930677
 20
701.30649440103139
 30
0.0
 40
0.4999753834908987
 50
149.9994759311862
 51
228.6932707549042
  0
ARC
  5
4F2
  8
52
  6
CONTINUOUS
 10
-100.5118749859175
 20
704.06293391418228
 30
0.0
 40
4.1694559627323988
 50
228.6927466868454
 51
251.30725331315369
  0
ARC
  5
4F3
  8
52
  6
CONTINUOUS
 10
-101.6879137747205
 20
700.58701382172399
 30
0.0
 40
0.499975383463393
 50
251.30672923701309
 51
330.0005240729534
  0
LINE
  5
4F4
  8
52
  6
CONTINUOUS
 10
-100.061900737069
 20
702.40340024982083
 30
0.0
 11
-101.25492010480529
 21
700.3370300904877
 31
0.0
  0
ARC
  5
4F5
  8
52
  6
CONTINUOUS
 10
-100.5118749859175
 20
704.06293391418228
 30
0.0
 40
1.7194559627323629
 50
285.17070338957569
 51
298.71614348025707
  0
LINE
  5
4F6
  8
52
  6
CONTINUOUS
 10
-98.792850672053987
 20
704.10145943977545
 30
0.0
 11
-99.68572691284345
 21
702.55495242585687
 31
0.0
  0
ARC
  5
4F7
  8
52
  6
CONTINUOUS
 10
-100.5118749859175
 20
704.06293391418228
 30
0.0
 40
1.719455962732416
 50
1.283856519751696
 51
14.829296610425519
  0
ARC
  5
4F8
  8
52
  6
CONTINUOUS
 10
-100.5118749859175
 20
704.06293391418228
 30
0.0
 40
5.0069210947537623
 50
183.09072524087401
 51
300.96080906380041
  0
ARC
  5
4F9
  8
52
  6
CONTINUOUS
 10
-100.5118749859175
 20
704.06293391418228
 30
0.0
 40
5.0069210947537792
 50
54.290298480240473
 51
164.79978731606371
  0
ARC
  5
638
  8
52
  6
CONTINUOUS
 10
-100.5118749859175
 20
704.06293391418217
 30
0.0
 40
5.9980059459721478
 50
183.0907252408737
 51
294.52596802383681
  0
LINE
  5
9B9
  8
63
 10
13.988125014082559
 20
567.27942223030254
 30
0.0
 11
13.988125014082559
 21
721.83676444701632
 31
0.0
  0
TEXT
  5
9D3
  8
L20
 10
-8.9709633390371195
 20
738.53849469859574
 30
0.0
 40
7.1999999999999993
  1
124x244x25 COVER
  7
TKKISO
  0
TEXT
  5
9D4
  8
L20
 10
-8.9709633390371195
 20
752.83570878073851
 30
0.0
 40
7.1999999999999993
  1
FIBOX EURONORD II 
  7
TKKISO
  0
LINE
  5
9EB
  8
13
  6
DASHED
 10
211.91655064416241
 20
649.56293391418239
 30
0.0
 11
211.91655064416241
 21
612.37069084384063
 31
0.0
  0
LINE
  5
A2C
  8
13
  6
DASHED
 10
234.91655064416241
 20
611.77798095186631
 30
0.0
 11
212.41219913531819
 21
611.87205767604951
 31
0.0
  0
ARC
  5
A30
  8
13
  6
DASHED
 10
212.4165506441625
 20
612.37069084384063
 30
0.0
 40
0.5
 50
180.0
 51
269.4999996440626
  0
LINE
  5
A79
  8
13
  6
DASHED
 10
234.91655064416241
 20
687.34788687649836
 30
0.0
 11
212.41219913531819
 21
687.25381015231528
 31
0.0
  0
LINE
  5
A7A
  8
63
 10
198.20584865183389
 20
649.56293391418239
 30
0.0
 11
249.910610367841
 21
649.56293391418228
 31
0.0
  0
LINE
  5
A7B
  8
13
  6
DASHED
 10
211.91655064416241
 20
649.56293391418239
 30
0.0
 11
211.91655064416241
 21
686.75517698452438
 31
0.0
  0
ARC
  5
A7C
  8
13
  6
DASHED
 10
212.4165506441625
 20
686.75517698452438
 30
0.0
 40
0.5
 50
90.500000355937374
 51
180.0
  0
LINE
  5
A86
  8
13
  6
DASHED
 10
537.66616261476577
 20
758.49675684362728
 30
0.0
 11
537.55703872876859
 21
781.00112011270721
 31
0.0
  0
LINE
  5
A9E
  8
63
 10
430.33125248490938
 20
798.53308012598131
 30
0.0
 11
430.33125248490938
 21
744.92192580156996
 31
0.0
  0
LINE
  5
B40
  8
0
  6
CONTINUOUS
 62
     7
 10
330.33125248490933
 20
759.4967568436274
 30
0.0
 11
336.33125248490938
 21
759.4967568436274
 31
0.0
  0
LINE
  5
C0D
  8
13
  6
DASHED
 10
430.33125248490938
 20
781.4967568436274
 30
0.0
 11
537.05705761476588
 21
781.4967568436274
 31
0.0
  0
LINE
  5
C10
  8
13
  6
DASHED
 10
430.33125248490938
 20
781.4967568436274
 30
0.0
 11
323.60544735505312
 21
781.4967568436274
 31
0.0
  0
ARC
  5
C15
  8
13
  6
DASHED
 10
537.05705761476588
 20
780.9967568436274
 30
0.0
 40
0.5
 50
0.4999999999980638
 51
90.0
  0
LINE
  5
C19
  8
52
  6
CONTINUOUS
 10
123.7212550878257
 20
710.46293391418226
 30
0.0
 11
130.08812501408249
 21
710.46293391418226
 31
0.0
  0
ARC
  5
C1A
  8
52
  6
CONTINUOUS
 10
128.4881250140825
 20
704.06293391418228
 30
0.0
 40
5.0069210947537792
 50
15.20021268393625
 51
125.70970151975951
  0
ARC
  5
C1B
  8
52
  6
CONTINUOUS
 10
128.4881250140825
 20
704.06293391418228
 30
0.0
 40
4.1694559627323011
 50
108.6927466868438
 51
131.3072533131533
  0
LINE
  5
C1C
  8
52
  6
CONTINUOUS
 10
125.63292021014939
 20
706.56938177514439
 30
0.0
 11
126.8259395778858
 21
704.50301161581126
 31
0.0
  0
ARC
  5
C1D
  8
52
  6
CONTINUOUS
 10
128.18812501408249
 20
694.16293391418219
 30
0.0
 40
3.3999999999999768
 50
179.9999999999992
 51
269.9999999999996
  0
ARC
  5
C1E
  8
52
  6
CONTINUOUS
 10
128.18812501408249
 20
694.16293391418219
 30
0.0
 40
7.2684237231403577
 50
179.9999999999992
 51
269.9999999999996
  0
ARC
  5
C1F
  8
52
  6
CONTINUOUS
 10
128.18812501408249
 20
694.16293391418219
 30
0.0
 40
5.9349101298564051
 50
179.9999999999992
 51
269.9999999999996
  0
ARC
  5
C20
  8
0
  6
CONTINUOUS
 62
     7
 10
128.18812501408249
 20
694.16293391418219
 30
0.0
 40
6.8650898701435494
 50
179.9999999999992
 51
269.9999999999996
  0
ARC
  5
C21
  8
52
  6
CONTINUOUS
 10
128.18812501408249
 20
694.16293391418219
 30
0.0
 40
2.599999999999965
 50
179.9999999999992
 51
269.9999999999996
  0
LINE
  5
C22
  8
52
  6
CONTINUOUS
 10
135.08812501408249
 20
704.72356658824197
 30
0.0
 11
135.08812501408261
 21
689.69597148214916
 31
0.0
  0
ARC
  5
C23
  8
52
  6
CONTINUOUS
 10
131.1881250140826
 20
686.96293391418214
 30
0.0
 40
4.6000000000000218
 50
33.958978761950959
 51
90.0
  0
ARC
  5
C24
  8
52
  6
CONTINUOUS
 10
131.1881250140826
 20
686.96293391418214
 30
0.0
 40
3.8000000000000109
 50
0.000000000000007
 51
90.0
  0
ARC
  5
C25
  8
52
  6
CONTINUOUS
 10
134.88797945592799
 20
689.69590492767679
 30
0.0
 40
0.2001455692203359
 50
305.26612869299009
 51
0.0190525849065735
  0
ARC
  5
C26
  8
52
  6
CONTINUOUS
 10
131.1881250140826
 20
686.96293391418214
 30
0.0
 40
1.2650898701435831
 50
0.000000000000007
 51
90.0
  0
LINE
  5
C27
  8
52
  6
CONTINUOUS
 10
130.6881250140826
 20
686.89451019104172
 30
0.0
 11
128.18812501408249
 21
686.89451019104172
 31
0.0
  0
LINE
  5
C28
  8
0
  6
CONTINUOUS
 62
     7
 10
128.18812501408249
 20
687.2978440440387
 30
0.0
 11
130.6881250140826
 21
687.2978440440387
 31
0.0
  0
LINE
  5
C29
  8
52
  6
CONTINUOUS
 10
128.18812501408249
 20
688.22802378432584
 30
0.0
 11
131.1881250140826
 21
688.22802378432584
 31
0.0
  0
ARC
  5
C2A
  8
52
  6
CONTINUOUS
 10
130.6881250140826
 20
686.46293391418214
 30
0.0
 40
0.4315762768596301
 50
0.000000000000007
 51
90.0
  0
ARC
  5
C2B
  8
0
  6
CONTINUOUS
 62
     7
 10
130.6881250140826
 20
686.46293391418214
 30
0.0
 40
0.8349101298564391
 50
0.000000000000007
 51
90.0
  0
LINE
  5
C2C
  8
52
  6
CONTINUOUS
 10
131.1881250140826
 20
691.56293391418228
 30
0.0
 11
128.18812501408249
 21
691.56293391418228
 31
0.0
  0
LINE
  5
C2D
  8
52
  6
CONTINUOUS
 10
128.18812501408249
 20
690.76293391418233
 30
0.0
 11
131.1881250140826
 21
690.76293391418221
 31
0.0
  0
ARC
  5
C2E
  8
0
  6
CONTINUOUS
 62
     7
 10
130.08812501408261
 20
705.6629339141823
 30
0.0
 40
6.0
 50
0.000000000000007
 51
90.0
  0
ARC
  5
C2F
  8
52
  6
CONTINUOUS
 10
130.08812501408261
 20
705.6629339141823
 30
0.0
 40
4.8000000000000114
 50
0.000000000000007
 51
90.0
  0
LINE
  5
C30
  8
52
  6
CONTINUOUS
 10
128.93809926293099
 20
705.72246757854373
 30
0.0
 11
127.74507989519471
 21
707.78883773787675
 31
0.0
  0
ARC
  5
C31
  8
52
  6
CONTINUOUS
 10
128.4881250140825
 20
704.06293391418217
 30
0.0
 40
5.9980059459721478
 50
245.4740319761631
 51
356.90927475912628
  0
ARC
  5
C32
  8
52
  6
CONTINUOUS
 10
128.4881250140825
 20
704.06293391418228
 30
0.0
 40
5.0069210947537623
 50
239.0391909361995
 51
356.90927475912588
  0
LINE
  5
C33
  8
52
  6
CONTINUOUS
 10
134.8881250140825
 20
705.6629339141823
 30
0.0
 11
134.8881250140825
 21
704.72356658824197
 31
0.0
  0
LINE
  5
C34
  8
52
  6
CONTINUOUS
 10
134.8881250140825
 20
704.72356658824197
 30
0.0
 11
135.08812501408249
 21
704.72356658824197
 31
0.0
  0
ARC
  5
C35
  8
52
  6
CONTINUOUS
 10
128.4881250140825
 20
704.06293391418228
 30
0.0
 40
4.1694559627323988
 50
288.69274668684619
 51
311.30725331315438
  0
ARC
  5
C36
  8
52
  6
CONTINUOUS
 10
129.6641638028855
 20
700.58701382172399
 30
0.0
 40
0.499975383463393
 50
209.99947592704649
 51
288.69327076298691
  0
LINE
  5
C37
  8
52
  6
CONTINUOUS
 10
130.20714932794601
 20
704.02440838858934
 30
0.0
 11
129.31427308715649
 21
705.57091540250747
 31
0.0
  0
ARC
  5
C38
  8
52
  6
CONTINUOUS
 10
128.4881250140825
 20
704.06293391418228
 30
0.0
 40
1.7194559627324111
 50
345.17070338957518
 51
358.71614348025662
  0
ARC
  5
C39
  8
52
  6
CONTINUOUS
 10
130.91034072123281
 20
701.30649440103139
 30
0.0
 40
0.4999753834908987
 50
311.30672924509571
 51
30.00052406881375
  0
LINE
  5
C3A
  8
52
  6
CONTINUOUS
 10
131.34332981801569
 20
701.55648605321994
 30
0.0
 11
130.15031045027931
 21
703.62285621255319
 31
0.0
  0
ARC
  5
C3B
  8
52
  6
CONTINUOUS
 10
128.4881250140825
 20
704.06293391418228
 30
0.0
 40
1.7194559627323629
 50
241.28385651974281
 51
254.82929661042419
  0
LINE
  5
C3C
  8
52
  6
CONTINUOUS
 10
128.03815076523409
 20
702.40340024982083
 30
0.0
 11
129.23117013297039
 21
700.3370300904877
 31
0.0
  0
ARC
  5
C3D
  8
52
  6
CONTINUOUS
 10
128.4881250140825
 20
704.06293391418228
 30
0.0
 40
1.7194559627323249
 50
61.283856519742017
 51
74.829296610422475
  0
LINE
  5
C3E
  8
52
  6
CONTINUOUS
 10
126.769100700219
 20
704.10145943977545
 30
0.0
 11
127.6619769410085
 21
702.55495242585687
 31
0.0
  0
ARC
  5
C3F
  8
52
  6
CONTINUOUS
 10
128.4881250140825
 20
704.06293391418228
 30
0.0
 40
1.719455962732416
 50
165.17070338957441
 51
178.71614348024821
  0
ARC
  5
C40
  8
52
  6
CONTINUOUS
 10
127.312086225282
 20
707.53885400658453
 30
0.0
 40
0.4999753835012395
 50
29.99947593196741
 51
108.6932707557439
  0
LINE
  5
C41
  8
52
  6
CONTINUOUS
 10
124.7881250140824
 20
706.76293391418221
 30
0.0
 11
124.7881250140826
 21
694.16293391418219
 31
0.0
  0
LINE
  5
C42
  8
52
  6
CONTINUOUS
 10
120.9197012909422
 20
694.16293391418208
 30
0.0
 11
120.919701290942
 21
706.26293391418221
 31
0.0
  0
LINE
  5
C43
  8
52
  6
CONTINUOUS
 10
122.2532148842261
 20
706.76293391418233
 30
0.0
 11
122.2532148842261
 21
694.16293391418219
 31
0.0
  0
LINE
  5
C44
  8
0
  6
CONTINUOUS
 62
     7
 10
121.3230351439389
 20
706.26293391418233
 30
0.0
 11
121.32303514393899
 21
694.16293391418219
 31
0.0
  0
LINE
  5
C45
  8
52
  6
CONTINUOUS
 10
125.58812501408261
 20
694.16293391418219
 30
0.0
 11
125.58812501408249
 21
699.98135837903783
 31
0.0
  0
LINE
  5
C46
  8
52
  6
CONTINUOUS
 10
125.3881250140825
 20
699.98135837903783
 30
0.0
 11
125.3881250140825
 21
706.76293391418221
 31
0.0
  0
ARC
  5
C47
  8
52
  6
CONTINUOUS
 10
120.9881250140826
 20
706.76293391418233
 30
0.0
 40
1.2650898701435831
 50
0.000000000000007
 51
90.0
  0
ARC
  5
C48
  8
52
  6
CONTINUOUS
 10
120.9881250140826
 20
706.76293391418233
 30
0.0
 40
3.8000000000000109
 50
0.000000000000007
 51
90.0
  0
ARC
  5
C49
  8
52
  6
CONTINUOUS
 10
120.9881250140826
 20
706.76293391418233
 30
0.0
 40
4.6000000000000227
 50
15.798468641255431
 51
53.547318226130933
  0
ARC
  5
C4A
  8
52
  6
CONTINUOUS
 10
126.0659093068565
 20
706.81937342733443
 30
0.0
 40
0.4999753834370602
 50
131.30672923829081
 51
210.00052407254049
  0
ARC
  5
C4B
  8
52
  6
CONTINUOUS
 10
120.9881250140826
 20
706.76293391418233
 30
0.0
 40
4.4000000000000483
 50
0.000000000000007
 51
15.79846864125553
  0
LINE
  5
C4C
  8
52
  6
CONTINUOUS
 10
125.4136784751898
 20
708.04934210421152
 30
0.0
 11
125.5656917795169
 21
708.12847727744816
 31
0.0
  0
LINE
  5
C4D
  8
52
  6
CONTINUOUS
 10
125.41436125832919
 20
708.01530474988419
 30
0.0
 11
125.2219162042315
 21
707.96085384398395
 31
0.0
  0
ARC
  5
C4E
  8
0
  6
CONTINUOUS
 62
     7
 10
120.4881250140825
 20
706.26293391418233
 30
0.0
 40
0.8349101298564391
 50
0.000000000000007
 51
90.0
  0
ARC
  5
C4F
  8
52
  6
CONTINUOUS
 10
120.4881250140825
 20
706.26293391418221
 30
0.0
 40
0.4315762768595733
 50
0.000000000000007
 51
90.0
  0
LINE
  5
C50
  8
52
  6
CONTINUOUS
 10
-95.745005059660741
 20
588.6629339141823
 30
0.0
 11
-102.1118749859174
 21
588.6629339141823
 31
0.0
  0
ARC
  5
C51
  8
52
  6
CONTINUOUS
 10
-100.5118749859175
 20
595.06293391418228
 30
0.0
 40
5.0069210947537792
 50
195.2002126839362
 51
305.70970151975939
  0
ARC
  5
C52
  8
52
  6
CONTINUOUS
 10
-100.5118749859175
 20
595.06293391418228
 30
0.0
 40
4.1694559627323011
 50
288.6927466868438
 51
311.3072533131533
  0
LINE
  5
C53
  8
52
  6
CONTINUOUS
 10
-97.656670181984396
 20
592.55648605322006
 30
0.0
 11
-98.849689549720779
 21
594.62285621255319
 31
0.0
  0
ARC
  5
C54
  8
52
  6
CONTINUOUS
 10
-100.2118749859175
 20
604.96293391418214
 30
0.0
 40
3.3999999999999768
 50
359.9999999999992
 51
89.999999999999602
  0
ARC
  5
C55
  8
52
  6
CONTINUOUS
 10
-100.2118749859175
 20
604.96293391418226
 30
0.0
 40
7.2684237231403577
 50
359.9999999999992
 51
89.999999999999602
  0
ARC
  5
C56
  8
52
  6
CONTINUOUS
 10
-100.2118749859175
 20
604.96293391418214
 30
0.0
 40
5.9349101298564051
 50
359.9999999999992
 51
89.999999999999602
  0
ARC
  5
C57
  8
0
  6
CONTINUOUS
 62
     7
 10
-100.2118749859175
 20
604.96293391418214
 30
0.0
 40
6.8650898701435494
 50
359.9999999999992
 51
89.999999999999602
  0
ARC
  5
C58
  8
52
  6
CONTINUOUS
 10
-100.2118749859175
 20
604.96293391418214
 30
0.0
 40
2.599999999999965
 50
359.9999999999992
 51
89.999999999999602
  0
LINE
  5
C59
  8
52
  6
CONTINUOUS
 10
-107.1118749859174
 20
594.4023012401226
 30
0.0
 11
-107.11187498591759
 21
609.42989634621517
 31
0.0
  0
ARC
  5
C5A
  8
52
  6
CONTINUOUS
 10
-103.2118749859175
 20
612.1629339141823
 30
0.0
 40
4.6000000000000218
 50
213.9589787619509
 51
270.0
  0
ARC
  5
C5B
  8
52
  6
CONTINUOUS
 10
-103.2118749859175
 20
612.1629339141823
 30
0.0
 40
3.8000000000000109
 50
180.0
 51
270.0
  0
ARC
  5
C5C
  8
52
  6
CONTINUOUS
 10
-106.91172942776289
 20
609.42996290068777
 30
0.0
 40
0.2001455692203359
 50
125.26612869299009
 51
180.01905258490649
  0
ARC
  5
C5D
  8
52
  6
CONTINUOUS
 10
-103.2118749859175
 20
612.1629339141823
 30
0.0
 40
1.2650898701435831
 50
180.0
 51
270.0
  0
LINE
  5
C5E
  8
52
  6
CONTINUOUS
 10
-102.7118749859175
 20
612.23135763732284
 30
0.0
 11
-100.2118749859175
 21
612.23135763732284
 31
0.0
  0
LINE
  5
C5F
  8
0
  6
CONTINUOUS
 62
     7
 10
-100.2118749859175
 20
611.82802378432575
 30
0.0
 11
-102.7118749859175
 21
611.82802378432575
 31
0.0
  0
LINE
  5
C60
  8
52
  6
CONTINUOUS
 10
-100.2118749859175
 20
610.89784404403872
 30
0.0
 11
-103.2118749859175
 21
610.89784404403872
 31
0.0
  0
ARC
  5
C61
  8
52
  6
CONTINUOUS
 10
-102.7118749859175
 20
612.66293391418242
 30
0.0
 40
0.4315762768596301
 50
180.0
 51
270.0
  0
ARC
  5
C62
  8
0
  6
CONTINUOUS
 62
     7
 10
-102.7118749859175
 20
612.6629339141823
 30
0.0
 40
0.8349101298564391
 50
180.0
 51
270.0
  0
LINE
  5
C63
  8
52
  6
CONTINUOUS
 10
-103.2118749859175
 20
607.56293391418228
 30
0.0
 11
-100.2118749859175
 21
607.56293391418205
 31
0.0
  0
LINE
  5
C64
  8
52
  6
CONTINUOUS
 10
-100.2118749859175
 20
608.36293391418224
 30
0.0
 11
-103.2118749859175
 21
608.36293391418235
 31
0.0
  0
ARC
  5
C65
  8
0
  6
CONTINUOUS
 62
     7
 10
-102.1118749859175
 20
593.46293391418214
 30
0.0
 40
6.0
 50
180.0
 51
270.0
  0
ARC
  5
C66
  8
52
  6
CONTINUOUS
 10
-102.1118749859175
 20
593.46293391418214
 30
0.0
 40
4.8000000000000114
 50
180.0
 51
270.0
  0
LINE
  5
C67
  8
52
  6
CONTINUOUS
 10
-100.96184923476601
 20
593.40340024982083
 30
0.0
 11
-99.768829867029638
 21
591.3370300904877
 31
0.0
  0
ARC
  5
C68
  8
52
  6
CONTINUOUS
 10
-100.5118749859175
 20
595.06293391418239
 30
0.0
 40
5.9980059459721478
 50
65.474031976163161
 51
176.90927475912619
  0
ARC
  5
C69
  8
52
  6
CONTINUOUS
 10
-100.5118749859175
 20
595.06293391418228
 30
0.0
 40
5.0069210947537623
 50
59.039190936199589
 51
176.90927475912591
  0
LINE
  5
C6A
  8
52
  6
CONTINUOUS
 10
-106.91187498591739
 20
593.46293391418214
 30
0.0
 11
-106.91187498591739
 21
594.4023012401226
 31
0.0
  0
LINE
  5
C6B
  8
52
  6
CONTINUOUS
 10
-106.91187498591739
 20
594.4023012401226
 30
0.0
 11
-107.1118749859174
 21
594.4023012401226
 31
0.0
  0
ARC
  5
C6C
  8
52
  6
CONTINUOUS
 10
-100.5118749859175
 20
595.06293391418228
 30
0.0
 40
4.1694559627323988
 50
108.69274668684621
 51
131.3072533131544
  0
ARC
  5
C6D
  8
52
  6
CONTINUOUS
 10
-101.6879137747205
 20
598.53885400664058
 30
0.0
 40
0.499975383463393
 50
29.999475927046571
 51
108.6932707629868
  0
LINE
  5
C6E
  8
52
  6
CONTINUOUS
 10
-102.2308992997809
 20
595.10145943977523
 30
0.0
 11
-101.3380230589914
 21
593.55495242585687
 31
0.0
  0
ARC
  5
C6F
  8
52
  6
CONTINUOUS
 10
-100.5118749859175
 20
595.06293391418228
 30
0.0
 40
1.7194559627324111
 50
165.17070338957521
 51
178.7161434802567
  0
ARC
  5
C70
  8
52
  6
CONTINUOUS
 10
-102.9340906930677
 20
597.81937342733318
 30
0.0
 40
0.4999753834908987
 50
131.30672924509571
 51
210.00052406881369
  0
LINE
  5
C71
  8
52
  6
CONTINUOUS
 10
-103.36707978985061
 20
597.56938177514462
 30
0.0
 11
-102.1740604221142
 21
595.50301161581137
 31
0.0
  0
ARC
  5
C72
  8
52
  6
CONTINUOUS
 10
-100.5118749859175
 20
595.06293391418228
 30
0.0
 40
1.7194559627323629
 50
61.283856519742884
 51
74.829296610424265
  0
LINE
  5
C73
  8
52
  6
CONTINUOUS
 10
-100.061900737069
 20
596.72246757854373
 30
0.0
 11
-101.25492010480529
 21
598.78883773787686
 31
0.0
  0
ARC
  5
C74
  8
52
  6
CONTINUOUS
 10
-100.5118749859175
 20
595.06293391418228
 30
0.0
 40
1.7194559627323249
 50
241.28385651974199
 51
254.82929661042249
  0
LINE
  5
C75
  8
52
  6
CONTINUOUS
 10
-98.792850672053987
 20
595.02440838858899
 30
0.0
 11
-99.68572691284345
 21
596.57091540250747
 31
0.0
  0
ARC
  5
C76
  8
52
  6
CONTINUOUS
 10
-100.5118749859175
 20
595.06293391418228
 30
0.0
 40
1.719455962732416
 50
345.17070338957438
 51
358.71614348024832
  0
ARC
  5
C77
  8
52
  6
CONTINUOUS
 10
-99.335836197116976
 20
591.58701382178003
 30
0.0
 40
0.4999753835012395
 50
209.99947593196731
 51
288.69327075574398
  0
LINE
  5
C78
  8
52
  6
CONTINUOUS
 10
-96.811874985917427
 20
592.36293391418235
 30
0.0
 11
-96.811874985917541
 21
604.96293391418214
 31
0.0
  0
LINE
  5
C79
  8
52
  6
CONTINUOUS
 10
-92.943451262777174
 20
604.96293391418249
 30
0.0
 11
-92.943451262777046
 21
592.86293391418235
 31
0.0
  0
LINE
  5
C7A
  8
52
  6
CONTINUOUS
 10
-94.276964856061056
 20
592.36293391418224
 30
0.0
 11
-94.276964856061099
 21
604.96293391418214
 31
0.0
  0
LINE
  5
C7B
  8
0
  6
CONTINUOUS
 62
     7
 10
-93.346785115773926
 20
592.86293391418224
 30
0.0
 11
-93.346785115773969
 21
604.96293391418214
 31
0.0
  0
LINE
  5
C7C
  8
52
  6
CONTINUOUS
 10
-97.611874985917552
 20
604.96293391418214
 30
0.0
 11
-97.611874985917495
 21
599.14450944932673
 31
0.0
  0
LINE
  5
C7D
  8
52
  6
CONTINUOUS
 10
-97.411874985917507
 20
599.14450944932673
 30
0.0
 11
-97.411874985917507
 21
592.36293391418235
 31
0.0
  0
ARC
  5
C7E
  8
52
  6
CONTINUOUS
 10
-93.01187498591753
 20
592.36293391418224
 30
0.0
 40
1.2650898701435831
 50
180.0
 51
270.0
  0
ARC
  5
C7F
  8
52
  6
CONTINUOUS
 10
-93.01187498591753
 20
592.36293391418224
 30
0.0
 40
3.8000000000000109
 50
180.0
 51
270.0
  0
ARC
  5
C80
  8
52
  6
CONTINUOUS
 10
-93.01187498591753
 20
592.36293391418224
 30
0.0
 40
4.6000000000000227
 50
195.7984686412554
 51
233.5473182261309
  0
ARC
  5
C81
  8
52
  6
CONTINUOUS
 10
-98.089659278691457
 20
592.30649440103014
 30
0.0
 40
0.4999753834370602
 50
311.30672923829081
 51
30.000524072540578
  0
ARC
  5
C82
  8
52
  6
CONTINUOUS
 10
-93.01187498591753
 20
592.36293391418224
 30
0.0
 40
4.4000000000000483
 50
180.0
 51
195.79846864125551
  0
LINE
  5
C83
  8
52
  6
CONTINUOUS
 10
-97.437428447024786
 20
591.07652572415304
 30
0.0
 11
-97.589441751351842
 21
590.99739055091641
 31
0.0
  0
LINE
  5
C84
  8
52
  6
CONTINUOUS
 10
-97.438111230164168
 20
591.11056307848025
 30
0.0
 11
-97.245666176066536
 21
591.16501398438038
 31
0.0
  0
ARC
  5
C85
  8
0
  6
CONTINUOUS
 62
     7
 10
-92.511874985917515
 20
592.86293391418224
 30
0.0
 40
0.8349101298564391
 50
180.0
 51
270.0
  0
ARC
  5
C86
  8
52
  6
CONTINUOUS
 10
-92.511874985917515
 20
592.86293391418235
 30
0.0
 40
0.4315762768595733
 50
180.0
 51
270.0
  0
LINE
  5
C87
  8
52
  6
CONTINUOUS
 10
125.58812501408261
 20
604.96293391418214
 30
0.0
 11
125.58812501408249
 21
599.14450944932673
 31
0.0
  0
LINE
  5
C88
  8
0
  6
CONTINUOUS
 62
     7
 10
121.3230351439389
 20
592.86293391418224
 30
0.0
 11
121.32303514393899
 21
604.96293391418214
 31
0.0
  0
LINE
  5
C89
  8
52
  6
CONTINUOUS
 10
122.2532148842261
 20
592.36293391418224
 30
0.0
 11
122.2532148842261
 21
604.96293391418214
 31
0.0
  0
LINE
  5
C8A
  8
52
  6
CONTINUOUS
 10
120.9197012909422
 20
604.96293391418249
 30
0.0
 11
120.919701290942
 21
592.86293391418235
 31
0.0
  0
LINE
  5
C8B
  8
52
  6
CONTINUOUS
 10
124.7881250140824
 20
592.36293391418235
 30
0.0
 11
124.7881250140826
 21
604.96293391418214
 31
0.0
  0
LINE
  5
C8C
  8
52
  6
CONTINUOUS
 10
135.08812501408249
 20
594.4023012401226
 30
0.0
 11
135.08812501408261
 21
609.42989634621517
 31
0.0
  0
ARC
  5
C8D
  8
52
  6
CONTINUOUS
 10
131.1881250140826
 20
612.1629339141823
 30
0.0
 40
1.2650898701435831
 50
270.0
 51
0.0
  0
ARC
  5
C8E
  8
52
  6
CONTINUOUS
 10
131.1881250140826
 20
612.1629339141823
 30
0.0
 40
3.8000000000000109
 50
270.0
 51
0.0
  0
ARC
  5
C8F
  8
52
  6
CONTINUOUS
 10
131.1881250140826
 20
612.1629339141823
 30
0.0
 40
4.6000000000000218
 50
270.0
 51
326.04102123804898
  0
ARC
  5
C90
  8
0
  6
CONTINUOUS
 62
     7
 10
128.18812501408249
 20
604.96293391418214
 30
0.0
 40
6.8650898701435494
 50
90.000000000000426
 51
180.00000000000071
  0
ARC
  5
C91
  8
52
  6
CONTINUOUS
 10
128.18812501408249
 20
604.96293391418214
 30
0.0
 40
5.9349101298564051
 50
90.000000000000426
 51
180.00000000000071
  0
ARC
  5
C92
  8
52
  6
CONTINUOUS
 10
128.18812501408249
 20
604.96293391418226
 30
0.0
 40
7.2684237231403577
 50
90.000000000000426
 51
180.00000000000071
  0
ARC
  5
C93
  8
0
  6
CONTINUOUS
 62
     7
 10
130.6881250140826
 20
612.6629339141823
 30
0.0
 40
0.8349101298564391
 50
270.0
 51
0.0
  0
ARC
  5
C94
  8
52
  6
CONTINUOUS
 10
130.6881250140826
 20
612.66293391418242
 30
0.0
 40
0.4315762768596301
 50
270.0
 51
0.0
  0
LINE
  5
C95
  8
52
  6
CONTINUOUS
 10
128.18812501408249
 20
610.89784404403872
 30
0.0
 11
131.1881250140826
 21
610.89784404403872
 31
0.0
  0
LINE
  5
C96
  8
0
  6
CONTINUOUS
 62
     7
 10
128.18812501408249
 20
611.82802378432575
 30
0.0
 11
130.6881250140826
 21
611.82802378432575
 31
0.0
  0
LINE
  5
C97
  8
52
  6
CONTINUOUS
 10
130.6881250140826
 20
612.23135763732284
 30
0.0
 11
128.18812501408249
 21
612.23135763732284
 31
0.0
  0
ARC
  5
C98
  8
52
  6
CONTINUOUS
 10
128.18812501408249
 20
604.96293391418214
 30
0.0
 40
2.599999999999965
 50
90.000000000000426
 51
180.00000000000071
  0
ARC
  5
C99
  8
52
  6
CONTINUOUS
 10
128.18812501408249
 20
604.96293391418214
 30
0.0
 40
3.3999999999999768
 50
90.000000000000426
 51
180.00000000000071
  0
LINE
  5
C9A
  8
52
  6
CONTINUOUS
 10
128.18812501408249
 20
608.36293391418224
 30
0.0
 11
131.1881250140826
 21
608.36293391418235
 31
0.0
  0
LINE
  5
C9B
  8
52
  6
CONTINUOUS
 10
131.1881250140826
 20
607.56293391418228
 30
0.0
 11
128.18812501408249
 21
607.56293391418205
 31
0.0
  0
ARC
  5
C9C
  8
52
  6
CONTINUOUS
 10
134.88797945592799
 20
609.42996290068777
 30
0.0
 40
0.2001455692203359
 50
359.9809474150934
 51
54.733871307009863
  0
ARC
  5
C9D
  8
52
  6
CONTINUOUS
 10
128.4881250140825
 20
595.06293391418228
 30
0.0
 40
5.0069210947537623
 50
3.090725240874058
 51
120.9608090638004
  0
ARC
  5
C9E
  8
52
  6
CONTINUOUS
 10
128.4881250140825
 20
595.06293391418239
 30
0.0
 40
5.9980059459721478
 50
3.0907252408737529
 51
114.5259680238368
  0
ARC
  5
C9F
  8
52
  6
CONTINUOUS
 10
130.08812501408261
 20
593.46293391418214
 30
0.0
 40
4.8000000000000114
 50
270.0
 51
0.0
  0
ARC
  5
CA0
  8
0
  6
CONTINUOUS
 62
     7
 10
130.08812501408261
 20
593.46293391418214
 30
0.0
 40
6.0
 50
270.0
 51
0.0
  0
ARC
  5
CA1
  8
52
  6
CONTINUOUS
 10
128.4881250140825
 20
595.06293391418228
 30
0.0
 40
5.0069210947537792
 50
234.29029848024041
 51
344.79978731606371
  0
LINE
  5
CA2
  8
52
  6
CONTINUOUS
 10
125.3881250140825
 20
599.14450944932673
 30
0.0
 11
125.3881250140825
 21
592.36293391418235
 31
0.0
  0
LINE
  5
CA3
  8
52
  6
CONTINUOUS
 10
128.93809926293099
 20
593.40340024982083
 30
0.0
 11
127.74507989519471
 21
591.3370300904877
 31
0.0
  0
LINE
  5
CA4
  8
52
  6
CONTINUOUS
 10
125.63292021014939
 20
592.55648605322006
 30
0.0
 11
126.8259395778858
 21
594.62285621255319
 31
0.0
  0
ARC
  5
CA5
  8
52
  6
CONTINUOUS
 10
129.6641638028855
 20
598.53885400664058
 30
0.0
 40
0.499975383463393
 50
71.30672923701313
 51
150.0005240729534
  0
ARC
  5
CA6
  8
52
  6
CONTINUOUS
 10
128.4881250140825
 20
595.06293391418228
 30
0.0
 40
4.1694559627323988
 50
48.692746686845517
 51
71.307253313153751
  0
ARC
  5
CA7
  8
52
  6
CONTINUOUS
 10
128.4881250140825
 20
595.06293391418228
 30
0.0
 40
1.7194559627323629
 50
105.17070338957571
 51
118.7161434802571
  0
ARC
  5
CA8
  8
52
  6
CONTINUOUS
 10
128.4881250140825
 20
595.06293391418228
 30
0.0
 40
1.719455962732416
 50
181.28385651975159
 51
194.8292966104255
  0
LINE
  5
CA9
  8
52
  6
CONTINUOUS
 10
126.769100700219
 20
595.02440838858899
 30
0.0
 11
127.6619769410085
 21
596.57091540250747
 31
0.0
  0
ARC
  5
CAA
  8
52
  6
CONTINUOUS
 10
128.4881250140825
 20
595.06293391418228
 30
0.0
 40
1.7194559627323249
 50
285.17070338957751
 51
298.71614348025798
  0
LINE
  5
CAB
  8
52
  6
CONTINUOUS
 10
128.03815076523409
 20
596.72246757854373
 30
0.0
 11
129.23117013297039
 21
598.78883773787686
 31
0.0
  0
LINE
  5
CAC
  8
52
  6
CONTINUOUS
 10
131.34332981801569
 20
597.56938177514462
 30
0.0
 11
130.15031045027931
 21
595.50301161581137
 31
0.0
  0
ARC
  5
CAD
  8
52
  6
CONTINUOUS
 10
130.91034072123281
 20
597.81937342733318
 30
0.0
 40
0.4999753834908987
 50
329.99947593118623
 51
48.69327075490429
  0
ARC
  5
CAE
  8
52
  6
CONTINUOUS
 10
128.4881250140825
 20
595.06293391418228
 30
0.0
 40
1.7194559627324111
 50
1.2838565197433109
 51
14.82929661042475
  0
LINE
  5
CAF
  8
52
  6
CONTINUOUS
 10
130.20714932794601
 20
595.10145943977523
 30
0.0
 11
129.31427308715649
 21
593.55495242585687
 31
0.0
  0
ARC
  5
CB0
  8
52
  6
CONTINUOUS
 10
120.9881250140826
 20
592.36293391418224
 30
0.0
 40
3.8000000000000109
 50
270.0
 51
0.0
  0
ARC
  5
CB1
  8
52
  6
CONTINUOUS
 10
120.4881250140825
 20
592.86293391418235
 30
0.0
 40
0.4315762768595733
 50
270.0
 51
0.0
  0
ARC
  5
CB2
  8
0
  6
CONTINUOUS
 62
     7
 10
120.4881250140825
 20
592.86293391418224
 30
0.0
 40
0.8349101298564391
 50
270.0
 51
0.0
  0
ARC
  5
CB3
  8
52
  6
CONTINUOUS
 10
120.9881250140826
 20
592.36293391418224
 30
0.0
 40
1.2650898701435831
 50
270.0
 51
0.0
  0
ARC
  5
CB4
  8
52
  6
CONTINUOUS
 10
127.312086225282
 20
591.58701382178003
 30
0.0
 40
0.4999753835012395
 50
251.30672924425599
 51
330.00052406803252
  0
LINE
  5
CB5
  8
52
  6
CONTINUOUS
 10
123.7212550878257
 20
588.6629339141823
 30
0.0
 11
130.08812501408249
 21
588.6629339141823
 31
0.0
  0
LINE
  5
CB6
  8
52
  6
CONTINUOUS
 10
125.41436125832919
 20
591.11056307848025
 30
0.0
 11
125.2219162042315
 21
591.16501398438038
 31
0.0
  0
LINE
  5
CB7
  8
52
  6
CONTINUOUS
 10
125.4136784751898
 20
591.07652572415304
 30
0.0
 11
125.5656917795169
 21
590.99739055091641
 31
0.0
  0
ARC
  5
CB8
  8
52
  6
CONTINUOUS
 10
120.9881250140826
 20
592.36293391418224
 30
0.0
 40
4.4000000000000483
 50
344.20153135874438
 51
0.0
  0
ARC
  5
CB9
  8
52
  6
CONTINUOUS
 10
126.0659093068565
 20
592.30649440103014
 30
0.0
 40
0.4999753834370602
 50
149.9994759274594
 51
228.6932707617091
  0
ARC
  5
CBA
  8
52
  6
CONTINUOUS
 10
120.9881250140826
 20
592.36293391418224
 30
0.0
 40
4.6000000000000227
 50
306.45268177386902
 51
344.20153135874449
  0
ARC
  5
CBB
  8
52
  6
CONTINUOUS
 10
128.4881250140825
 20
595.06293391418228
 30
0.0
 40
4.1694559627323011
 50
228.69274668684659
 51
251.30725331315611
  0
LINE
  5
CBC
  8
52
  6
CONTINUOUS
 10
134.8881250140825
 20
594.4023012401226
 30
0.0
 11
135.08812501408249
 21
594.4023012401226
 31
0.0
  0
LINE
  5
CBD
  8
52
  6
CONTINUOUS
 10
134.8881250140825
 20
593.46293391418214
 30
0.0
 11
134.8881250140825
 21
594.4023012401226
 31
0.0
  0
LINE
  5
CBE
  8
63
 10
150.5553196731112
 20
649.56293391418228
 30
0.0
 11
-127.94333504730911
 21
649.56293391418228
 31
0.0
  0
ARC
  5
CBF
  8
0
  6
CONTINUOUS
 62
     7
 10
542.40903677765857
 20
706.81937342733295
 30
0.0
 40
0.4999753834219662
 50
131.3067292360559
 51
210.0005240733399
  0
LINE
  5
CC0
  8
0
  6
CONTINUOUS
 62
     7
 10
545.28122673375776
 20
705.72246757854373
 30
0.0
 11
544.08820736602149
 21
707.78883773787686
 31
0.0
  0
ARC
  5
CC1
  8
0
  6
CONTINUOUS
 62
     7
 10
583.385388100245
 20
728.34341626487537
 30
0.0
 40
44.304265424263129
 50
208.82104364557239
 51
210.32849400935191
  0
ARC
  5
CC2
  8
0
  6
CONTINUOUS
 62
     7
 10
546.43125248490935
 20
705.6629339141823
 30
0.0
 40
4.3930151570631892
 50
0.000000000000007
 51
90.0
  0
ARC
  5
CC3
  8
0
  6
CONTINUOUS
 62
     7
 10
544.83125248490933
 20
704.06293391418228
 30
0.0
 40
2.934215482655151
 50
324.87429144631488
 51
95.125708553704271
  0
ARC
  5
CC4
  8
0
  6
CONTINUOUS
 62
     7
 10
544.83125248490933
 20
704.06293391418228
 30
0.0
 40
2.9500000000000668
 50
325.0702279493425
 51
94.92977205067163
  0
CIRCLE
  5
CC5
  8
0
  6
CONTINUOUS
 62
     7
 10
544.83125248490933
 20
704.06293391418228
 30
0.0
 40
4.3973933631785371
  0
ARC
  5
CC6
  8
0
  6
CONTINUOUS
 62
     7
 10
546.43125248490935
 20
705.6629339141823
 30
0.0
 40
6.000000000000056
 50
0.000000000000007
 51
90.0
  0
ARC
  5
CC7
  8
0
  6
CONTINUOUS
 62
     7
 10
546.43125248490935
 20
705.6629339141823
 30
0.0
 40
5.5836936441974672
 50
0.000000000000007
 51
90.0
  0
LINE
  5
CC8
  8
0
  6
CONTINUOUS
 62
     7
 10
546.55027679877276
 20
704.02440838858922
 30
0.0
 11
545.65740055798346
 21
705.57091540250747
 31
0.0
  0
LINE
  5
CC9
  8
0
  6
CONTINUOUS
 62
     7
 10
546.55642157838884
 20
704.02598293300025
 30
0.0
 11
545.66183654325073
 21
705.57544966555008
 31
0.0
  0
ARC
  5
CCA
  8
0
  6
CONTINUOUS
 62
     7
 10
546.00729127368072
 20
700.58701382166498
 30
0.0
 40
0.4999753834064366
 50
209.999475923011
 51
288.69327076479311
  0
ARC
  5
CCB
  8
0
  6
CONTINUOUS
 62
     7
 10
544.83125248490933
 20
704.06293391418228
 30
0.0
 40
4.1694559627323784
 50
288.69274668684648
 51
311.30725331315472
  0
ARC
  5
CCC
  8
0
  6
CONTINUOUS
 62
     7
 10
544.83125248490933
 20
704.06293391418228
 30
0.0
 40
1.719455962732412
 50
345.17070338957518
 51
358.71614348025571
  0
LINE
  5
CCD
  8
0
  6
CONTINUOUS
 62
     7
 10
546.55027679877276
 20
704.02440838858922
 30
0.0
 11
546.55642157838884
 21
704.02598293300025
 31
0.0
  0
ARC
  5
CCE
  8
0
  6
CONTINUOUS
 62
     7
 10
544.83125248490933
 20
704.06293391418228
 30
0.0
 40
1.725564770185932
 50
345.2544291312999
 51
358.77298311622138
  0
LINE
  5
CCF
  8
0
  6
CONTINUOUS
 62
     7
 10
546.49343792110619
 20
703.62285621255296
 30
0.0
 11
546.49998684492482
 21
703.6237307586714
 31
0.0
  0
LINE
  5
CD0
  8
0
  6
CONTINUOUS
 62
     7
 10
546.64084190016308
 20
703.37976264649592
 30
0.0
 11
546.49998684492482
 21
703.6237307586714
 31
0.0
  0
LINE
  5
CD1
  8
0
  6
CONTINUOUS
 62
     7
 10
547.24982316122873
 20
702.37384662110105
 30
0.0
 11
547.2311227712712
 21
702.37466761193878
 31
0.0
  0
ARC
  5
CD2
  8
0
  6
CONTINUOUS
 62
     7
 10
547.25346819206743
 20
701.3064944010348
 30
0.0
 40
0.4999753834856782
 50
311.3067292437932
 51
30.000524068689039
  0
LINE
  5
CD3
  8
0
  6
CONTINUOUS
 62
     7
 10
547.68645728884246
 20
701.55648605322006
 30
0.0
 11
546.49343792110619
 21
703.62285621255296
 31
0.0
  0
ARC
  5
CD4
  8
0
  6
CONTINUOUS
 62
     7
 10
564.79979144243725
 20
713.36842684380417
 30
0.0
 40
20.724885064227699
 50
208.81380221112241
 51
212.03666013391239
  0
LINE
  5
CD5
  8
0
  6
CONTINUOUS
 62
     7
 10
544.38127823606101
 20
702.40340024982072
 30
0.0
 11
545.57429760379716
 21
700.3370300904877
 31
0.0
  0
ARC
  5
CD6
  8
0
  6
CONTINUOUS
 62
     7
 10
544.83125248490933
 20
704.06293391418228
 30
0.0
 40
2.9342154826550941
 50
144.87429144631329
 51
275.12570855368671
  0
ARC
  5
CD7
  8
0
  6
CONTINUOUS
 62
     7
 10
544.83125248490933
 20
704.06293391418228
 30
0.0
 40
2.9500000000000339
 50
145.0702279493411
 51
274.92977205065853
  0
LINE
  5
CD8
  8
0
  6
CONTINUOUS
 62
     7
 10
543.11222817104601
 20
704.10145943977523
 30
0.0
 11
543.10608339143005
 21
704.09988489536431
 31
0.0
  0
ARC
  5
CD9
  8
0
  6
CONTINUOUS
 62
     7
 10
524.86271352767778
 20
694.75744098472569
 30
0.0
 40
20.724885063888589
 50
28.813802211117189
 51
32.036660133960787
  0
LINE
  5
CDA
  8
0
  6
CONTINUOUS
 62
     7
 10
542.41268180859015
 20
705.75202120726362
 30
0.0
 11
542.43138219854757
 21
705.75120021642579
 31
0.0
  0
LINE
  5
CDB
  8
0
  6
CONTINUOUS
 62
     7
 10
544.00510441183542
 20
702.55495242585687
 30
0.0
 11
544.00066842656815
 21
702.55041816281425
 31
0.0
  0
ARC
  5
CDC
  8
0
  6
CONTINUOUS
 62
     7
 10
544.83125248490933
 20
704.06293391418228
 30
0.0
 40
1.719455962732338
 50
241.2838565197423
 51
254.82929661042729
  0
ARC
  5
CDD
  8
0
  6
CONTINUOUS
 62
     7
 10
544.83125248490933
 20
704.06293391418228
 30
0.0
 40
1.725564770185863
 50
241.22701688377799
 51
254.74557086870041
  0
ARC
  5
CDE
  8
0
  6
CONTINUOUS
 62
     7
 10
506.2771168702032
 20
679.78245156384469
 30
0.0
 40
44.30426542354013
 50
28.821043645562501
 51
30.328494009366711
  0
LINE
  5
CDF
  8
0
  6
CONTINUOUS
 62
     7
 10
544.37724639499629
 20
702.39816598848552
 30
0.0
 11
544.51810145023455
 21
702.15419787631004
 31
0.0
  0
LINE
  5
CE0
  8
0
  6
CONTINUOUS
 62
     7
 10
544.38127823606101
 20
702.40340024982072
 30
0.0
 11
544.37724639499629
 21
702.39816598848552
 31
0.0
  0
ARC
  5
CE1
  8
0
  6
CONTINUOUS
 62
     7
 10
544.83125248490933
 20
704.06293391418228
 30
0.0
 40
1.7194559627323629
 50
61.283856519743672
 51
74.829296610421466
  0
LINE
  5
CE2
  8
0
  6
CONTINUOUS
 62
     7
 10
545.65740055798346
 20
705.57091540250747
 30
0.0
 11
545.66183654325073
 21
705.57544966555008
 31
0.0
  0
ARC
  5
CE3
  8
0
  6
CONTINUOUS
 62
     7
 10
544.83125248490933
 20
704.06293391418228
 30
0.0
 40
1.7255647701859029
 50
61.227016883778418
 51
74.745570868696504
  0
LINE
  5
CE4
  8
0
  6
CONTINUOUS
 62
     7
 10
545.28525857482248
 20
705.72770183987905
 30
0.0
 11
545.14440351958422
 21
705.97166995205453
 31
0.0
  0
LINE
  5
CE5
  8
0
  6
CONTINUOUS
 62
     7
 10
545.28122673375776
 20
705.72246757854373
 30
0.0
 11
545.28525857482248
 21
705.72770183987905
 31
0.0
  0
LINE
  5
CE6
  8
0
  6
CONTINUOUS
 62
     7
 10
543.16906704871087
 20
704.50301161581433
 30
0.0
 11
543.16251812489395
 21
704.50213706969316
 31
0.0
  0
LINE
  5
CE7
  8
0
  6
CONTINUOUS
 62
     7
 10
543.11222817104601
 20
704.10145943977523
 30
0.0
 11
544.00510441183542
 21
702.55495242585687
 31
0.0
  0
LINE
  5
CE8
  8
0
  6
CONTINUOUS
 62
     7
 10
543.10608339143005
 20
704.09988489536431
 30
0.0
 11
544.00066842656815
 21
702.55041816281425
 31
0.0
  0
ARC
  5
CE9
  8
0
  6
CONTINUOUS
 62
     7
 10
544.83125248490933
 20
704.06293391418228
 30
0.0
 40
1.7194559627346619
 50
165.17070338949529
 51
178.7161434802575
  0
ARC
  5
CEA
  8
0
  6
CONTINUOUS
 62
     7
 10
544.83125248490933
 20
704.06293391418228
 30
0.0
 40
1.7255647701858181
 50
165.25442913129811
 51
178.7729831162205
  0
LINE
  5
CEB
  8
0
  6
CONTINUOUS
 62
     7
 10
543.02166306965592
 20
704.74610518186864
 30
0.0
 11
543.16251812489395
 21
704.50213706969316
 31
0.0
  0
LINE
  5
CEC
  8
0
  6
CONTINUOUS
 62
     7
 10
541.97604768097631
 20
706.56938177514462
 30
0.0
 11
543.16906704871087
 21
704.50301161581433
 31
0.0
  0
ARC
  5
CED
  8
0
  6
CONTINUOUS
 62
     7
 10
544.83125248490933
 20
704.06293391418228
 30
0.0
 40
4.1694559627323278
 50
108.69274668684371
 51
131.3072533131525
  0
LINE
  5
CEE
  8
0
  6
CONTINUOUS
 62
     7
 10
544.5691061219942
 20
706.9854156990807
 30
0.0
 11
544.57774531805126
 21
707.00202120726362
 31
0.0
  0
ARC
  5
CEF
  8
0
  6
CONTINUOUS
 62
     7
 10
543.65521369611292
 20
707.53885400662466
 30
0.0
 40
0.4999753834657389
 50
29.999475928998251
 51
108.6932707580998
  0
ARC
  5
CF0
  8
0
  6
CONTINUOUS
 62
     7
 10
318.2534681921602
 20
592.30649440103161
 30
0.0
 40
0.4999753834219662
 50
311.3067292360559
 51
30.000524073339939
  0
LINE
  5
CF1
  8
0
  6
CONTINUOUS
 62
     7
 10
315.38127823606089
 20
593.40340024982083
 30
0.0
 11
316.57429760379728
 21
591.33703009048747
 31
0.0
  0
ARC
  5
CF2
  8
0
  6
CONTINUOUS
 62
     7
 10
277.27711686957377
 20
570.78245156348896
 30
0.0
 40
44.304265424263129
 50
28.821043645572431
 51
30.32849400935196
  0
ARC
  5
CF3
  8
0
  6
CONTINUOUS
 62
     7
 10
314.23125248490942
 20
593.46293391418214
 30
0.0
 40
4.3930151570631892
 50
180.0
 51
270.0
  0
ARC
  5
CF4
  8
0
  6
CONTINUOUS
 62
     7
 10
315.83125248490938
 20
595.06293391418228
 30
0.0
 40
2.934215482655151
 50
144.8742914463148
 51
275.12570855370421
  0
ARC
  5
CF5
  8
0
  6
CONTINUOUS
 62
     7
 10
315.83125248490938
 20
595.06293391418228
 30
0.0
 40
2.9500000000000668
 50
145.0702279493425
 51
274.9297720506716
  0
CIRCLE
  5
CF6
  8
0
  6
CONTINUOUS
 62
     7
 10
315.83125248490938
 20
595.06293391418228
 30
0.0
 40
4.3973933631785371
  0
ARC
  5
CF7
  8
0
  6
CONTINUOUS
 62
     7
 10
314.23125248490942
 20
593.46293391418214
 30
0.0
 40
6.000000000000056
 50
180.0
 51
270.0
  0
ARC
  5
CF8
  8
0
  6
CONTINUOUS
 62
     7
 10
314.23125248490942
 20
593.46293391418214
 30
0.0
 40
5.5836936441974672
 50
180.0
 51
270.0
  0
LINE
  5
CF9
  8
0
  6
CONTINUOUS
 62
     7
 10
314.11222817104601
 20
595.10145943977534
 30
0.0
 11
315.00510441183542
 21
593.55495242585687
 31
0.0
  0
LINE
  5
CFA
  8
0
  6
CONTINUOUS
 62
     7
 10
314.1060833914301
 20
595.09988489536431
 30
0.0
 11
315.00066842656821
 21
593.55041816281425
 31
0.0
  0
ARC
  5
CFB
  8
0
  6
CONTINUOUS
 62
     7
 10
314.65521369613822
 20
598.53885400669947
 30
0.0
 40
0.4999753834064366
 50
29.999475923011019
 51
108.6932707647931
  0
ARC
  5
CFC
  8
0
  6
CONTINUOUS
 62
     7
 10
315.83125248490938
 20
595.06293391418228
 30
0.0
 40
4.1694559627323784
 50
108.6927466868465
 51
131.30725331315469
  0
ARC
  5
CFD
  8
0
  6
CONTINUOUS
 62
     7
 10
315.83125248490938
 20
595.06293391418228
 30
0.0
 40
1.719455962732412
 50
165.17070338957521
 51
178.71614348025571
  0
LINE
  5
CFE
  8
0
  6
CONTINUOUS
 62
     7
 10
314.11222817104601
 20
595.10145943977534
 30
0.0
 11
314.1060833914301
 21
595.09988489536431
 31
0.0
  0
ARC
  5
CFF
  8
0
  6
CONTINUOUS
 62
     7
 10
315.83125248490938
 20
595.06293391418228
 30
0.0
 40
1.725564770185932
 50
165.2544291312999
 51
178.77298311622141
  0
LINE
  5
D00
  8
0
  6
CONTINUOUS
 62
     7
 10
314.16906704871258
 20
595.50301161581137
 30
0.0
 11
314.16251812489401
 21
595.50213706969316
 31
0.0
  0
LINE
  5
D01
  8
0
  6
CONTINUOUS
 62
     7
 10
314.0216630696558
 20
595.74610518186864
 30
0.0
 11
314.16251812489401
 21
595.50213706969316
 31
0.0
  0
LINE
  5
D02
  8
0
  6
CONTINUOUS
 62
     7
 10
313.41268180859009
 20
596.75202120726351
 30
0.0
 11
313.43138219854762
 21
596.75120021642556
 31
0.0
  0
ARC
  5
D03
  8
0
  6
CONTINUOUS
 62
     7
 10
313.4090367777514
 20
597.81937342732965
 30
0.0
 40
0.4999753834856782
 50
131.3067292437932
 51
210.000524068689
  0
LINE
  5
D04
  8
0
  6
CONTINUOUS
 62
     7
 10
312.97604768097631
 20
597.56938177514439
 30
0.0
 11
314.16906704871258
 21
595.50301161581137
 31
0.0
  0
ARC
  5
D05
  8
0
  6
CONTINUOUS
 62
     7
 10
295.86271352738152
 20
585.75744098456039
 30
0.0
 40
20.724885064227699
 50
28.813802211122439
 51
32.03666013391252
  0
LINE
  5
D06
  8
0
  6
CONTINUOUS
 62
     7
 10
316.28122673375782
 20
596.72246757854384
 30
0.0
 11
315.08820736602161
 21
598.78883773787686
 31
0.0
  0
ARC
  5
D07
  8
0
  6
CONTINUOUS
 62
     7
 10
315.83125248490938
 20
595.06293391418228
 30
0.0
 40
2.9342154826550941
 50
324.87429144631329
 51
95.125708553686707
  0
ARC
  5
D08
  8
0
  6
CONTINUOUS
 62
     7
 10
315.83125248490938
 20
595.06293391418228
 30
0.0
 40
2.9500000000000339
 50
325.07022794934107
 51
94.92977205065857
  0
LINE
  5
D09
  8
0
  6
CONTINUOUS
 62
     7
 10
317.55027679877281
 20
595.02440838858934
 30
0.0
 11
317.55642157838872
 21
595.02598293300025
 31
0.0
  0
ARC
  5
D0A
  8
0
  6
CONTINUOUS
 62
     7
 10
335.7997914421411
 20
604.36842684363864
 30
0.0
 40
20.724885063888589
 50
208.81380221111721
 51
212.03666013396079
  0
LINE
  5
D0B
  8
0
  6
CONTINUOUS
 62
     7
 10
318.24982316122868
 20
593.37384662110094
 30
0.0
 11
318.2311227712712
 21
593.37466761193878
 31
0.0
  0
LINE
  5
D0C
  8
0
  6
CONTINUOUS
 62
     7
 10
316.65740055798352
 20
596.57091540250747
 30
0.0
 11
316.66183654325067
 21
596.5754496655502
 31
0.0
  0
ARC
  5
D0D
  8
0
  6
CONTINUOUS
 62
     7
 10
315.83125248490938
 20
595.06293391418228
 30
0.0
 40
1.719455962732338
 50
61.283856519742372
 51
74.829296610427321
  0
ARC
  5
D0E
  8
0
  6
CONTINUOUS
 62
     7
 10
315.83125248490938
 20
595.06293391418228
 30
0.0
 40
1.725564770185863
 50
61.227016883778063
 51
74.745570868700511
  0
ARC
  5
D0F
  8
0
  6
CONTINUOUS
 62
     7
 10
354.38538809961562
 20
619.34341626451965
 30
0.0
 40
44.30426542354013
 50
208.8210436455625
 51
210.32849400936661
  0
LINE
  5
D10
  8
0
  6
CONTINUOUS
 62
     7
 10
316.28525857482248
 20
596.72770183987905
 30
0.0
 11
316.14440351958422
 21
596.97166995205453
 31
0.0
  0
LINE
  5
D11
  8
0
  6
CONTINUOUS
 62
     7
 10
316.28122673375782
 20
596.72246757854384
 30
0.0
 11
316.28525857482248
 21
596.72770183987905
 31
0.0
  0
ARC
  5
D12
  8
0
  6
CONTINUOUS
 62
     7
 10
315.83125248490938
 20
595.06293391418228
 30
0.0
 40
1.7194559627323629
 50
241.28385651974369
 51
254.82929661042141
  0
LINE
  5
D13
  8
0
  6
CONTINUOUS
 62
     7
 10
315.00510441183542
 20
593.55495242585687
 30
0.0
 11
315.00066842656821
 21
593.55041816281425
 31
0.0
  0
ARC
  5
D14
  8
0
  6
CONTINUOUS
 62
     7
 10
315.83125248490938
 20
595.06293391418228
 30
0.0
 40
1.7255647701859029
 50
241.22701688377839
 51
254.74557086869649
  0
LINE
  5
D15
  8
0
  6
CONTINUOUS
 62
     7
 10
315.3772463949964
 20
593.39816598848552
 30
0.0
 11
315.51810145023461
 21
593.15419787631004
 31
0.0
  0
LINE
  5
D16
  8
0
  6
CONTINUOUS
 62
     7
 10
315.38127823606089
 20
593.40340024982083
 30
0.0
 11
315.3772463949964
 21
593.39816598848552
 31
0.0
  0
LINE
  5
D17
  8
0
  6
CONTINUOUS
 62
     7
 10
317.49343792110778
 20
594.62285621255023
 30
0.0
 11
317.49998684492482
 21
594.6237307586714
 31
0.0
  0
LINE
  5
D18
  8
0
  6
CONTINUOUS
 62
     7
 10
317.55027679877281
 20
595.02440838858934
 30
0.0
 11
316.65740055798352
 21
596.57091540250747
 31
0.0
  0
LINE
  5
D19
  8
0
  6
CONTINUOUS
 62
     7
 10
317.55642157838872
 20
595.02598293300025
 30
0.0
 11
316.66183654325067
 21
596.5754496655502
 31
0.0
  0
ARC
  5
D1A
  8
0
  6
CONTINUOUS
 62
     7
 10
315.83125248490938
 20
595.06293391418228
 30
0.0
 40
1.7194559627346619
 50
345.17070338949532
 51
358.71614348025747
  0
ARC
  5
D1B
  8
0
  6
CONTINUOUS
 62
     7
 10
315.83125248490938
 20
595.06293391418228
 30
0.0
 40
1.7255647701858181
 50
345.25442913129808
 51
358.77298311622059
  0
LINE
  5
D1C
  8
0
  6
CONTINUOUS
 62
     7
 10
317.64084190016303
 20
594.37976264649592
 30
0.0
 11
317.49998684492482
 21
594.6237307586714
 31
0.0
  0
LINE
  5
D1D
  8
0
  6
CONTINUOUS
 62
     7
 10
318.68645728884252
 20
592.55648605321994
 30
0.0
 11
317.49343792110778
 21
594.62285621255023
 31
0.0
  0
ARC
  5
D1E
  8
0
  6
CONTINUOUS
 62
     7
 10
315.83125248490938
 20
595.06293391418228
 30
0.0
 40
4.1694559627323278
 50
288.6927466868438
 51
311.3072533131525
  0
LINE
  5
D1F
  8
0
  6
CONTINUOUS
 62
     7
 10
316.09339884782452
 20
592.14045212928386
 30
0.0
 11
316.08475965176763
 21
592.12384662110094
 31
0.0
  0
ARC
  5
D20
  8
0
  6
CONTINUOUS
 62
     7
 10
317.0072912737059
 20
591.5870138217399
 30
0.0
 40
0.4999753834657389
 50
209.99947592899821
 51
288.6932707580998
  0
ARC
  5
D21
  8
0
  6
CONTINUOUS
 62
     7
 10
546.43125248490935
 20
593.46293391418214
 30
0.0
 40
5.5836936441974672
 50
270.0
 51
0.0
  0
ARC
  5
D22
  8
0
  6
CONTINUOUS
 62
     7
 10
546.43125248490935
 20
593.46293391418214
 30
0.0
 40
6.000000000000056
 50
270.0
 51
0.0
  0
CIRCLE
  5
D23
  8
0
  6
CONTINUOUS
 62
     7
 10
544.83125248490933
 20
595.06293391418228
 30
0.0
 40
4.3973933631785371
  0
ARC
  5
D24
  8
0
  6
CONTINUOUS
 62
     7
 10
544.83125248490933
 20
595.06293391418228
 30
0.0
 40
2.9500000000000668
 50
265.07022794932828
 51
34.929772050657469
  0
ARC
  5
D25
  8
0
  6
CONTINUOUS
 62
     7
 10
544.83125248490933
 20
595.06293391418228
 30
0.0
 40
2.934215482655151
 50
264.87429144629567
 51
35.125708553685101
  0
ARC
  5
D26
  8
0
  6
CONTINUOUS
 62
     7
 10
546.43125248490935
 20
593.46293391418214
 30
0.0
 40
4.3930151570631892
 50
270.0
 51
0.0
  0
ARC
  5
D27
  8
0
  6
CONTINUOUS
 62
     7
 10
583.385388100245
 20
570.78245156348896
 30
0.0
 40
44.304265424263129
 50
149.671505990648
 51
151.1789563544275
  0
LINE
  5
D28
  8
0
  6
CONTINUOUS
 62
     7
 10
545.28122673375776
 20
593.40340024982083
 30
0.0
 11
544.08820736602149
 21
591.33703009048747
 31
0.0
  0
ARC
  5
D29
  8
0
  6
CONTINUOUS
 62
     7
 10
542.40903677765857
 20
592.30649440103161
 30
0.0
 40
0.4999753834219662
 50
149.99947592666001
 51
228.69327076394401
  0
ARC
  5
D2A
  8
0
  6
CONTINUOUS
 62
     7
 10
544.83125248490933
 20
595.06293391418228
 30
0.0
 40
1.725564770185863
 50
105.2544291312994
 51
118.77298311622189
  0
ARC
  5
D2B
  8
0
  6
CONTINUOUS
 62
     7
 10
544.83125248490933
 20
595.06293391418228
 30
0.0
 40
1.719455962732338
 50
105.17070338957269
 51
118.7161434802576
  0
ARC
  5
D2C
  8
0
  6
CONTINUOUS
 62
     7
 10
544.83125248490933
 20
595.06293391418228
 30
0.0
 40
2.9500000000000339
 50
85.070227949341444
 51
214.9297720506587
  0
ARC
  5
D2D
  8
0
  6
CONTINUOUS
 62
     7
 10
544.83125248490933
 20
595.06293391418228
 30
0.0
 40
2.9342154826550941
 50
84.874291446313336
 51
215.12570855368659
  0
LINE
  5
D2E
  8
0
  6
CONTINUOUS
 62
     7
 10
541.97604768097631
 20
592.55648605321994
 30
0.0
 11
543.16906704871087
 21
594.62285621255023
 31
0.0
  0
LINE
  5
D2F
  8
0
  6
CONTINUOUS
 62
     7
 10
543.02166306965592
 20
594.37976264649592
 30
0.0
 11
543.16251812489395
 21
594.6237307586714
 31
0.0
  0
ARC
  5
D30
  8
0
  6
CONTINUOUS
 62
     7
 10
544.83125248490933
 20
595.06293391418228
 30
0.0
 40
1.7255647701858181
 50
181.22701688377941
 51
194.7455708687018
  0
ARC
  5
D31
  8
0
  6
CONTINUOUS
 62
     7
 10
544.83125248490933
 20
595.06293391418228
 30
0.0
 40
1.7194559627346619
 50
181.28385651974239
 51
194.8292966105046
  0
LINE
  5
D32
  8
0
  6
CONTINUOUS
 62
     7
 10
543.10608339143005
 20
595.02598293300025
 30
0.0
 11
544.00066842656815
 21
596.5754496655502
 31
0.0
  0
LINE
  5
D33
  8
0
  6
CONTINUOUS
 62
     7
 10
543.11222817104601
 20
595.02440838858934
 30
0.0
 11
544.00510441183542
 21
596.57091540250747
 31
0.0
  0
LINE
  5
D34
  8
0
  6
CONTINUOUS
 62
     7
 10
543.16906704871087
 20
594.62285621255023
 30
0.0
 11
543.16251812489395
 21
594.6237307586714
 31
0.0
  0
LINE
  5
D35
  8
0
  6
CONTINUOUS
 62
     7
 10
544.00510441183542
 20
596.57091540250747
 30
0.0
 11
544.00066842656815
 21
596.5754496655502
 31
0.0
  0
LINE
  5
D36
  8
0
  6
CONTINUOUS
 62
     7
 10
542.41268180859015
 20
593.37384662110094
 30
0.0
 11
542.43138219854757
 21
593.37466761193878
 31
0.0
  0
ARC
  5
D37
  8
0
  6
CONTINUOUS
 62
     7
 10
524.86271352767778
 20
604.36842684363864
 30
0.0
 40
20.724885063888589
 50
327.96333986603912
 51
331.18619778888279
  0
LINE
  5
D38
  8
0
  6
CONTINUOUS
 62
     7
 10
543.11222817104601
 20
595.02440838858934
 30
0.0
 11
543.10608339143005
 21
595.02598293300025
 31
0.0
  0
LINE
  5
D39
  8
0
  6
CONTINUOUS
 62
     7
 10
544.38127823606101
 20
596.72246757854384
 30
0.0
 11
545.57429760379716
 21
598.78883773787686
 31
0.0
  0
ARC
  5
D3A
  8
0
  6
CONTINUOUS
 62
     7
 10
544.83125248490933
 20
595.06293391418228
 30
0.0
 40
4.1694559627323784
 50
48.692746686845211
 51
71.307253313153453
  0
ARC
  5
D3B
  8
0
  6
CONTINUOUS
 62
     7
 10
546.00729127368072
 20
598.53885400669947
 30
0.0
 40
0.4999753834064366
 50
71.306729235206873
 51
150.000524076989
  0
LINE
  5
D3C
  8
0
  6
CONTINUOUS
 62
     7
 10
545.28122673375776
 20
593.40340024982083
 30
0.0
 11
545.28525857482248
 21
593.39816598848552
 31
0.0
  0
LINE
  5
D3D
  8
0
  6
CONTINUOUS
 62
     7
 10
545.28525857482248
 20
593.39816598848552
 30
0.0
 11
545.14440351958422
 21
593.15419787631004
 31
0.0
  0
ARC
  5
D3E
  8
0
  6
CONTINUOUS
 62
     7
 10
544.83125248490933
 20
595.06293391418228
 30
0.0
 40
1.7255647701859029
 50
285.25442913130343
 51
298.77298311622161
  0
LINE
  5
D3F
  8
0
  6
CONTINUOUS
 62
     7
 10
545.65740055798346
 20
593.55495242585687
 30
0.0
 11
545.66183654325073
 21
593.55041816281425
 31
0.0
  0
ARC
  5
D40
  8
0
  6
CONTINUOUS
 62
     7
 10
544.83125248490933
 20
595.06293391418228
 30
0.0
 40
1.7194559627323629
 50
285.17070338957848
 51
298.71614348025628
  0
LINE
  5
D41
  8
0
  6
CONTINUOUS
 62
     7
 10
544.38127823606101
 20
596.72246757854384
 30
0.0
 11
544.37724639499629
 21
596.72770183987905
 31
0.0
  0
LINE
  5
D42
  8
0
  6
CONTINUOUS
 62
     7
 10
544.37724639499629
 20
596.72770183987905
 30
0.0
 11
544.51810145023455
 21
596.97166995205453
 31
0.0
  0
ARC
  5
D43
  8
0
  6
CONTINUOUS
 62
     7
 10
506.2771168702032
 20
619.34341626451965
 30
0.0
 40
44.30426542354013
 50
329.67150599063331
 51
331.1789563544375
  0
ARC
  5
D44
  8
0
  6
CONTINUOUS
 62
     7
 10
564.79979144243725
 20
585.75744098456039
 30
0.0
 40
20.724885064227699
 50
147.96333986608741
 51
151.18619778887751
  0
LINE
  5
D45
  8
0
  6
CONTINUOUS
 62
     7
 10
547.68645728884246
 20
597.56938177514439
 30
0.0
 11
546.49343792110619
 21
595.50301161581137
 31
0.0
  0
ARC
  5
D46
  8
0
  6
CONTINUOUS
 62
     7
 10
547.25346819206743
 20
597.81937342732965
 30
0.0
 40
0.4999753834856782
 50
329.99947593131088
 51
48.693270756206779
  0
LINE
  5
D47
  8
0
  6
CONTINUOUS
 62
     7
 10
547.24982316122873
 20
596.75202120726351
 30
0.0
 11
547.2311227712712
 21
596.75120021642556
 31
0.0
  0
LINE
  5
D48
  8
0
  6
CONTINUOUS
 62
     7
 10
546.64084190016308
 20
595.74610518186864
 30
0.0
 11
546.49998684492482
 21
595.50213706969316
 31
0.0
  0
LINE
  5
D49
  8
0
  6
CONTINUOUS
 62
     7
 10
546.49343792110619
 20
595.50301161581137
 30
0.0
 11
546.49998684492482
 21
595.50213706969316
 31
0.0
  0
ARC
  5
D4A
  8
0
  6
CONTINUOUS
 62
     7
 10
544.83125248490933
 20
595.06293391418228
 30
0.0
 40
1.725564770185932
 50
1.2270168837785369
 51
14.74557086870011
  0
LINE
  5
D4B
  8
0
  6
CONTINUOUS
 62
     7
 10
546.55027679877276
 20
595.10145943977534
 30
0.0
 11
546.55642157838884
 21
595.09988489536431
 31
0.0
  0
ARC
  5
D4C
  8
0
  6
CONTINUOUS
 62
     7
 10
544.83125248490933
 20
595.06293391418228
 30
0.0
 40
1.719455962732412
 50
1.2838565197442779
 51
14.82929661042475
  0
LINE
  5
D4D
  8
0
  6
CONTINUOUS
 62
     7
 10
546.55642157838884
 20
595.09988489536431
 30
0.0
 11
545.66183654325073
 21
593.55041816281425
 31
0.0
  0
LINE
  5
D4E
  8
0
  6
CONTINUOUS
 62
     7
 10
546.55027679877276
 20
595.10145943977534
 30
0.0
 11
545.65740055798346
 21
593.55495242585687
 31
0.0
  0
ARC
  5
D4F
  8
0
  6
CONTINUOUS
 62
     7
 10
543.65521369611292
 20
591.5870138217399
 30
0.0
 40
0.4999753834657389
 50
251.30672924190009
 51
330.00052407100168
  0
ARC
  5
D50
  8
0
  6
CONTINUOUS
 62
     7
 10
544.83125248490933
 20
595.06293391418228
 30
0.0
 40
4.1694559627323278
 50
228.69274668684741
 51
251.3072533131562
  0
LINE
  5
D51
  8
0
  6
CONTINUOUS
 62
     7
 10
544.5691061219942
 20
592.14045212928386
 30
0.0
 11
544.57774531805126
 21
592.12384662110094
 31
0.0
  0
LINE
  5
D53
  8
63
 10
566.89844714393814
 20
649.56293391418228
 30
0.0
 11
288.39979242351768
 21
649.56293391418228
 31
0.0
  0
LINE
  5
D54
  8
63
 10
430.33125248490938
 20
567.27942223030254
 30
0.0
 11
430.33125248490938
 21
721.83676444701632
 31
0.0
  0
LINE
  5
D55
  8
0
  6
CONTINUOUS
 62
     7
 10
651.74595432565548
 20
710.05594907124555
 30
0.0
 11
650.59612947622577
 21
711.24662755837994
 31
0.0
  0
LINE
  5
D56
  8
63
 10
662.45665631798499
 20
649.56293391418239
 30
0.0
 11
610.75189460197794
 21
649.56293391418228
 31
0.0
  0
LINE
  5
D57
  8
0
  6
CONTINUOUS
 62
     7
 10
650.59612947622577
 20
587.87924026998496
 30
0.0
 11
651.74595432565548
 21
589.06991875711924
 31
0.0
  0
LINE
  5
D58
  8
0
  6
CONTINUOUS
 62
     7
 10
651.74595432565548
 20
593.46293391418237
 30
0.0
 11
651.74595432565548
 21
705.66293391418253
 31
0.0
  0
LINE
  5
D59
  8
0
  6
CONTINUOUS
 62
     7
 10
651.74595432565548
 20
589.06991875711924
 30
0.0
 11
651.74595432565548
 21
593.46293391418237
 31
0.0
  0
LINE
  5
D5A
  8
0
  6
CONTINUOUS
 62
     7
 10
651.74595432565548
 20
705.66293391418253
 30
0.0
 11
651.74595432565548
 21
710.05594907124555
 31
0.0
  0
LINE
  5
D5B
  8
0
  6
CONTINUOUS
 62
     7
 10
626.74595432565548
 20
593.46293391418237
 30
0.0
 11
626.74595432565548
 21
705.66293391418253
 31
0.0
  0
LINE
  5
D5C
  8
0
  6
CONTINUOUS
 62
     7
 10
650.59612947622577
 20
705.66293391418253
 30
0.0
 11
650.59612947622577
 21
593.46293391418237
 31
0.0
  0
LINE
  5
D5D
  8
0
  6
CONTINUOUS
 62
     7
 10
624.74595432565559
 20
706.76293391418244
 30
0.0
 11
624.74595432565559
 21
694.16293391418242
 31
0.0
  0
LINE
  5
D5E
  8
13
  6
DASHED
 10
648.7459543256565
 20
649.56293391418239
 30
0.0
 11
648.7459543256565
 21
612.37069084384063
 31
0.0
  0
LINE
  5
D5F
  8
0
  6
CONTINUOUS
 62
     7
 10
624.74595432565559
 20
686.96293391418226
 30
0.0
 11
624.74595432565559
 21
612.16293391418242
 31
0.0
  0
LINE
  5
D60
  8
0
  6
CONTINUOUS
 62
     7
 10
650.59612947622577
 20
593.46293391418237
 30
0.0
 11
650.59612947622577
 21
587.87924026998496
 31
0.0
  0
LINE
  5
D61
  8
0
  6
CONTINUOUS
 62
     7
 10
626.74595432565548
 20
587.46293391418249
 30
0.0
 11
626.74595432565548
 21
593.46293391418237
 31
0.0
  0
LINE
  5
D62
  8
0
  6
CONTINUOUS
 62
     7
 10
650.59612947622577
 20
587.87924026998496
 30
0.0
 11
626.74595432565548
 21
587.46293391418249
 31
0.0
  0
LINE
  5
D63
  8
13
  6
DASHED
 10
625.7459543256565
 20
611.77798095186631
 30
0.0
 11
648.25030583450075
 21
611.87205767604951
 31
0.0
  0
ARC
  5
D64
  8
13
  6
DASHED
 10
648.2459543256565
 20
612.37069084384063
 30
0.0
 40
0.5
 50
270.50000035593729
 51
0.000000000000007
  0
LINE
  5
D65
  8
0
  6
CONTINUOUS
 62
     7
 10
624.74595432565559
 20
604.96293391418226
 30
0.0
 11
624.74595432565559
 21
592.36293391418235
 31
0.0
  0
LINE
  5
D66
  8
0
  6
CONTINUOUS
 62
     7
 10
624.74595432565559
 20
591.09784404403865
 30
0.0
 11
626.74595432565548
 21
591.06293391418239
 31
0.0
  0
LINE
  5
D67
  8
0
  6
CONTINUOUS
 62
     7
 10
624.74595432565559
 20
592.36293391418235
 30
0.0
 11
624.74595432565559
 21
591.09784404403865
 31
0.0
  0
LINE
  5
D68
  8
0
  6
CONTINUOUS
 62
     7
 10
624.74595432565559
 20
610.89784404403883
 30
0.0
 11
626.74595432565548
 21
610.86293391418235
 31
0.0
  0
LINE
  5
D69
  8
0
  6
CONTINUOUS
 62
     7
 10
624.74595432565559
 20
610.89784404403883
 30
0.0
 11
624.74595432565559
 21
604.96293391418226
 31
0.0
  0
LINE
  5
D6A
  8
0
  6
CONTINUOUS
 62
     7
 10
624.74595432565559
 20
612.16293391418242
 30
0.0
 11
624.74595432565559
 21
610.89784404403883
 31
0.0
  0
LINE
  5
D6B
  8
13
  6
DASHED
 10
648.7459543256565
 20
649.56293391418239
 30
0.0
 11
648.7459543256565
 21
686.75517698452438
 31
0.0
  0
LINE
  5
D6C
  8
13
  6
DASHED
 10
625.7459543256565
 20
687.34788687649836
 30
0.0
 11
648.25030583450075
 21
687.25381015231528
 31
0.0
  0
ARC
  5
D6D
  8
13
  6
DASHED
 10
648.2459543256565
 20
686.75517698452438
 30
0.0
 40
0.5
 50
0.000000000000007
 51
89.499999644062626
  0
LINE
  5
D6E
  8
0
  6
CONTINUOUS
 62
     7
 10
624.74595432565559
 20
694.16293391418242
 30
0.0
 11
624.74595432565559
 21
688.22802378432596
 31
0.0
  0
LINE
  5
D6F
  8
0
  6
CONTINUOUS
 62
     7
 10
624.74595432565559
 20
688.22802378432596
 30
0.0
 11
626.74595432565548
 21
688.26293391418244
 31
0.0
  0
LINE
  5
D70
  8
0
  6
CONTINUOUS
 62
     7
 10
624.74595432565559
 20
688.22802378432596
 30
0.0
 11
624.74595432565559
 21
686.96293391418226
 31
0.0
  0
LINE
  5
D71
  8
0
  6
CONTINUOUS
 62
     7
 10
650.59612947622577
 20
711.24662755837994
 30
0.0
 11
626.74595432565548
 21
711.66293391418253
 31
0.0
  0
LINE
  5
D72
  8
0
  6
CONTINUOUS
 62
     7
 10
650.59612947622577
 20
711.24662755837994
 30
0.0
 11
650.59612947622577
 21
705.66293391418253
 31
0.0
  0
LINE
  5
D73
  8
0
  6
CONTINUOUS
 62
     7
 10
624.74595432565559
 20
708.02802378432602
 30
0.0
 11
626.74595432565548
 21
708.06293391418239
 31
0.0
  0
LINE
  5
D74
  8
0
  6
CONTINUOUS
 62
     7
 10
626.74595432565548
 20
705.66293391418253
 30
0.0
 11
626.74595432565548
 21
711.66293391418253
 31
0.0
  0
LINE
  5
D75
  8
0
  6
CONTINUOUS
 62
     7
 10
624.74595432565559
 20
708.02802378432602
 30
0.0
 11
624.74595432565559
 21
706.76293391418244
 31
0.0
  0
ARC
  5
D99
  8
13
  6
DASHED
 10
323.60544735505312
 20
780.9967568436274
 30
0.0
 40
0.5
 50
90.0
 51
179.5000000000019
  0
LINE
  5
D9A
  8
13
  6
DASHED
 10
322.99634235505312
 20
758.49675684362728
 30
0.0
 11
323.10546624105029
 21
781.00112011270721
 31
0.0
  0
LINE
  5
D9B
  8
13
  6
DASHED
 10
430.33125248490938
 20
517.62911098473717
 30
0.0
 11
537.05705761476588
 21
517.62911098473717
 31
0.0
  0
LINE
  5
D9C
  8
0
  6
CONTINUOUS
 62
     7
 10
314.23125248490942
 20
514.62911098473705
 30
0.0
 11
546.43125248490958
 21
514.62911098473705
 31
0.0
  0
LINE
  5
D9D
  8
0
  6
CONTINUOUS
 62
     7
 10
314.23125248490942
 20
539.62911098473705
 30
0.0
 11
546.43125248490958
 21
539.62911098473705
 31
0.0
  0
LINE
  5
D9E
  8
0
  6
CONTINUOUS
 62
     7
 10
546.43125248490958
 20
515.77893583416699
 30
0.0
 11
314.23125248490942
 21
515.77893583416699
 31
0.0
  0
LINE
  5
D9F
  8
0
  6
CONTINUOUS
 62
     7
 10
537.33125248490944
 20
541.62911098473705
 30
0.0
 11
323.3312524849095
 21
541.62911098473705
 31
0.0
  0
LINE
  5
DA0
  8
13
  6
DASHED
 10
430.33125248490938
 20
517.62911098473717
 30
0.0
 11
323.60544735505312
 21
517.62911098473717
 31
0.0
  0
LINE
  5
DA1
  8
0
  6
CONTINUOUS
 62
     7
 10
308.64755884071189
 20
515.77893583416699
 30
0.0
 11
308.23125248490942
 21
539.62911098473705
 31
0.0
  0
LINE
  5
DA2
  8
0
  6
CONTINUOUS
 62
     7
 10
308.23125248490942
 20
539.62911098473705
 30
0.0
 11
314.23125248490942
 21
539.62911098473705
 31
0.0
  0
LINE
  5
DA3
  8
13
  6
DASHED
 10
322.99634235505312
 20
540.62911098473705
 30
0.0
 11
323.10546624105029
 21
518.12474771565735
 31
0.0
  0
LINE
  5
DA4
  8
0
  6
CONTINUOUS
 62
     7
 10
322.06616261476591
 20
541.62911098473705
 30
0.0
 11
316.1312524849094
 21
541.62911098473705
 31
0.0
  0
LINE
  5
DA5
  8
0
  6
CONTINUOUS
 62
     7
 10
311.86616261476581
 20
541.62911098473728
 30
0.0
 11
311.8312524849095
 21
539.62911098473705
 31
0.0
  0
LINE
  5
DA6
  8
0
  6
CONTINUOUS
 62
     7
 10
313.1312524849094
 20
541.62911098473705
 30
0.0
 11
311.86616261476581
 21
541.62911098473728
 31
0.0
  0
LINE
  5
DA7
  8
0
  6
CONTINUOUS
 62
     7
 10
316.1312524849094
 20
541.62911098473705
 30
0.0
 11
313.1312524849094
 21
541.62911098473705
 31
0.0
  0
LINE
  5
DA8
  8
0
  6
CONTINUOUS
 62
     7
 10
322.06616261476591
 20
541.62911098473705
 30
0.0
 11
322.03125248490949
 21
539.62911098473705
 31
0.0
  0
LINE
  5
DA9
  8
0
  6
CONTINUOUS
 62
     7
 10
323.3312524849095
 20
541.62911098473705
 30
0.0
 11
322.06616261476591
 21
541.62911098473705
 31
0.0
  0
LINE
  5
DAA
  8
0
  6
CONTINUOUS
 62
     7
 10
330.33125248490933
 20
539.62911098473705
 30
0.0
 11
336.33125248490938
 21
539.62911098473705
 31
0.0
  0
LINE
  5
DAB
  8
0
  6
CONTINUOUS
 62
     7
 10
309.83823732784617
 20
514.62911098473705
 30
0.0
 11
314.23125248490942
 21
514.62911098473705
 31
0.0
  0
LINE
  5
DAC
  8
0
  6
CONTINUOUS
 62
     7
 10
314.23125248490942
 20
515.77893583416699
 30
0.0
 11
308.64755884071189
 21
515.77893583416699
 31
0.0
  0
LINE
  5
DAD
  8
0
  6
CONTINUOUS
 62
     7
 10
308.64755884071189
 20
515.77893583416699
 30
0.0
 11
309.83823732784617
 21
514.62911098473705
 31
0.0
  0
ARC
  5
DAE
  8
13
  6
DASHED
 10
323.60544735505312
 20
518.12911098473705
 30
0.0
 40
0.5
 50
180.49999999999801
 51
270.0
  0
LINE
  5
DAF
  8
63
 10
430.33125248490938
 20
500.59278770238319
 30
0.0
 11
430.33125248490938
 21
554.20394202679461
 31
0.0
  0
LINE
  5
DB0
  8
0
  6
CONTINUOUS
 62
     7
 10
538.59634235505314
 20
541.62911098473705
 30
0.0
 11
537.33125248490944
 21
541.62911098473705
 31
0.0
  0
LINE
  5
DB1
  8
13
  6
DASHED
 10
537.66616261476577
 20
540.62911098473705
 30
0.0
 11
537.55703872876859
 21
518.12474771565735
 31
0.0
  0
ARC
  5
DB2
  8
13
  6
DASHED
 10
537.05705761476588
 20
518.12911098473705
 30
0.0
 40
0.5
 50
270.0
 51
359.50000000000188
  0
LINE
  5
DB3
  8
0
  6
CONTINUOUS
 62
     7
 10
552.01494612910699
 20
515.77893583416699
 30
0.0
 11
552.43125248490935
 21
539.62911098473705
 31
0.0
  0
LINE
  5
DB4
  8
0
  6
CONTINUOUS
 62
     7
 10
547.53125248490937
 20
541.62911098473705
 30
0.0
 11
544.53125248490949
 21
541.62911098473705
 31
0.0
  0
LINE
  5
DB5
  8
0
  6
CONTINUOUS
 62
     7
 10
538.59634235505314
 20
541.62911098473705
 30
0.0
 11
538.63125248490951
 21
539.62911098473705
 31
0.0
  0
LINE
  5
DB6
  8
0
  6
CONTINUOUS
 62
     7
 10
544.53125248490949
 20
541.62911098473705
 30
0.0
 11
538.59634235505314
 21
541.62911098473705
 31
0.0
  0
LINE
  5
DB7
  8
0
  6
CONTINUOUS
 62
     7
 10
548.79634235505318
 20
541.62911098473728
 30
0.0
 11
548.83125248490956
 21
539.62911098473705
 31
0.0
  0
LINE
  5
DB8
  8
0
  6
CONTINUOUS
 62
     7
 10
548.79634235505318
 20
541.62911098473728
 30
0.0
 11
547.53125248490937
 21
541.62911098473705
 31
0.0
  0
LINE
  5
DB9
  8
0
  6
CONTINUOUS
 62
     7
 10
546.43125248490958
 20
539.62911098473705
 30
0.0
 11
552.43125248490935
 21
539.62911098473705
 31
0.0
  0
LINE
  5
DBA
  8
0
  6
CONTINUOUS
 62
     7
 10
546.43125248490958
 20
514.62911098473705
 30
0.0
 11
550.82426764197271
 21
514.62911098473705
 31
0.0
  0
LINE
  5
DBB
  8
0
  6
CONTINUOUS
 62
     7
 10
552.01494612910699
 20
515.77893583416699
 30
0.0
 11
546.43125248490958
 21
515.77893583416699
 31
0.0
  0
LINE
  5
DBC
  8
0
  6
CONTINUOUS
 62
     7
 10
552.01494612910699
 20
515.77893583416699
 30
0.0
 11
550.82426764197271
 21
514.62911098473705
 31
0.0
  0
ENDSEC
  0
EOF
