  0
SECTION
  2
HEADER
  9
$ACADVER
  1
AC1009
  9
$INSBASE
 10
0.0
 20
0.0
 30
0.0
  9
$EXTMIN
 10
64.271414
 20
97.9085
 30
0.0
  9
$EXTMAX
 10
837.673516
 20
434.821444
 30
0.0
  9
$LIMMIN
 10
0.0
 20
0.0
  9
$LIMMAX
 10
420.0
 20
297.0
  9
$ORTHOMODE
 70
     0
  9
$REGENMODE
 70
     1
  9
$FILLMODE
 70
     1
  9
$QTEXTMODE
 70
     0
  9
$MIRRTEXT
 70
     1
  9
$DRAGMODE
 70
     2
  9
$LTSCALE
 40
7.0
  9
$OSMODE
 70
     0
  9
$ATTMODE
 70
     1
  9
$TEXTSIZE
 40
3.5
  9
$TRACEWID
 40
0.05
  9
$TEXTSTYLE
  7
STANDARD
  9
$CLAYER
  8
L1
  9
$CELTYPE
  6
BYLAYER
  9
$CECOLOR
 62
   256
  9
$DIMSCALE
 40
1.0
  9
$DIMASZ
 40
3.5
  9
$DIMEXO
 40
0.0
  9
$DIMDLI
 40
10.0
  9
$DIMRND
 40
0.0
  9
$DIMDLE
 40
0.0
  9
$DIMEXE
 40
2.0
  9
$DIMTP
 40
0.0
  9
$DIMTM
 40
0.0
  9
$DIMTXT
 40
3.5
  9
$DIMCEN
 40
2.5
  9
$DIMTSZ
 40
0.0
  9
$DIMTOL
 70
     0
  9
$DIMLIM
 70
     0
  9
$DIMTIH
 70
     0
  9
$DIMTOH
 70
     0
  9
$DIMSE1
 70
     0
  9
$DIMSE2
 70
     0
  9
$DIMTAD
 70
     1
  9
$DIMZIN
 70
     8
  9
$DIMBLK
  1

  9
$DIMASO
 70
     1
  9
$DIMSHO
 70
     1
  9
$DIMPOST
  1

  9
$DIMAPOST
  1

  9
$DIMALT
 70
     0
  9
$DIMALTD
 70
     2
  9
$DIMALTF
 40
25.4
  9
$DIMLFAC
 40
1.0
  9
$DIMTOFL
 70
     1
  9
$DIMTVP
 40
0.0
  9
$DIMTIX
 70
     0
  9
$DIMSOXD
 70
     0
  9
$DIMSAH
 70
     0
  9
$DIMBLK1
  1

  9
$DIMBLK2
  1

  9
$DIMSTYLE
  2
*UNNAMED
  9
$DIMCLRD
 70
   256
  9
$DIMCLRE
 70
   256
  9
$DIMCLRT
 70
     3
  9
$DIMTFAC
 40
1.0
  9
$DIMGAP
 40
2.0
  9
$LUNITS
 70
     2
  9
$LUPREC
 70
     2
  9
$SKETCHINC
 40
1.0
  9
$FILLETRAD
 40
0.0
  9
$AUNITS
 70
     0
  9
$AUPREC
 70
     2
  9
$MENU
  1
CAESAR
  9
$ELEVATION
 40
0.0
  9
$PELEVATION
 40
0.0
  9
$THICKNESS
 40
0.0
  9
$LIMCHECK
 70
     0
  9
$BLIPMODE
 70
     1
  9
$CHAMFERA
 40
5.0
  9
$CHAMFERB
 40
5.0
  9
$SKPOLY
 70
     0
  9
$TDCREATE
 40
2449682.489845717
  9
$TDUPDATE
 40
2449682.489845717
  9
$TDINDWG
 40
0.0000000000
  9
$TDUSRTIMER
 40
0.0000000000
  9
$USRTIMER
 70
     1
  9
$ANGBASE
 50
0.0
  9
$ANGDIR
 70
     0
  9
$PDMODE
 70
     0
  9
$PDSIZE
 40
0.0
  9
$PLINEWID
 40
0.0
  9
$COORDS
 70
     2
  9
$SPLFRAME
 70
     0
  9
$SPLINETYPE
 70
     6
  9
$SPLINESEGS
 70
     8
  9
$ATTDIA
 70
     0
  9
$ATTREQ
 70
     1
  9
$HANDLING
 70
     1
  9
$HANDSEED
  5
25A6
  9
$SURFTAB1
 70
     6
  9
$SURFTAB2
 70
     6
  9
$SURFTYPE
 70
     6
  9
$SURFU
 70
     6
  9
$SURFV
 70
     6
  9
$UCSNAME
  2

  9
$UCSORG
 10
0.0
 20
0.0
 30
0.0
  9
$UCSXDIR
 10
1.0
 20
0.0
 30
0.0
  9
$UCSYDIR
 10
0.0
 20
1.0
 30
0.0
  9
$PUCSNAME
  2

  9
$PUCSORG
 10
0.0
 20
0.0
 30
0.0
  9
$PUCSXDIR
 10
1.0
 20
0.0
 30
0.0
  9
$PUCSYDIR
 10
0.0
 20
1.0
 30
0.0
  9
$USERI1
 70
     0
  9
$USERI2
 70
     0
  9
$USERI3
 70
     0
  9
$USERI4
 70
     0
  9
$USERI5
 70
     0
  9
$USERR1
 40
1.0
  9
$USERR2
 40
0.0
  9
$USERR3
 40
3.5
  9
$USERR4
 40
0.0
  9
$USERR5
 40
0.0
  9
$WORLDVIEW
 70
     1
  9
$SHADEDGE
 70
     3
  9
$SHADEDIF
 70
    70
  9
$TILEMODE
 70
     1
  9
$MAXACTVP
 70
    16
  9
$PINSBASE
 10
0.0
 20
0.0
 30
0.0
  9
$PLIMCHECK
 70
     0
  9
$PEXTMIN
 10
1.000000E+20
 20
1.000000E+20
 30
1.000000E+20
  9
$PEXTMAX
 10
-1.000000E+20
 20
-1.000000E+20
 30
-1.000000E+20
  9
$PLIMMIN
 10
0.0
 20
0.0
  9
$PLIMMAX
 10
420.0
 20
297.0
  9
$UNITMODE
 70
     0
  9
$VISRETAIN
 70
     0
  9
$PLINEGEN
 70
     0
  9
$PSLTSCALE
 70
     0
  9
$TREEDEPTH
 70
  3020
  9
$DWGCODEPAGE
  3
dos850
  0
ENDSEC
  0
SECTION
  2
TABLES
  0
TABLE
  2
VPORT
 70
     2
  0
VPORT
  2
*ACTIVE
 70
     0
 10
0.0
 20
0.0
 11
1.0
 21
1.0
 12
287.564723
 22
225.231556
 13
0.0
 23
0.0
 14
1.0
 24
1.0
 15
10.0
 25
10.0
 16
0.0
 26
0.0
 36
1.0
 17
0.0
 27
0.0
 37
0.0
 40
456.463112
 41
1.273114
 42
50.0
 43
0.0
 44
0.0
 50
0.0
 51
0.0
 71
     0
 72
  1000
 73
     1
 74
     1
 75
     1
 76
     0
 77
     0
 78
     0
  0
ENDTAB
  0
TABLE
  2
LTYPE
 70
    10
  0
LTYPE
  2
CONTINUOUS
 70
    64
  3
Solid line
 72
    65
 73
     0
 40
0.0
  0
LTYPE
  2
BORDER
 70
     0
  3
__ __ . __ __ . __ __ . __ __ . __ __ . __ __ .
 72
    65
 73
     6
 40
1.75
 49
0.5
 49
-0.25
 49
0.5
 49
-0.25
 49
0.0
 49
-0.25
  0
LTYPE
  2
CENTER
 70
    64
  3
____ _ ____ _ ____ _ ____ _ ____ _ ____ _ ____ 
 72
    65
 73
     4
 40
2.0
 49
1.25
 49
-0.25
 49
0.25
 49
-0.25
  0
LTYPE
  2
DASHDOT
 70
     0
  3
__ . __ . __ . __ . __ . __ . __ . __ . __ . __
 72
    65
 73
     4
 40
1.0
 49
0.5
 49
-0.25
 49
0.0
 49
-0.25
  0
LTYPE
  2
DASHED
 70
    64
  3
__ __ __ __ __ __ __ __ __ __ __ __ __ __ __ __
 72
    65
 73
     2
 40
0.75
 49
0.5
 49
-0.25
  0
LTYPE
  2
DIVIDE
 70
     0
  3
____ . . ____ . . ____ . . ____ . . ____ . . __
 72
    65
 73
     6
 40
1.25
 49
0.5
 49
-0.25
 49
0.0
 49
-0.25
 49
0.0
 49
-0.25
  0
LTYPE
  2
DOT
 70
     0
  3
. . . . . . . . . . . . . . . . . . . . . . . .
 72
    65
 73
     2
 40
0.25
 49
0.0
 49
-0.25
  0
LTYPE
  2
HIDDEN
 70
    64
  3
__ __ __ __ __ __ __ __ __ __ __ __ __ __ __ __
 72
    65
 73
     2
 40
0.375
 49
0.25
 49
-0.125
  0
LTYPE
  2
PHANTOM
 70
    64
  3
______  __  __  ______  __  __  ______  __  __ 
 72
    65
 73
     6
 40
2.5
 49
1.25
 49
-0.25
 49
0.25
 49
-0.25
 49
0.25
 49
-0.25
  0
LTYPE
  2
DOTX2
 70
    64
  3
.  .  .  .  .  .  .  .  .  .  .  .  .  .  .  . 
 72
    65
 73
     2
 40
0.5
 49
0.0
 49
-0.5
  0
ENDTAB
  0
TABLE
  2
LAYER
 70
    73
  0
LAYER
  2
0
 70
    64
 62
     7
  6
CONTINUOUS
  0
LAYER
  2
L1
 70
     0
 62
     3
  6
CONTINUOUS
  0
LAYER
  2
L2
 70
     0
 62
     1
  6
CONTINUOUS
  0
LAYER
  2
L3
 70
     0
 62
     7
  6
DASHED
  0
LAYER
  2
L4
 70
     0
 62
     1
  6
DASHED
  0
LAYER
  2
L5
 70
     0
 62
     6
  6
CENTER
  0
LAYER
  2
L6
 70
     0
 62
     1
  6
CENTER
  0
LAYER
  2
L7
 70
     0
 62
     1
  6
PHANTOM
  0
LAYER
  2
VPORT
 70
     0
 62
     7
  6
CONTINUOUS
  0
LAYER
  2
L8
 70
     0
 62
     1
  6
CONTINUOUS
  0
LAYER
  2
L20
 70
     0
 62
     3
  6
CONTINUOUS
  0
LAYER
  2
L21
 70
     0
 62
     1
  6
CONTINUOUS
  0
LAYER
  2
L22
 70
     0
 62
     1
  6
CONTINUOUS
  0
LAYER
  2
L23
 70
     0
 62
     1
  6
CONTINUOUS
  0
LAYER
  2
L30
 70
     0
 62
     3
  6
CONTINUOUS
  0
LAYER
  2
L31
 70
     0
 62
     1
  6
CONTINUOUS
  0
LAYER
  2
L32
 70
     0
 62
     3
  6
CONTINUOUS
  0
LAYER
  2
L33
 70
     0
 62
     1
  6
CONTINUOUS
  0
LAYER
  2
L34
 70
     0
 62
     3
  6
CONTINUOUS
  0
LAYER
  2
L35
 70
     0
 62
     1
  6
CONTINUOUS
  0
LAYER
  2
L40
 70
     0
 62
     7
  6
CONTINUOUS
  0
LAYER
  2
L41
 70
     0
 62
     1
  6
CONTINUOUS
  0
LAYER
  2
L42
 70
     0
 62
     1
  6
CONTINUOUS
  0
LAYER
  2
L43
 70
     0
 62
     7
  6
CONTINUOUS
  0
LAYER
  2
L44
 70
     0
 62
     1
  6
CONTINUOUS
  0
LAYER
  2
L45
 70
     0
 62
     1
  6
CONTINUOUS
  0
LAYER
  2
L46
 70
     0
 62
     3
  6
CONTINUOUS
  0
LAYER
  2
L50
 70
     0
 62
     7
  6
CONTINUOUS
  0
LAYER
  2
L51
 70
     0
 62
     1
  6
CONTINUOUS
  0
LAYER
  2
L52
 70
     0
 62
     7
  6
CONTINUOUS
  0
LAYER
  2
L53
 70
     0
 62
     1
  6
CONTINUOUS
  0
LAYER
  2
L54
 70
     0
 62
     3
  6
CONTINUOUS
  0
LAYER
  2
L55
 70
     0
 62
     3
  6
CONTINUOUS
  0
LAYER
  2
L56
 70
     0
 62
     3
  6
CONTINUOUS
  0
LAYER
  2
L57
 70
     0
 62
     1
  6
CONTINUOUS
  0
LAYER
  2
L9
 70
     0
 62
     7
  6
HIDDEN
  0
LAYER
  2
L15
 70
     0
 62
     2
  6
CONTINUOUS
  0
LAYER
  2
L16
 70
     0
 62
     5
  6
DOTX2
  0
LAYER
  2
L24
 70
     0
 62
     1
  6
CONTINUOUS
  0
LAYER
  2
DEFPOINTS
 70
     0
 62
    -7
  6
CONTINUOUS
  0
LAYER
  2
L38
 70
     0
 62
     1
  6
CENTER
  0
LAYER
  2
L37
 70
     0
 62
     1
  6
CONTINUOUS
  0
LAYER
  2
L36
 70
     0
 62
     7
  6
CONTINUOUS
  0
LAYER
  2
11
 70
    64
 62
     7
  6
CONTINUOUS
  0
LAYER
  2
12
 70
     0
 62
     1
  6
CONTINUOUS
  0
LAYER
  2
13
 70
    64
 62
     1
  6
CENTER
  0
LAYER
  2
14
 70
     0
 62
     1
  6
DASHED
  0
LAYER
  2
15
 70
     0
 62
     2
  6
DASHED
  0
LAYER
  2
21
 70
    64
 62
     7
  6
CONTINUOUS
  0
LAYER
  2
22
 70
     0
 62
     1
  6
CONTINUOUS
  0
LAYER
  2
23
 70
    64
 62
     1
  6
CENTER
  0
LAYER
  2
24
 70
     0
 62
     1
  6
DASHED
  0
LAYER
  2
25
 70
     0
 62
     2
  6
DASHED
  0
LAYER
  2
31
 70
    64
 62
     7
  6
CONTINUOUS
  0
LAYER
  2
32
 70
     0
 62
     1
  6
CONTINUOUS
  0
LAYER
  2
33
 70
    64
 62
     1
  6
CENTER
  0
LAYER
  2
34
 70
     0
 62
     1
  6
DASHED
  0
LAYER
  2
35
 70
     0
 62
     2
  6
DASHED
  0
LAYER
  2
41
 70
    64
 62
     7
  6
CONTINUOUS
  0
LAYER
  2
42
 70
     0
 62
     1
  6
CONTINUOUS
  0
LAYER
  2
43
 70
    64
 62
     1
  6
CENTER
  0
LAYER
  2
44
 70
     0
 62
     1
  6
DASHED
  0
LAYER
  2
45
 70
     0
 62
     2
  6
DASHED
  0
LAYER
  2
51
 70
    64
 62
     7
  6
CONTINUOUS
  0
LAYER
  2
52
 70
     0
 62
     1
  6
CONTINUOUS
  0
LAYER
  2
53
 70
    64
 62
     1
  6
CENTER
  0
LAYER
  2
54
 70
     0
 62
     1
  6
DASHED
  0
LAYER
  2
55
 70
     0
 62
     2
  6
DASHED
  0
LAYER
  2
61
 70
    64
 62
     7
  6
CONTINUOUS
  0
LAYER
  2
62
 70
    64
 62
     1
  6
CONTINUOUS
  0
LAYER
  2
63
 70
    64
 62
     1
  6
CENTER
  0
LAYER
  2
64
 70
     0
 62
     1
  6
DASHED
  0
LAYER
  2
65
 70
     0
 62
     2
  6
DASHED
  0
ENDTAB
  0
TABLE
  2
STYLE
 70
     4
  0
STYLE
  2
STANDARD
 70
     0
 40
0.0
 41
1.0
 50
0.0
 71
     0
 42
3.5
  3
CAEISO
  4

  0
STYLE
  2
SIMPLEX
 70
     0
 40
0.0
 41
1.0
 50
0.0
 71
     0
 42
0.2
  3
KIRJAIN
  4

  0
STYLE
  2
ROMANS
 70
     0
 40
2.5
 41
0.8
 50
0.0
 71
     0
 42
12.5
  3
romans
  4

  0
STYLE
  2
TKKISO
 70
    64
 40
0.0
 41
1.0
 50
0.0
 71
     0
 42
12.5
  3
caeiso
  4

  0
ENDTAB
  0
TABLE
  2
VIEW
 70
     0
  0
ENDTAB
  0
TABLE
  2
UCS
 70
     0
  0
ENDTAB
  0
TABLE
  2
APPID
 70
     1
  0
APPID
  2
ACAD
 70
    64
  0
ENDTAB
  0
TABLE
  2
DIMSTYLE
 70
     6
  0
DIMSTYLE
  2
ACADUS
 70
     0
  3

  4

  5

  6

  7

 40
1.0
 41
0.18
 42
0.0625
 43
0.38
 44
0.18
 45
0.0
 46
0.0
 47
0.0
 48
0.0
140
0.18
141
0.09
142
0.0
143
25.4
144
1.0
145
0.0
146
1.0
147
0.09
 71
     0
 72
     0
 73
     1
 74
     1
 75
     0
 76
     0
 77
     0
 78
     0
170
     0
171
     2
172
     0
173
     0
174
     0
175
     0
176
     0
177
     0
178
     0
  0
DIMSTYLE
  2
NORDIC
 70
     0
  3

  4

  5

  6

  7

 40
1.0
 41
3.5
 42
1.0
 43
10.0
 44
2.0
 45
0.0
 46
0.0
 47
0.0
 48
0.0
140
3.5
141
2.5
142
0.0
143
25.4
144
1.0
145
0.0
146
1.0
147
2.0
 71
     0
 72
     0
 73
     0
 74
     0
 75
     0
 76
     0
 77
     1
 78
     8
170
     0
171
     2
172
     1
173
     0
174
     0
175
     0
176
     0
177
     0
178
     0
  0
DIMSTYLE
  2
RADIAL
 70
     0
  3

  4

  5

  6

  7

 40
1.0
 41
3.5
 42
1.0
 43
10.0
 44
2.0
 45
0.0
 46
0.0
 47
0.0
 48
0.0
140
3.5
141
2.5
142
0.0
143
25.4
144
1.0
145
0.0
146
1.0
147
2.0
 71
     0
 72
     0
 73
     0
 74
     1
 75
     0
 76
     0
 77
     1
 78
     8
170
     0
171
     2
172
     0
173
     0
174
     0
175
     0
176
     0
177
     0
178
     0
  0
DIMSTYLE
  2
NORTOL
 70
     0
  3

  4

  5

  6

  7

 40
1.0
 41
3.5
 42
1.0
 43
10.0
 44
2.0
 45
0.0
 46
0.0
 47
0.2
 48
0.1
140
3.5
141
2.5
142
0.0
143
25.4
144
1.0
145
0.7
146
0.71
147
2.0
 71
     1
 72
     0
 73
     0
 74
     0
 75
     0
 76
     0
 77
     0
 78
     8
170
     0
171
     2
172
     1
173
     0
174
     0
175
     0
176
     0
177
     0
178
     0
  0
DIMSTYLE
  2
RADTOL
 70
     0
  3

  4

  5

  6

  7

 40
1.0
 41
3.5
 42
1.0
 43
10.0
 44
2.0
 45
0.0
 46
0.0
 47
0.2
 48
0.1
140
3.5
141
2.5
142
0.0
143
25.4
144
1.0
145
0.7
146
0.7
147
2.0
 71
     1
 72
     0
 73
     0
 74
     1
 75
     0
 76
     0
 77
     0
 78
     8
170
     0
171
     2
172
     0
173
     0
174
     0
175
     0
176
     0
177
     0
178
     0
  0
DIMSTYLE
  2
HANSU
 70
     0
  3

  4

  5

  6

  7

 40
1.0
 41
3.5
 42
0.0
 43
10.0
 44
2.0
 45
0.0
 46
0.0
 47
0.0
 48
0.0
140
3.5
141
2.5
142
0.0
143
25.4
144
0.8
145
0.0
146
1.0
147
2.0
 71
     0
 72
     0
 73
     0
 74
     0
 75
     0
 76
     0
 77
     1
 78
     8
170
     0
171
     2
172
     1
173
     0
174
     0
175
     0
176
   256
177
   256
178
     3
  0
ENDTAB
  0
ENDSEC
  0
SECTION
  2
BLOCKS
  0
BLOCK
  8
0
  5
2329
  2
AME_NIL
 70
     0
 10
0.0
 20
0.0
 30
0.0
  1
AME_NIL
  3
AME_NIL
  0
ENDBLK
  8
0
  5
232A
  0
BLOCK
  8
0
  5
232C
  2
AME_SOL
 70
     0
 10
0.0
 20
0.0
 30
0.0
  1
AME_SOL
  3
AME_SOL
  0
ENDBLK
  8
0
  5
232D
  0
BLOCK
  8
0
  5
233F
  2
SOLAXES
 70
     0
 10
0.0
 20
0.0
 30
0.0
  1
SOLAXES
  3
SOLAXES
  0
LINE
  8
0
 62
     0
  5
2340
 10
0.0
 20
0.0
 30
0.0
 11
63.851158
 21
0.0
 31
0.0
  0
LINE
  8
0
 62
     0
  5
2341
 10
0.0
 20
0.0
 30
0.0
 11
0.0
 21
63.851158
 31
0.0
  0
LINE
  8
0
 62
     0
  5
2342
 10
0.0
 20
0.0
 30
0.0
 11
0.0
 21
0.0
 31
63.851158
  0
CIRCLE
  8
0
 62
     0
  5
2343
 10
0.0
 20
0.0
 30
57.466042
 40
3.192558
210
1.0
220
0.0
230
0.0
  0
LINE
  8
0
 62
     0
  5
2344
 10
57.466042
 20
3.192558
 30
0.0
 11
63.851158
 21
0.0
 31
0.0
  0
LINE
  8
0
 62
     0
  5
2345
 10
57.466042
 20
0.0
 30
3.192558
 11
63.851158
 21
0.0
 31
0.0
  0
LINE
  8
0
 62
     0
  5
2346
 10
57.466042
 20
-3.192558
 30
0.0
 11
63.851158
 21
0.0
 31
0.0
  0
LINE
  8
0
 62
     0
  5
2347
 10
57.466042
 20
0.0
 30
-3.192558
 11
63.851158
 21
0.0
 31
0.0
  0
CIRCLE
  8
0
 62
     0
  5
2348
 10
0.0
 20
0.0
 30
57.466042
 40
3.192558
210
0.0
220
1.0
230
0.0
  0
LINE
  8
0
 62
     0
  5
2349
 10
3.192558
 20
57.466042
 30
0.0
 11
0.0
 21
63.851158
 31
0.0
  0
LINE
  8
0
 62
     0
  5
234A
 10
0.0
 20
57.466042
 30
3.192558
 11
0.0
 21
63.851158
 31
0.0
  0
LINE
  8
0
 62
     0
  5
234B
 10
-3.192558
 20
57.466042
 30
0.0
 11
0.0
 21
63.851158
 31
0.0
  0
LINE
  8
0
 62
     0
  5
234C
 10
0.0
 20
57.466042
 30
-3.192558
 11
0.0
 21
63.851158
 31
0.0
  0
CIRCLE
  8
0
 62
     0
  5
234D
 10
0.0
 20
0.0
 30
51.080927
 40
3.192558
210
0.0
220
1.0
230
0.0
  0
LINE
  8
0
 62
     0
  5
234E
 10
3.192558
 20
51.080927
 30
0.0
 11
0.0
 21
57.466042
 31
0.0
  0
LINE
  8
0
 62
     0
  5
234F
 10
0.0
 20
51.080927
 30
3.192558
 11
0.0
 21
57.466042
 31
0.0
  0
LINE
  8
0
 62
     0
  5
2350
 10
-3.192558
 20
51.080927
 30
0.0
 11
0.0
 21
57.466042
 31
0.0
  0
LINE
  8
0
 62
     0
  5
2351
 10
0.0
 20
51.080927
 30
-3.192558
 11
0.0
 21
57.466042
 31
0.0
  0
CIRCLE
  8
0
 62
     0
  5
2352
 10
0.0
 20
0.0
 30
57.466042
 40
3.192558
  0
LINE
  8
0
 62
     0
  5
2353
 10
3.192558
 20
0.0
 30
57.466042
 11
0.0
 21
0.0
 31
63.851158
  0
LINE
  8
0
 62
     0
  5
2354
 10
0.0
 20
3.192558
 30
57.466042
 11
0.0
 21
0.0
 31
63.851158
  0
LINE
  8
0
 62
     0
  5
2355
 10
-3.192558
 20
0.0
 30
57.466042
 11
0.0
 21
0.0
 31
63.851158
  0
LINE
  8
0
 62
     0
  5
2356
 10
0.0
 20
-3.192558
 30
57.466042
 11
0.0
 21
0.0
 31
63.851158
  0
CIRCLE
  8
0
 62
     0
  5
2357
 10
0.0
 20
0.0
 30
51.080927
 40
3.192558
  0
LINE
  8
0
 62
     0
  5
2358
 10
3.192558
 20
0.0
 30
51.080927
 11
0.0
 21
0.0
 31
57.466042
  0
LINE
  8
0
 62
     0
  5
2359
 10
0.0
 20
3.192558
 30
51.080927
 11
0.0
 21
0.0
 31
57.466042
  0
LINE
  8
0
 62
     0
  5
235A
 10
-3.192558
 20
0.0
 30
51.080927
 11
0.0
 21
0.0
 31
57.466042
  0
LINE
  8
0
 62
     0
  5
235B
 10
0.0
 20
-3.192558
 30
51.080927
 11
0.0
 21
0.0
 31
57.466042
  0
CIRCLE
  8
0
 62
     0
  5
235C
 10
0.0
 20
0.0
 30
44.695811
 40
3.192558
  0
LINE
  8
0
 62
     0
  5
235D
 10
3.192558
 20
0.0
 30
44.695811
 11
0.0
 21
0.0
 31
51.080927
  0
LINE
  8
0
 62
     0
  5
235E
 10
0.0
 20
3.192558
 30
44.695811
 11
0.0
 21
0.0
 31
51.080927
  0
LINE
  8
0
 62
     0
  5
235F
 10
-3.192558
 20
0.0
 30
44.695811
 11
0.0
 21
0.0
 31
51.080927
  0
LINE
  8
0
 62
     0
  5
2360
 10
0.0
 20
-3.192558
 30
44.695811
 11
0.0
 21
0.0
 31
51.080927
  0
ENDBLK
  8
0
  5
2361
  0
BLOCK
  8
0
  5
2460
  2
AME_MAT
 70
     0
 10
0.0
 20
0.0
 30
0.0
  1
AME_MAT
  3
AME_MAT
  0
ENDBLK
  8
0
  5
2461
  0
BLOCK
  8
0
  5
2467
  2
122006B
 70
    64
 10
0.0
 20
0.0
 30
0.0
  3
122006B
  0
LINE
  8
62
  5
2468
 10
717.818769
 20
315.364972
 30
0.0
 11
709.518769
 21
315.364972
 31
0.0
  0
CIRCLE
  8
62
  5
2469
 10
713.818769
 20
310.864972
 30
0.0
 40
2.25
  0
ARC
  8
62
  5
246A
 10
717.818769
 20
314.864972
 30
0.0
 40
0.5
 50
0.0
 51
90.0
  0
LINE
  8
62
  5
246B
 10
718.318769
 20
314.864972
 30
0.0
 11
718.318769
 21
307.064972
 31
0.0
  0
ARC
  8
62
  5
246C
 10
717.818769
 20
307.064972
 30
0.0
 40
0.5
 50
270.0
 51
0.0
  0
LINE
  8
62
  5
246D
 10
717.818769
 20
217.364972
 30
0.0
 11
709.518769
 21
217.364972
 31
0.0
  0
CIRCLE
  8
62
  5
246E
 10
713.818769
 20
221.864972
 30
0.0
 40
2.25
  0
ARC
  8
62
  5
246F
 10
717.818769
 20
217.864972
 30
0.0
 40
0.5
 50
270.0
 51
0.0
  0
LINE
  8
62
  5
2470
 10
718.318769
 20
217.864972
 30
0.0
 11
718.318769
 21
225.864972
 31
0.0
  0
LINE
  8
62
  5
2471
 10
717.818769
 20
226.364972
 30
0.0
 11
717.512876
 21
226.364972
 31
0.0
  0
ARC
  8
62
  5
2472
 10
717.818769
 20
225.864972
 30
0.0
 40
0.5
 50
0.0
 51
90.0
  0
LINE
  8
62
  6
CONTINUOUS
  5
2473
 10
521.818769
 20
217.364972
 30
0.0
 11
530.118769
 21
217.364972
 31
0.0
  0
CIRCLE
  8
62
  6
CONTINUOUS
  5
2474
 10
525.818769
 20
221.864972
 30
0.0
 40
2.25
  0
ARC
  8
62
  6
CONTINUOUS
  5
2475
 10
521.818769
 20
217.864972
 30
0.0
 40
0.5
 50
180.0
 51
270.0
  0
LINE
  8
62
  6
CONTINUOUS
  5
2476
 10
521.318769
 20
217.864972
 30
0.0
 11
521.318769
 21
225.864972
 31
0.0
  0
LINE
  8
62
  6
CONTINUOUS
  5
2477
 10
521.818769
 20
226.364972
 30
0.0
 11
522.154911
 21
226.364972
 31
0.0
  0
ARC
  8
62
  6
CONTINUOUS
  5
2478
 10
521.818769
 20
225.864972
 30
0.0
 40
0.5
 50
90.0
 51
180.0
  0
LINE
  8
62
  6
CONTINUOUS
  5
2479
 10
521.818769
 20
315.364972
 30
0.0
 11
530.118769
 21
315.364972
 31
0.0
  0
CIRCLE
  8
62
  6
CONTINUOUS
  5
247A
 10
525.818769
 20
310.864972
 30
0.0
 40
2.25
  0
ARC
  8
62
  6
CONTINUOUS
  5
247B
 10
521.818769
 20
314.864972
 30
0.0
 40
0.5
 50
90.0
 51
180.0
  0
LINE
  8
62
  6
CONTINUOUS
  5
247C
 10
521.318769
 20
314.864972
 30
0.0
 11
521.318769
 21
306.864972
 31
0.0
  0
LINE
  8
62
  6
CONTINUOUS
  5
247D
 10
521.818769
 20
306.364972
 30
0.0
 11
522.154911
 21
306.364972
 31
0.0
  0
ARC
  8
62
  6
CONTINUOUS
  5
247E
 10
521.818769
 20
306.864972
 30
0.0
 40
0.5
 50
180.0
 51
270.0
  0
LINE
  8
61
  6
CONTINUOUS
  5
247F
 10
707.118769
 20
209.364972
 30
0.0
 11
532.518769
 21
209.364972
 31
0.0
  0
LINE
  8
61
  6
CONTINUOUS
  5
2480
 10
707.118769
 20
323.364972
 30
0.0
 11
532.518769
 21
323.364972
 31
0.0
  0
LINE
  8
61
  5
2481
 10
716.818769
 20
228.064972
 30
0.0
 11
716.818769
 21
304.664972
 31
0.0
  0
LINE
  8
61
  6
CONTINUOUS
  5
2482
 10
522.818769
 20
228.064972
 30
0.0
 11
522.818769
 21
304.664972
 31
0.0
  0
LINE
  8
61
  5
2483
 10
708.118769
 20
311.664972
 30
0.0
 11
708.118769
 21
322.364972
 31
0.0
  0
LINE
  8
61
  5
2484
 10
708.118769
 20
210.364972
 30
0.0
 11
708.118769
 21
221.064972
 31
0.0
  0
CIRCLE
  8
61
  5
2485
 10
707.818769
 20
286.364972
 30
0.0
 40
4.0
  0
CIRCLE
  8
61
  5
2486
 10
707.818769
 20
246.364972
 30
0.0
 40
4.0
  0
CIRCLE
  8
61
  5
2487
 10
700.168769
 20
221.164972
 30
0.0
 40
4.0
  0
CIRCLE
  8
61
  5
2488
 10
677.668769
 20
221.164972
 30
0.0
 40
4.0
  0
CIRCLE
  8
61
  5
2489
 10
707.818769
 20
266.364972
 30
0.0
 40
4.0
  0
CIRCLE
  8
61
  5
248A
 10
677.668769
 20
311.564972
 30
0.0
 40
4.0
  0
CIRCLE
  8
61
  6
CONTINUOUS
  5
248B
 10
531.818769
 20
286.364972
 30
0.0
 40
4.0
  0
CIRCLE
  8
61
  6
CONTINUOUS
  5
248C
 10
531.818769
 20
246.364972
 30
0.0
 40
4.0
  0
CIRCLE
  8
61
  5
248D
 10
700.168769
 20
311.564972
 30
0.0
 40
4.0
  0
CIRCLE
  8
61
  6
CONTINUOUS
  5
248E
 10
539.468769
 20
221.164972
 30
0.0
 40
4.0
  0
CIRCLE
  8
61
  6
CONTINUOUS
  5
248F
 10
539.468769
 20
311.564972
 30
0.0
 40
4.0
  0
CIRCLE
  8
61
  5
2490
 10
619.818769
 20
221.164972
 30
0.0
 40
1.0
  0
CIRCLE
  8
61
  6
CONTINUOUS
  5
2491
 10
619.818769
 20
311.564972
 30
0.0
 40
1.0
  0
CIRCLE
  8
62
  5
2492
 10
713.818769
 20
212.364972
 30
0.0
 40
1.5
  0
CIRCLE
  8
62
  6
CONTINUOUS
  5
2493
 10
525.818769
 20
212.364972
 30
0.0
 40
1.5
  0
CIRCLE
  8
62
  6
CONTINUOUS
  5
2494
 10
525.818769
 20
320.364972
 30
0.0
 40
1.5
  0
CIRCLE
  8
62
  6
CONTINUOUS
  5
2495
 10
713.818769
 20
320.364972
 30
0.0
 40
1.5
  0
LINE
  8
51
  5
2496
 10
261.271414
 20
327.325648
 30
0.0
 11
167.271414
 21
327.325648
 31
0.0
  0
CIRCLE
  8
51
  5
2497
 10
261.271414
 20
213.325648
 30
0.0
 40
4.0
  0
LINE
  8
51
  5
2498
 10
267.271414
 20
266.325648
 30
0.0
 11
267.271414
 21
321.325648
 31
0.0
  0
LINE
  8
61
  5
2499
 10
713.818769
 20
206.364972
 30
0.0
 11
619.818769
 21
206.364972
 31
0.0
  0
LINE
  8
61
  6
CONTINUOUS
  5
249A
 10
713.818769
 20
326.364972
 30
0.0
 11
619.818769
 21
326.364972
 31
0.0
  0
LINE
  8
61
  5
249B
 10
719.818769
 20
266.364972
 30
0.0
 11
719.818769
 21
320.364972
 31
0.0
  0
ARC
  8
51
  5
249C
 10
261.271414
 20
321.325648
 30
0.0
 40
6.0
 50
0.0
 51
90.0
  0
ARC
  8
61
  5
249D
 10
713.818769
 20
320.364972
 30
0.0
 40
6.0
 50
0.0
 51
90.0
  0
LINE
  8
51
  5
249E
 10
261.271414
 20
207.325648
 30
0.0
 11
167.271414
 21
207.325648
 31
0.0
  0
LINE
  8
51
  5
249F
 10
267.271414
 20
266.325648
 30
0.0
 11
267.271414
 21
213.325648
 31
0.0
  0
LINE
  8
61
  5
24A0
 10
719.818769
 20
266.364972
 30
0.0
 11
719.818769
 21
212.364972
 31
0.0
  0
ARC
  8
51
  5
24A1
 10
261.271414
 20
213.325648
 30
0.0
 40
6.0
 50
270.0
 51
0.0
  0
CIRCLE
  8
51
  5
24A2
 10
73.271414
 20
321.325648
 30
0.0
 40
4.0
  0
ARC
  8
61
  5
24A3
 10
713.818769
 20
212.364972
 30
0.0
 40
6.0
 50
270.0
 51
0.0
  0
LINE
  8
51
  5
24A4
 10
73.271414
 20
327.325648
 30
0.0
 11
167.271414
 21
327.325648
 31
0.0
  0
LINE
  8
51
  5
24A5
 10
67.271414
 20
266.325648
 30
0.0
 11
67.271414
 21
321.325648
 31
0.0
  0
ARC
  8
51
  5
24A6
 10
73.271414
 20
321.325648
 30
0.0
 40
6.0
 50
90.0
 51
180.0
  0
CIRCLE
  8
51
  5
24A7
 10
73.271414
 20
213.325648
 30
0.0
 40
4.0
  0
LINE
  8
51
  5
24A8
 10
73.271414
 20
207.325648
 30
0.0
 11
167.271414
 21
207.325648
 31
0.0
  0
LINE
  8
51
  5
24A9
 10
67.271414
 20
266.325648
 30
0.0
 11
67.271414
 21
213.325648
 31
0.0
  0
ARC
  8
51
  5
24AA
 10
73.271414
 20
213.325648
 30
0.0
 40
6.0
 50
180.0
 51
270.0
  0
CIRCLE
  8
51
  5
24AB
 10
261.271414
 20
321.325648
 30
0.0
 40
4.0
  0
CIRCLE
  8
51
  5
24AC
 10
261.271414
 20
222.825648
 30
0.0
 40
2.25
  0
CIRCLE
  8
51
  5
24AD
 10
73.271414
 20
222.825648
 30
0.0
 40
2.25
  0
CIRCLE
  8
51
  5
24AE
 10
73.271414
 20
311.825648
 30
0.0
 40
2.25
  0
CIRCLE
  8
51
  5
24AF
 10
261.271414
 20
311.825648
 30
0.0
 40
2.25
  0
LINE
  8
61
  6
CONTINUOUS
  5
24B0
 10
525.818769
 20
326.364972
 30
0.0
 11
619.818769
 21
326.364972
 31
0.0
  0
LINE
  8
61
  6
CONTINUOUS
  5
24B1
 10
519.818769
 20
266.364972
 30
0.0
 11
519.818769
 21
320.364972
 31
0.0
  0
ARC
  8
61
  6
CONTINUOUS
  5
24B2
 10
525.818769
 20
320.364972
 30
0.0
 40
6.0
 50
90.0
 51
180.0
  0
LINE
  8
61
  6
CONTINUOUS
  5
24B3
 10
525.818769
 20
206.364972
 30
0.0
 11
619.818769
 21
206.364972
 31
0.0
  0
LINE
  8
61
  6
CONTINUOUS
  5
24B4
 10
519.818769
 20
266.364972
 30
0.0
 11
519.818769
 21
212.364972
 31
0.0
  0
ARC
  8
61
  6
CONTINUOUS
  5
24B5
 10
525.818769
 20
212.364972
 30
0.0
 40
6.0
 50
180.0
 51
270.0
  0
INSERT
  8
0
  5
24B6
  2
TKK-ACAD
 10
0.0
 20
0.0
 30
0.0
  0
LINE
  8
62
  6
CONTINUOUS
  5
24B7
 10
707.118769
 20
207.964972
 30
0.0
 11
532.518769
 21
207.964972
 31
0.0
  0
LINE
  8
62
  6
CONTINUOUS
  5
24B8
 10
707.118769
 20
324.764972
 30
0.0
 11
532.518769
 21
324.764972
 31
0.0
  0
LINE
  8
62
  5
24B9
 10
718.218769
 20
228.064972
 30
0.0
 11
718.218769
 21
304.664972
 31
0.0
  0
LINE
  8
62
  6
CONTINUOUS
  5
24BA
 10
521.418769
 20
228.064972
 30
0.0
 11
521.418769
 21
304.664972
 31
0.0
  0
LINE
  8
62
  5
24BB
 10
709.518769
 20
311.664972
 30
0.0
 11
709.518769
 21
322.364972
 31
0.0
  0
LINE
  8
62
  5
24BC
 10
717.818769
 20
306.564972
 30
0.0
 11
717.285057
 21
306.564972
 31
0.0
  0
LINE
  8
62
  5
24BD
 10
709.518769
 20
210.364972
 30
0.0
 11
709.518769
 21
221.064972
 31
0.0
  0
ARC
  8
61
  5
24BE
 10
707.118769
 20
210.364972
 30
0.0
 40
1.0
 50
270.0
 51
0.0
  0
LINE
  8
62
  5
24BF
 10
715.818769
 20
225.664972
 30
0.0
 11
714.118769
 21
225.664972
 31
0.0
  0
ARC
  8
61
  5
24C0
 10
715.818769
 20
228.064972
 30
0.0
 40
1.0
 50
270.0
 51
0.0
  0
ARC
  8
61
  5
24C1
 10
714.118769
 20
221.064972
 30
0.0
 40
6.0
 50
90.0
 51
180.0
  0
LINE
  8
61
  5
24C2
 10
715.818769
 20
227.064972
 30
0.0
 11
714.118769
 21
227.064972
 31
0.0
  0
ARC
  8
62
  5
24C3
 10
714.118769
 20
221.064972
 30
0.0
 40
4.6
 50
90.0
 51
180.0
  0
ARC
  8
62
  5
24C4
 10
707.118769
 20
210.364972
 30
0.0
 40
2.4
 50
270.0
 51
0.0
  0
ARC
  8
62
  5
24C5
 10
715.818769
 20
228.064972
 30
0.0
 40
2.4
 50
270.0
 51
0.0
  0
ARC
  8
62
  5
24C6
 10
707.118769
 20
322.364972
 30
0.0
 40
2.4
 50
0.0
 51
90.0
  0
ARC
  8
61
  5
24C7
 10
707.118769
 20
322.364972
 30
0.0
 40
1.0
 50
0.0
 51
90.0
  0
ARC
  8
61
  5
24C8
 10
714.118769
 20
311.664972
 30
0.0
 40
6.0
 50
180.0
 51
270.0
  0
ARC
  8
62
  5
24C9
 10
714.118769
 20
311.664972
 30
0.0
 40
4.6
 50
180.0
 51
270.0
  0
LINE
  8
61
  5
24CA
 10
715.818769
 20
305.664972
 30
0.0
 11
714.118769
 21
305.664972
 31
0.0
  0
LINE
  8
62
  5
24CB
 10
715.818769
 20
307.064972
 30
0.0
 11
714.118769
 21
307.064972
 31
0.0
  0
ARC
  8
62
  5
24CC
 10
715.818769
 20
304.664972
 30
0.0
 40
2.4
 50
0.0
 51
90.0
  0
ARC
  8
61
  5
24CD
 10
715.818769
 20
304.664972
 30
0.0
 40
1.0
 50
0.0
 51
90.0
  0
ARC
  8
61
  5
24CE
 10
532.518769
 20
322.364972
 30
0.0
 40
1.0
 50
90.0
 51
180.0
  0
ARC
  8
62
  5
24CF
 10
532.518769
 20
322.364972
 30
0.0
 40
2.4
 50
90.0
 51
180.0
  0
LINE
  8
62
  5
24D0
 10
530.118769
 20
311.664972
 30
0.0
 11
530.118769
 21
322.364972
 31
0.0
  0
LINE
  8
61
  5
24D1
 10
531.518769
 20
311.664972
 30
0.0
 11
531.518769
 21
322.364972
 31
0.0
  0
ARC
  8
61
  5
24D2
 10
525.518769
 20
311.664972
 30
0.0
 40
6.0
 50
270.0
 51
360.0
  0
ARC
  8
62
  5
24D3
 10
525.518769
 20
311.664972
 30
0.0
 40
4.6
 50
270.0
 51
360.0
  0
ARC
  8
61
  5
24D4
 10
523.818769
 20
304.664972
 30
0.0
 40
1.0
 50
90.0
 51
180.0
  0
LINE
  8
62
  5
24D5
 10
523.818769
 20
307.064972
 30
0.0
 11
525.518769
 21
307.064972
 31
0.0
  0
LINE
  8
61
  5
24D6
 10
523.818769
 20
305.664972
 30
0.0
 11
525.518769
 21
305.664972
 31
0.0
  0
ARC
  8
62
  5
24D7
 10
523.818769
 20
304.664972
 30
0.0
 40
2.4
 50
90.0
 51
180.0
  0
ARC
  8
61
  5
24D8
 10
525.518769
 20
221.064972
 30
0.0
 40
6.0
 50
0.0
 51
90.0
  0
ARC
  8
62
  5
24D9
 10
525.518769
 20
221.064972
 30
0.0
 40
4.6
 50
0.0
 51
90.0
  0
LINE
  8
61
  5
24DA
 10
523.818769
 20
227.064972
 30
0.0
 11
525.518769
 21
227.064972
 31
0.0
  0
ARC
  8
61
  5
24DB
 10
523.818769
 20
228.064972
 30
0.0
 40
1.0
 50
180.0
 51
270.0
  0
LINE
  8
62
  5
24DC
 10
523.818769
 20
225.664972
 30
0.0
 11
525.518769
 21
225.664972
 31
0.0
  0
ARC
  8
62
  5
24DD
 10
523.818769
 20
228.064972
 30
0.0
 40
2.4
 50
180.0
 51
270.0
  0
LINE
  8
61
  5
24DE
 10
531.518769
 20
210.364972
 30
0.0
 11
531.518769
 21
221.064972
 31
0.0
  0
LINE
  8
62
  5
24DF
 10
530.118769
 20
210.364972
 30
0.0
 11
530.118769
 21
221.064972
 31
0.0
  0
ARC
  8
62
  5
24E0
 10
532.518769
 20
210.364972
 30
0.0
 40
2.4
 50
180.0
 51
270.0
  0
ARC
  8
61
  5
24E1
 10
532.518769
 20
210.364972
 30
0.0
 40
1.0
 50
180.0
 51
270.0
  0
CIRCLE
  8
61
  6
CONTINUOUS
  5
24E2
 10
531.818769
 20
266.364972
 30
0.0
 40
4.0
  0
CIRCLE
  8
61
  5
24E3
 10
561.968769
 20
221.164972
 30
0.0
 40
4.0
  0
CIRCLE
  8
61
  5
24E4
 10
561.968769
 20
311.564972
 30
0.0
 40
4.0
  0
CIRCLE
  8
61
  5
24E5
 10
586.968769
 20
221.164972
 30
0.0
 40
4.0
  0
CIRCLE
  8
61
  5
24E6
 10
586.968769
 20
311.564972
 30
0.0
 40
4.0
  0
CIRCLE
  8
61
  5
24E7
 10
652.668769
 20
221.164972
 30
0.0
 40
4.0
  0
CIRCLE
  8
61
  5
24E8
 10
652.668769
 20
311.564972
 30
0.0
 40
4.0
  0
CIRCLE
  8
61
  5
24E9
 10
707.818769
 20
266.364972
 30
0.0
 40
2.0
  0
CIRCLE
  8
61
  5
24EA
 10
707.818769
 20
266.364972
 30
0.0
 40
2.8
  0
CIRCLE
  8
61
  5
24EB
 10
707.818769
 20
286.364972
 30
0.0
 40
2.0
  0
CIRCLE
  8
61
  5
24EC
 10
707.818769
 20
286.364972
 30
0.0
 40
2.8
  0
CIRCLE
  8
61
  5
24ED
 10
707.818769
 20
246.364972
 30
0.0
 40
2.8
  0
CIRCLE
  8
61
  5
24EE
 10
707.818769
 20
246.364972
 30
0.0
 40
2.0
  0
CIRCLE
  8
61
  5
24EF
 10
700.168769
 20
221.164972
 30
0.0
 40
2.8
  0
CIRCLE
  8
61
  5
24F0
 10
700.168769
 20
221.164972
 30
0.0
 40
2.0
  0
CIRCLE
  8
61
  5
24F1
 10
677.668769
 20
221.164972
 30
0.0
 40
2.0
  0
CIRCLE
  8
61
  5
24F2
 10
677.668769
 20
221.164972
 30
0.0
 40
2.8
  0
CIRCLE
  8
61
  5
24F3
 10
652.668769
 20
221.164972
 30
0.0
 40
2.0
  0
CIRCLE
  8
61
  5
24F4
 10
652.668769
 20
221.164972
 30
0.0
 40
2.8
  0
CIRCLE
  8
61
  5
24F5
 10
677.668769
 20
311.564972
 30
0.0
 40
2.8
  0
CIRCLE
  8
61
  5
24F6
 10
677.668769
 20
311.564972
 30
0.0
 40
2.0
  0
CIRCLE
  8
61
  5
24F7
 10
700.168769
 20
311.564972
 30
0.0
 40
2.0
  0
CIRCLE
  8
61
  5
24F8
 10
700.168769
 20
311.564972
 30
0.0
 40
2.8
  0
CIRCLE
  8
61
  5
24F9
 10
652.668769
 20
311.564972
 30
0.0
 40
2.8
  0
CIRCLE
  8
61
  5
24FA
 10
652.668769
 20
311.564972
 30
0.0
 40
2.0
  0
CIRCLE
  8
61
  5
24FB
 10
531.818769
 20
286.364972
 30
0.0
 40
2.8
  0
CIRCLE
  8
61
  5
24FC
 10
531.818769
 20
286.364972
 30
0.0
 40
2.0
  0
CIRCLE
  8
61
  5
24FD
 10
531.818769
 20
266.364972
 30
0.0
 40
2.0
  0
CIRCLE
  8
61
  5
24FE
 10
531.818769
 20
266.364972
 30
0.0
 40
2.8
  0
CIRCLE
  8
61
  5
24FF
 10
531.818769
 20
246.364972
 30
0.0
 40
2.0
  0
CIRCLE
  8
61
  5
2500
 10
531.818769
 20
246.364972
 30
0.0
 40
2.8
  0
CIRCLE
  8
61
  5
2501
 10
539.468769
 20
221.164972
 30
0.0
 40
2.8
  0
CIRCLE
  8
61
  5
2502
 10
539.468769
 20
221.164972
 30
0.0
 40
2.0
  0
CIRCLE
  8
61
  5
2503
 10
561.968769
 20
221.164972
 30
0.0
 40
2.8
  0
CIRCLE
  8
61
  5
2504
 10
561.968769
 20
221.164972
 30
0.0
 40
2.0
  0
CIRCLE
  8
61
  5
2505
 10
586.968769
 20
221.164972
 30
0.0
 40
2.8
  0
CIRCLE
  8
61
  5
2506
 10
586.968769
 20
221.164972
 30
0.0
 40
2.0
  0
CIRCLE
  8
61
  5
2507
 10
586.968769
 20
311.564972
 30
0.0
 40
2.8
  0
CIRCLE
  8
61
  5
2508
 10
586.968769
 20
311.564972
 30
0.0
 40
2.0
  0
CIRCLE
  8
61
  5
2509
 10
561.968769
 20
311.564972
 30
0.0
 40
2.8
  0
CIRCLE
  8
61
  5
250A
 10
561.968769
 20
311.564972
 30
0.0
 40
2.0
  0
CIRCLE
  8
61
  5
250B
 10
539.468769
 20
311.564972
 30
0.0
 40
2.8
  0
CIRCLE
  8
61
  5
250C
 10
539.468769
 20
311.564972
 30
0.0
 40
2.0
  0
LINE
  8
31
  5
250D
 10
833.544659
 20
323.325534
 30
0.0
 11
833.544659
 21
324.35554
 31
0.0
  0
LINE
  8
31
  5
250E
 10
833.544659
 20
209.325762
 30
0.0
 11
833.544659
 21
226.325648
 31
0.0
  0
LINE
  8
31
  5
250F
 10
831.544659
 20
326.308194
 30
0.0
 11
772.535932
 21
325.793233
 31
0.0
  0
LINE
  8
31
  5
2510
 10
831.544659
 20
206.343102
 30
0.0
 11
772.535932
 21
206.858063
 31
0.0
  0
LINE
  8
31
  5
2511
 10
833.544659
 20
208.295756
 30
0.0
 11
833.544659
 21
209.325762
 31
0.0
  0
ARC
  8
31
  5
2512
 10
772.544659
 20
324.793271
 30
0.0
 40
1.0
 50
90.5
 51
180.0
  0
ARC
  8
31
  5
2513
 10
772.544659
 20
207.858025
 30
0.0
 40
1.0
 50
180.0
 51
269.5
  0
LINE
  8
31
  5
2514
 10
771.544659
 20
207.858025
 30
0.0
 11
771.544659
 21
324.793271
 31
0.0
  0
LINE
  8
31
  5
2515
 10
831.544659
 20
207.943102
 30
0.0
 11
831.544659
 21
226.325648
 31
0.0
  0
LINE
  8
31
  5
2516
 10
833.544659
 20
226.325648
 30
0.0
 11
833.544659
 21
323.325534
 31
0.0
  0
LINE
  8
31
  5
2517
 10
831.544659
 20
226.325648
 30
0.0
 11
831.544659
 21
324.708194
 31
0.0
  0
POLYLINE
  8
31
  5
2518
 66
     1
 10
0.0
 20
0.0
 30
0.0
  0
VERTEX
  8
31
  5
2519
 10
831.544659
 20
206.343102
 30
0.0
  0
VERTEX
  8
31
  5
251A
 10
831.544659
 20
207.943102
 30
0.0
  0
SEQEND
  8
31
  5
251B
  0
POLYLINE
  8
31
  5
251C
 66
     1
 10
0.0
 20
0.0
 30
0.0
  0
VERTEX
  8
31
  5
251D
 10
831.544659
 20
207.943102
 30
0.0
  0
VERTEX
  8
31
  5
251E
 10
833.544659
 20
208.295756
 30
0.0
  0
SEQEND
  8
31
  5
251F
  0
POLYLINE
  8
31
  5
2520
 66
     1
 10
0.0
 20
0.0
 30
0.0
  0
VERTEX
  8
31
  5
2521
 10
831.544659
 20
326.308194
 30
0.0
  0
VERTEX
  8
31
  5
2522
 10
831.544659
 20
324.708194
 30
0.0
  0
SEQEND
  8
31
  5
2523
  0
POLYLINE
  8
31
  5
2524
 66
     1
 10
0.0
 20
0.0
 30
0.0
  0
VERTEX
  8
31
  5
2525
 10
831.544659
 20
324.708194
 30
0.0
  0
VERTEX
  8
31
  5
2526
 10
833.544659
 20
324.35554
 30
0.0
  0
SEQEND
  8
31
  5
2527
  0
LINE
  8
63
  5
2528
 10
619.818769
 20
329.364972
 30
0.0
 11
619.818769
 21
203.364972
 31
0.0
  0
LINE
  8
63
  5
2529
 10
516.818769
 20
266.364972
 30
0.0
 11
722.818769
 21
266.364972
 31
0.0
  0
LINE
  8
33
  6
DASHED
  5
252A
 10
774.544659
 20
276.325648
 30
0.0
 11
774.544659
 21
256.325648
 31
0.0
  0
ARC
  8
33
  6
DASHED
  5
252B
 10
725.044659
 20
266.325648
 30
0.0
 40
50.5
 50
0.0
 51
11.421186
  0
LINE
  8
33
  6
DASHED
  5
252C
 10
833.544659
 20
305.625648
 30
0.0
 11
774.544659
 21
305.110763
 31
0.0
  0
LINE
  8
33
  6
DASHED
  5
252D
 10
774.544659
 20
276.325648
 30
0.0
 11
774.544659
 21
305.110763
 31
0.0
  0
LINE
  8
33
  6
DASHED
  5
252E
 10
833.544659
 20
227.025648
 30
0.0
 11
774.544659
 21
227.540534
 31
0.0
  0
LINE
  8
33
  5
252F
 10
767.693516
 20
266.325648
 30
0.0
 11
837.673516
 21
266.325648
 31
0.0
  0
LINE
  8
33
  6
DASHED
  5
2530
 10
774.544659
 20
256.325648
 30
0.0
 11
774.544659
 21
227.540534
 31
0.0
  0
ARC
  8
33
  6
DASHED
  5
2531
 10
725.044659
 20
266.325648
 30
0.0
 40
50.5
 50
348.578814
 51
360.0
  0
LINE
  8
33
  6
DASHED
  5
2532
 10
775.385994
 20
270.325648
 30
0.0
 11
781.544659
 21
270.325648
 31
0.0
  0
LINE
  8
33
  6
DASHED
  5
2533
 10
781.544659
 20
262.325648
 30
0.0
 11
781.544659
 21
270.325648
 31
0.0
  0
LINE
  8
33
  6
DASHED
  5
2534
 10
775.385994
 20
262.325648
 30
0.0
 11
781.544659
 21
262.325648
 31
0.0
  0
LINE
  8
33
  6
DASHED
  5
2535
 10
774.544659
 20
266.325648
 30
0.0
 11
771.544659
 21
266.325648
 31
0.0
  0
LINE
  8
33
  6
DASHED
  5
2536
 10
772.544659
 20
266.325648
 30
0.0
 11
775.544659
 21
266.325648
 31
0.0
  0
LINE
  8
33
  6
DASHED
  5
2537
 10
774.544659
 20
250.325648
 30
0.0
 11
774.544659
 21
242.325648
 31
0.0
  0
LINE
  8
23
  5
2538
 10
619.818769
 20
367.983628
 30
0.0
 11
619.818769
 21
434.821444
 31
0.0
  0
LINE
  8
23
  6
DASHED
  5
2539
 10
708.118768
 20
431.650395
 30
0.0
 11
707.590534
 21
373.145881
 31
0.0
  0
LINE
  8
21
  5
253A
 10
719.286354
 20
370.641668
 30
0.0
 11
719.801315
 21
429.650395
 31
0.0
  0
LINE
  8
23
  6
DASHED
  5
253B
 10
531.518769
 20
431.650395
 30
0.0
 11
532.047003
 21
373.145881
 31
0.0
  0
LINE
  8
21
  5
253C
 10
519.836223
 20
429.650395
 30
0.0
 11
520.351184
 21
370.641668
 31
0.0
  0
LINE
  8
21
  5
253D
 10
718.201315
 20
429.650395
 30
0.0
 11
619.818769
 21
429.650395
 31
0.0
  0
LINE
  8
21
  5
253E
 10
716.818655
 20
431.650395
 30
0.0
 11
619.818769
 21
431.650395
 31
0.0
  0
LINE
  8
21
  5
253F
 10
619.818769
 20
429.650395
 30
0.0
 11
521.436223
 21
429.650395
 31
0.0
  0
LINE
  8
21
  5
2540
 10
619.818769
 20
431.650395
 30
0.0
 11
522.818883
 21
431.650395
 31
0.0
  0
LINE
  8
21
  5
2541
 10
522.818883
 20
431.650395
 30
0.0
 11
521.788877
 21
431.650395
 31
0.0
  0
LINE
  8
21
  5
2542
 10
521.436223
 20
429.650395
 30
0.0
 11
521.788877
 21
431.650395
 31
0.0
  0
LINE
  8
21
  5
2543
 10
519.836223
 20
429.650395
 30
0.0
 11
521.436223
 21
429.650395
 31
0.0
  0
LINE
  8
21
  5
2544
 10
718.201315
 20
429.650395
 30
0.0
 11
717.848661
 21
431.650395
 31
0.0
  0
LINE
  8
21
  5
2545
 10
717.848661
 20
431.650395
 30
0.0
 11
716.818655
 21
431.650395
 31
0.0
  0
LINE
  8
21
  5
2546
 10
719.801315
 20
429.650395
 30
0.0
 11
718.201315
 21
429.650395
 31
0.0
  0
LINE
  8
23
  6
DASHED
  5
2547
 10
532.546983
 20
372.650395
 30
0.0
 11
707.090555
 21
372.650395
 31
0.0
  0
LINE
  8
21
  5
2548
 10
718.286392
 20
369.650395
 30
0.0
 11
521.351146
 21
369.650395
 31
0.0
  0
ARC
  8
23
  6
DASHED
  5
2549
 10
532.546983
 20
373.150395
 30
0.0
 40
0.5
 50
180.517306
 51
270.0
  0
ARC
  8
21
  5
254A
 10
521.351146
 20
370.650395
 30
0.0
 40
1.0
 50
180.5
 51
270.0
  0
ARC
  8
23
  6
DASHED
  5
254B
 10
619.820539
 20
323.132693
 30
0.0
 40
50.517702
 50
78.580821
 51
101.419179
  0
POLYLINE
  8
23
  6
DASHED
  5
254C
 66
     1
 10
0.0
 20
0.0
 30
0.0
  0
VERTEX
  8
23
  6
DASHED
  5
254D
 10
673.668769
 20
372.650395
 30
0.0
  0
VERTEX
  8
23
  6
DASHED
  5
254E
 10
673.668769
 20
379.700395
 30
0.0
  0
VERTEX
  8
23
  6
DASHED
  5
254F
 10
677.668769
 20
379.700395
 30
0.0
  0
SEQEND
  8
23
  6
DASHED
  5
2550
  0
POLYLINE
  8
23
  6
DASHED
  5
2551
 66
     1
 10
0.0
 20
0.0
 30
0.0
  0
VERTEX
  8
23
  6
DASHED
  5
2552
 10
681.668769
 20
372.650395
 30
0.0
  0
VERTEX
  8
23
  6
DASHED
  5
2553
 10
681.668769
 20
379.700395
 30
0.0
  0
VERTEX
  8
23
  6
DASHED
  5
2554
 10
677.668769
 20
379.700395
 30
0.0
  0
SEQEND
  8
23
  6
DASHED
  5
2555
  0
ARC
  8
23
  6
DASHED
  5
2556
 10
707.090555
 20
373.150395
 30
0.0
 40
0.5
 50
270.0
 51
359.482694
  0
ARC
  8
21
  5
2557
 10
718.286392
 20
370.650395
 30
0.0
 40
1.0
 50
270.0
 51
359.5
  0
LINE
  8
43
  5
2558
 10
469.944022
 20
266.325648
 30
0.0
 11
399.964022
 21
266.325648
 31
0.0
  0
LINE
  8
43
  6
DASHED
  5
2559
 10
404.092879
 20
305.625648
 30
0.0
 11
463.092879
 21
305.110763
 31
0.0
  0
LINE
  8
43
  6
DASHED
  5
255A
 10
404.092879
 20
227.025648
 30
0.0
 11
463.092879
 21
227.540534
 31
0.0
  0
LINE
  8
41
  5
255B
 10
406.092879
 20
206.343102
 30
0.0
 11
465.101606
 21
206.858063
 31
0.0
  0
LINE
  8
41
  5
255C
 10
406.092879
 20
326.308194
 30
0.0
 11
465.101606
 21
325.793233
 31
0.0
  0
LINE
  8
43
  6
DASHED
  5
255D
 10
463.092879
 20
276.325648
 30
0.0
 11
463.092879
 21
305.110763
 31
0.0
  0
LINE
  8
41
  5
255E
 10
466.092879
 20
207.858025
 30
0.0
 11
466.092879
 21
324.793271
 31
0.0
  0
ARC
  8
41
  5
255F
 10
465.092879
 20
207.858025
 30
0.0
 40
1.0
 50
270.5
 51
0.0
  0
LINE
  8
43
  6
DASHED
  5
2560
 10
463.092879
 20
256.325648
 30
0.0
 11
463.092879
 21
227.540534
 31
0.0
  0
LINE
  8
43
  6
DASHED
  5
2561
 10
463.092879
 20
250.325648
 30
0.0
 11
463.092879
 21
242.325648
 31
0.0
  0
LINE
  8
43
  6
DASHED
  5
2562
 10
463.092879
 20
276.325648
 30
0.0
 11
463.092879
 21
256.325648
 31
0.0
  0
ARC
  8
43
  6
DASHED
  5
2563
 10
512.592879
 20
266.325648
 30
0.0
 40
50.5
 50
168.578814
 51
180.0
  0
LINE
  8
43
  6
DASHED
  5
2564
 10
456.092879
 20
262.325648
 30
0.0
 11
456.092879
 21
270.325648
 31
0.0
  0
LINE
  8
43
  6
DASHED
  5
2565
 10
462.251544
 20
262.325648
 30
0.0
 11
456.092879
 21
262.325648
 31
0.0
  0
ARC
  8
43
  6
DASHED
  5
2566
 10
512.592879
 20
266.325648
 30
0.0
 40
50.5
 50
180.0
 51
191.421186
  0
LINE
  8
43
  6
DASHED
  5
2567
 10
463.092879
 20
266.325648
 30
0.0
 11
466.092879
 21
266.325648
 31
0.0
  0
LINE
  8
43
  6
DASHED
  5
2568
 10
465.092879
 20
266.325648
 30
0.0
 11
462.092879
 21
266.325648
 31
0.0
  0
LINE
  8
43
  6
DASHED
  5
2569
 10
462.251544
 20
270.325648
 30
0.0
 11
456.092879
 21
270.325648
 31
0.0
  0
ARC
  8
41
  5
256A
 10
465.092879
 20
324.793271
 30
0.0
 40
1.0
 50
0.0
 51
89.5
  0
LINE
  8
41
  5
256B
 10
404.092879
 20
226.325648
 30
0.0
 11
404.092879
 21
323.325534
 31
0.0
  0
LINE
  8
41
  5
256C
 10
406.092879
 20
226.325648
 30
0.0
 11
406.092879
 21
324.708194
 31
0.0
  0
LINE
  8
41
  5
256D
 10
404.092879
 20
209.325762
 30
0.0
 11
404.092879
 21
226.325648
 31
0.0
  0
LINE
  8
41
  5
256E
 10
406.092879
 20
207.943102
 30
0.0
 11
406.092879
 21
226.325648
 31
0.0
  0
POLYLINE
  8
41
  5
256F
 66
     1
 10
0.0
 20
0.0
 30
0.0
  0
VERTEX
  8
41
  5
2570
 10
406.092879
 20
207.943102
 30
0.0
  0
VERTEX
  8
41
  5
2571
 10
404.092879
 20
208.295756
 30
0.0
  0
SEQEND
  8
41
  5
2572
  0
POLYLINE
  8
41
  5
2573
 66
     1
 10
0.0
 20
0.0
 30
0.0
  0
VERTEX
  8
41
  5
2574
 10
406.092879
 20
206.343102
 30
0.0
  0
VERTEX
  8
41
  5
2575
 10
406.092879
 20
207.943102
 30
0.0
  0
SEQEND
  8
41
  5
2576
  0
LINE
  8
41
  5
2577
 10
404.092879
 20
208.295756
 30
0.0
 11
404.092879
 21
209.325762
 31
0.0
  0
LINE
  8
41
  5
2578
 10
404.092879
 20
323.325534
 30
0.0
 11
404.092879
 21
324.35554
 31
0.0
  0
POLYLINE
  8
41
  5
2579
 66
     1
 10
0.0
 20
0.0
 30
0.0
  0
VERTEX
  8
41
  5
257A
 10
406.092879
 20
326.308194
 30
0.0
  0
VERTEX
  8
41
  5
257B
 10
406.092879
 20
324.708194
 30
0.0
  0
SEQEND
  8
41
  5
257C
  0
POLYLINE
  8
41
  5
257D
 66
     1
 10
0.0
 20
0.0
 30
0.0
  0
VERTEX
  8
41
  5
257E
 10
406.092879
 20
324.708194
 30
0.0
  0
VERTEX
  8
41
  5
257F
 10
404.092879
 20
324.35554
 30
0.0
  0
SEQEND
  8
41
  5
2580
  0
LINE
  8
53
  5
2581
 10
167.271414
 20
330.325648
 30
0.0
 11
167.271414
 21
204.325648
 31
0.0
  0
LINE
  8
53
  5
2582
 10
270.271414
 20
266.325648
 30
0.0
 11
64.271414
 21
266.325648
 31
0.0
  0
TEXT
  8
L20
  5
2583
 10
146.358305
 20
387.791252
 30
0.0
 40
9.5
  1
FIBOX EURONORM II PLASTIC 120x200x60 BASE
  7
TKKISO
  0
LINE
  8
11
  5
2584
 10
719.286354
 20
162.088276
 30
0.0
 11
719.801315
 21
103.079549
 31
0.0
  0
LINE
  8
11
  5
2585
 10
519.836223
 20
103.079549
 30
0.0
 11
520.351184
 21
162.088276
 31
0.0
  0
LINE
  8
13
  5
2586
 10
619.818769
 20
164.746316
 30
0.0
 11
619.818769
 21
97.9085
 31
0.0
  0
LINE
  8
13
  6
DASHED
  5
2587
 10
708.118768
 20
101.079549
 30
0.0
 11
707.590534
 21
159.584064
 31
0.0
  0
LINE
  8
13
  6
DASHED
  5
2588
 10
531.518769
 20
101.079549
 30
0.0
 11
532.047003
 21
159.584064
 31
0.0
  0
LINE
  8
13
  6
DASHED
  5
2589
 10
532.546983
 20
160.079549
 30
0.0
 11
707.090555
 21
160.079549
 31
0.0
  0
LINE
  8
11
  5
258A
 10
718.286392
 20
163.079549
 30
0.0
 11
521.351146
 21
163.079549
 31
0.0
  0
ARC
  8
13
  6
DASHED
  5
258B
 10
532.546983
 20
159.579549
 30
0.0
 40
0.5
 50
90.0
 51
179.482694
  0
ARC
  8
11
  5
258C
 10
521.351146
 20
162.079549
 30
0.0
 40
1.0
 50
90.0
 51
179.5
  0
ARC
  8
13
  6
DASHED
  5
258D
 10
619.820539
 20
209.597252
 30
0.0
 40
50.517702
 50
258.580821
 51
281.419179
  0
POLYLINE
  8
13
  6
DASHED
  5
258E
 66
     1
 10
0.0
 20
0.0
 30
0.0
  0
VERTEX
  8
13
  6
DASHED
  5
258F
 10
673.668769
 20
160.079549
 30
0.0
  0
VERTEX
  8
13
  6
DASHED
  5
2590
 10
673.668769
 20
153.029549
 30
0.0
  0
VERTEX
  8
13
  6
DASHED
  5
2591
 10
677.668769
 20
153.029549
 30
0.0
  0
SEQEND
  8
13
  6
DASHED
  5
2592
  0
POLYLINE
  8
13
  6
DASHED
  5
2593
 66
     1
 10
0.0
 20
0.0
 30
0.0
  0
VERTEX
  8
13
  6
DASHED
  5
2594
 10
681.668769
 20
160.079549
 30
0.0
  0
VERTEX
  8
13
  6
DASHED
  5
2595
 10
681.668769
 20
153.029549
 30
0.0
  0
VERTEX
  8
13
  6
DASHED
  5
2596
 10
677.668769
 20
153.029549
 30
0.0
  0
SEQEND
  8
13
  6
DASHED
  5
2597
  0
ARC
  8
13
  6
DASHED
  5
2598
 10
707.090555
 20
159.579549
 30
0.0
 40
0.5
 50
0.517306
 51
90.0
  0
ARC
  8
11
  5
2599
 10
718.286392
 20
162.079549
 30
0.0
 40
1.0
 50
0.5
 51
90.0
  0
LINE
  8
11
  5
259A
 10
716.818655
 20
101.079549
 30
0.0
 11
619.818769
 21
101.079549
 31
0.0
  0
LINE
  8
11
  5
259B
 10
718.201315
 20
103.079549
 30
0.0
 11
619.818769
 21
103.079549
 31
0.0
  0
LINE
  8
11
  5
259C
 10
619.818769
 20
101.079549
 30
0.0
 11
522.818883
 21
101.079549
 31
0.0
  0
LINE
  8
11
  5
259D
 10
619.818769
 20
103.079549
 30
0.0
 11
521.436223
 21
103.079549
 31
0.0
  0
LINE
  8
11
  5
259E
 10
522.818883
 20
101.079549
 30
0.0
 11
521.788877
 21
101.079549
 31
0.0
  0
LINE
  8
11
  5
259F
 10
519.836223
 20
103.079549
 30
0.0
 11
521.436223
 21
103.079549
 31
0.0
  0
LINE
  8
11
  5
25A0
 10
521.436223
 20
103.079549
 30
0.0
 11
521.788877
 21
101.079549
 31
0.0
  0
LINE
  8
11
  5
25A1
 10
717.848661
 20
101.079549
 30
0.0
 11
716.818655
 21
101.079549
 31
0.0
  0
LINE
  8
11
  5
25A2
 10
719.801315
 20
103.079549
 30
0.0
 11
718.201315
 21
103.079549
 31
0.0
  0
LINE
  8
11
  5
25A3
 10
718.201315
 20
103.079549
 30
0.0
 11
717.848661
 21
101.079549
 31
0.0
  0
ENDBLK
  8
0
  5
25A4
  0
BLOCK
  8
0
  5
2465
  2
TKK-ACAD
 70
    64
 10
0.0
 20
0.0
 30
0.0
  3
TKK-ACAD
  0
ENDBLK
  8
0
  5
2466
  0
ENDSEC
  0
SECTION
  2
ENTITIES
  0
VIEWPORT
  8
0
  5
1
 67
     1
 68
     1
 10
210.0
 20
152.094241
 30
0.0
 40
420.0
 41
304.188482
 69
     1
1001
ACAD
1000
MVIEW
1002
{
1070
    16
1010
0.0
1020
0.0
1030
0.0
1010
0.0
1020
0.0
1030
1.0
1040
0.0
1040
304.188482
1040
210.0
1040
152.094241
1040
50.0
1040
0.0
1040
0.0
1070
     0
1070
   100
1070
     1
1070
     1
1070
     1
1070
     0
1070
     0
1070
     0
1040
0.0
1040
0.0
1040
0.0
1040
1.0
1040
1.0
1040
0.0
1040
0.0
1070
     0
1002
{
1002
}
1002
}
  0
INSERT
  8
L1
  5
25A5
  2
122006B
 10
0.0
 20
0.0
 30
0.0
  0
ENDSEC
  0
EOF
