  0
SECTION
  2
HEADER
  9
$ACADVER
  1
AC1009
  9
$INSBASE
 10
0.0
 20
0.0
 30
0.0
  9
$EXTMIN
 10
143.83034668175949
 20
228.7223392317041
 30
0.0
  9
$EXTMAX
 10
704.13507850935332
 20
509.89888947939579
 30
0.0
  9
$LIMMIN
 10
-5.0
 20
0.51
  9
$LIMMAX
 10
835.80341610938513
 20
1006.857920246129
  9
$ORTHOMODE
 70
     1
  9
$REGENMODE
 70
     1
  9
$FILLMODE
 70
     1
  9
$QTEXTMODE
 70
     0
  9
$MIRRTEXT
 70
     1
  9
$DRAGMODE
 70
     2
  9
$LTSCALE
 40
1.0
  9
$OSMODE
 70
    37
  9
$ATTMODE
 70
     1
  9
$TEXTSIZE
 40
2.5
  9
$TRACEWID
 40
0.05
  9
$TEXTSTYLE
  7
TKKISO
  9
$CLAYER
  8
52
  9
$CELTYPE
  6
BYLAYER
  9
$CECOLOR
 62
   256
  9
$DIMSCALE
 40
1.0
  9
$DIMASZ
 40
2.5
  9
$DIMEXO
 40
0.0625
  9
$DIMDLI
 40
0.38
  9
$DIMRND
 40
0.0
  9
$DIMDLE
 40
0.0
  9
$DIMEXE
 40
1.0
  9
$DIMTP
 40
0.0
  9
$DIMTM
 40
0.0
  9
$DIMTXT
 40
2.5
  9
$DIMCEN
 40
0.09
  9
$DIMTSZ
 40
0.0
  9
$DIMTOL
 70
     0
  9
$DIMLIM
 70
     0
  9
$DIMTIH
 70
     0
  9
$DIMTOH
 70
     0
  9
$DIMSE1
 70
     0
  9
$DIMSE2
 70
     0
  9
$DIMTAD
 70
     1
  9
$DIMZIN
 70
     0
  9
$DIMBLK
  1

  9
$DIMASO
 70
     1
  9
$DIMSHO
 70
     1
  9
$DIMPOST
  1

  9
$DIMAPOST
  1

  9
$DIMALT
 70
     0
  9
$DIMALTD
 70
     2
  9
$DIMALTF
 40
25.399999999999999
  9
$DIMLFAC
 40
1.0
  9
$DIMTOFL
 70
     1
  9
$DIMTVP
 40
0.0
  9
$DIMTIX
 70
     0
  9
$DIMSOXD
 70
     1
  9
$DIMSAH
 70
     1
  9
$DIMBLK1
  1

  9
$DIMBLK2
  1

  9
$DIMSTYLE
  2
STANDARD
  9
$DIMCLRD
 70
     1
  9
$DIMCLRE
 70
     1
  9
$DIMCLRT
 70
     3
  9
$DIMTFAC
 40
1.0
  9
$DIMGAP
 40
0.09
  9
$LUNITS
 70
     2
  9
$LUPREC
 70
     1
  9
$SKETCHINC
 40
0.1
  9
$FILLETRAD
 40
0.0
  9
$AUNITS
 70
     0
  9
$AUPREC
 70
     0
  9
$MENU
  1
caesar
  9
$ELEVATION
 40
0.0
  9
$PELEVATION
 40
0.0
  9
$THICKNESS
 40
0.0
  9
$LIMCHECK
 70
     1
  9
$BLIPMODE
 70
     0
  9
$CHAMFERA
 40
5.0
  9
$CHAMFERB
 40
5.0
  9
$SKPOLY
 70
     0
  9
$TDCREATE
 40
2448716.9030570602
  9
$TDUPDATE
 40
2453620.4637400121
  9
$TDINDWG
 40
0.2122694792
  9
$TDUSRTIMER
 40
0.2122694792
  9
$USRTIMER
 70
     1
  9
$ANGBASE
 50
0.0
  9
$ANGDIR
 70
     0
  9
$PDMODE
 70
     0
  9
$PDSIZE
 40
0.0
  9
$PLINEWID
 40
0.0
  9
$COORDS
 70
     2
  9
$SPLFRAME
 70
     0
  9
$SPLINETYPE
 70
     6
  9
$SPLINESEGS
 70
     8
  9
$ATTDIA
 70
     0
  9
$ATTREQ
 70
     1
  9
$HANDLING
 70
-16383
  9
$HANDSEED
  5
1552
  9
$SURFTAB1
 70
     6
  9
$SURFTAB2
 70
     6
  9
$SURFTYPE
 70
     6
  9
$SURFU
 70
     6
  9
$SURFV
 70
     6
  9
$UCSNAME
  2

  9
$UCSORG
 10
0.0
 20
0.0
 30
0.0
  9
$UCSXDIR
 10
1.0
 20
0.0
 30
0.0
  9
$UCSYDIR
 10
0.0
 20
1.0
 30
0.0
  9
$PUCSNAME
  2

  9
$PUCSORG
 10
0.0
 20
0.0
 30
0.0
  9
$PUCSXDIR
 10
1.0
 20
0.0
 30
0.0
  9
$PUCSYDIR
 10
0.0
 20
1.0
 30
0.0
  9
$USERI1
 70
   101
  9
$USERI2
 70
     0
  9
$USERI3
 70
     0
  9
$USERI4
 70
     0
  9
$USERI5
 70
     0
  9
$USERR1
 40
1.0
  9
$USERR2
 40
-10.0
  9
$USERR3
 40
2.5
  9
$USERR4
 40
0.0
  9
$USERR5
 40
0.0
  9
$WORLDVIEW
 70
     1
  9
$SHADEDGE
 70
     3
  9
$SHADEDIF
 70
    70
  9
$TILEMODE
 70
     1
  9
$MAXACTVP
 70
    16
  9
$PLIMCHECK
 70
     0
  9
$PEXTMIN
 10
1.0000000000000000E+020
 20
1.0000000000000000E+020
 30
1.0000000000000000E+020
  9
$PEXTMAX
 10
-1.0000000000000000E+020
 20
-1.0000000000000000E+020
 30
-1.0000000000000000E+020
  9
$PLIMMIN
 10
0.0
 20
0.0
  9
$PLIMMAX
 10
12.0
 20
9.0
  9
$UNITMODE
 70
     0
  9
$VISRETAIN
 70
     0
  9
$PLINEGEN
 70
     0
  9
$PSLTSCALE
 70
     0
  0
ENDSEC
  0
SECTION
  2
TABLES
  0
TABLE
  2
VPORT
 70
     2
  0
VPORT
  2
*ACTIVE
 70
     0
 10
0.0
 20
0.0
 11
1.0
 21
1.0
 12
423.99757014187389
 22
369.28363009603117
 13
0.0
 23
0.0
 14
1.0
 24
1.0
 15
10.0
 25
10.0
 16
0.0
 26
0.0
 36
1.0
 17
0.0
 27
0.0
 37
0.0
 40
361.78963154756792
 41
1.5552208835341359
 42
50.0
 43
0.0
 44
0.0
 50
0.0
 51
0.0
 71
     0
 72
  2000
 73
     1
 74
     0
 75
     0
 76
     0
 77
     0
 78
     2
  0
ENDTAB
  0
TABLE
  2
LTYPE
 70
     3
  0
LTYPE
  2
CONTINUOUS
 70
     0
  3
Solid line
 72
    65
 73
     0
 40
0.0
  0
LTYPE
  2
DASHED
 70
     0
  3
__ __ __ __ __ __ __ _
 72
    65
 73
     2
 40
7.5
 49
5.0
 49
-2.5
  0
LTYPE
  2
CENTER
 70
     0
  3
____ _ ____ _ ____ _ ____ _ ____ _ ____ _ ____
 72
    65
 73
     4
 40
2.0
 49
1.25
 49
-0.25
 49
0.25
 49
-0.25
  0
ENDTAB
  0
TABLE
  2
LAYER
 70
     8
  0
LAYER
  2
0
 70
     0
 62
     7
  6
CONTINUOUS
  0
LAYER
  2
L20
 70
     0
 62
     3
  6
CONTINUOUS
  0
LAYER
  2
DEFPOINTS
 70
     0
 62
    -7
  6
CONTINUOUS
  0
LAYER
  2
13
 70
     0
 62
     1
  6
CENTER
  0
LAYER
  2
21
 70
     0
 62
     7
  6
CONTINUOUS
  0
LAYER
  2
33
 70
     1
 62
     1
  6
CENTER
  0
LAYER
  2
52
 70
     0
 62
     1
  6
DASHED
  0
LAYER
  2
63
 70
     0
 62
     1
  6
CENTER
  0
ENDTAB
  0
TABLE
  2
STYLE
 70
     2
  0
STYLE
  2
STANDARD
 70
     0
 40
0.0
 41
1.0
 50
0.0
 71
     0
 42
3.5
  3
caeiso
  4

  0
STYLE
  2
TKKISO
 70
     0
 40
0.0
 41
1.0
 50
0.0
 71
     0
 42
2.5
  3
caeiso
  4

  0
ENDTAB
  0
TABLE
  2
VIEW
 70
     0
  0
ENDTAB
  0
TABLE
  2
UCS
 70
     0
  0
ENDTAB
  0
TABLE
  2
APPID
 70
     2
  0
APPID
  2
ACAD
 70
     0
  0
APPID
  2
DCO15
 70
     0
  0
ENDTAB
  0
TABLE
  2
DIMSTYLE
 70
     1
  0
DIMSTYLE
  2
STANDARD
 70
     0
  3

  4

  5

  6

  7

 40
1.0
 41
0.18
 42
0.0625
 43
0.38
 44
0.18
 45
0.0
 46
0.0
 47
0.0
 48
0.0
140
0.18
141
0.09
142
0.0
143
25.399999999999999
144
1.0
145
0.0
146
1.0
147
0.09
 71
     0
 72
     0
 73
     1
 74
     1
 75
     0
 76
     0
 77
     0
 78
     0
170
     0
171
     2
172
     0
173
     0
174
     0
175
     0
176
     0
177
     0
178
     0
  0
ENDTAB
  0
ENDSEC
  0
SECTION
  2
BLOCKS
  0
BLOCK
  8
0
  2
$MODEL_SPACE
 70
     0
 10
0.0
 20
0.0
 30
0.0
  3
$MODEL_SPACE
  1

  0
ENDBLK
  5
8B
  8
0
  0
BLOCK
 67
     1
  8
0
  2
$PAPER_SPACE
 70
     0
 10
0.0
 20
0.0
 30
0.0
  3
$PAPER_SPACE
  1

  0
ENDBLK
  5
89
 67
     1
  8
0
  0
BLOCK
  8
0
  2
TKK-ACAD
 70
     0
 10
0.0
 20
0.0
 30
0.0
  3
TKK-ACAD
  1

  0
ENDBLK
  5
8D
  8
0
  0
ENDSEC
  0
SECTION
  2
ENTITIES
  0
LINE
  5
8E
  8
21
 10
443.84268708679059
 20
309.31061435555
 30
0.0
 11
537.84268708679065
 21
309.31061435555
 31
0.0
  0
LINE
  5
90
  8
21
 10
437.84268708679048
 20
369.31061435555
 30
0.0
 11
437.84268708679048
 21
315.31061435555
 31
0.0
  0
ARC
  5
92
  8
21
 10
443.84268708679059
 20
315.31061435555
 30
0.0
 40
6.0
 50
180.0
 51
270.0
  0
LINE
  5
93
  8
21
 10
443.84268708679059
 20
429.31061435554989
 30
0.0
 11
537.84268708679065
 21
429.31061435554989
 31
0.0
  0
LINE
  5
94
  8
21
 10
437.84268708679048
 20
369.31061435555
 30
0.0
 11
437.84268708679048
 21
423.31061435555
 31
0.0
  0
ARC
  5
95
  8
21
 10
443.84268708679059
 20
423.31061435555
 30
0.0
 40
6.0
 50
90.0
 51
180.0
  0
CIRCLE
  5
97
  8
21
 10
631.84268708679065
 20
315.31061435555
 30
0.0
 40
2.0
  0
LINE
  5
98
  8
21
 10
631.84268708679065
 20
309.31061435555
 30
0.0
 11
537.84268708679065
 21
309.31061435555
 31
0.0
  0
LINE
  5
99
  8
21
 10
637.84268708679065
 20
369.31061435555
 30
0.0
 11
637.84268708679065
 21
315.31061435555
 31
0.0
  0
ARC
  5
9A
  8
21
 10
631.84268708679065
 20
315.31061435555
 30
0.0
 40
6.0
 50
270.0
 51
0.0
  0
CIRCLE
  5
9C
  8
21
 10
631.84268708679065
 20
423.31061435555
 30
0.0
 40
2.0
  0
LINE
  5
9D
  8
21
 10
631.84268708679065
 20
429.31061435554989
 30
0.0
 11
537.84268708679065
 21
429.31061435554989
 31
0.0
  0
LINE
  5
9E
  8
21
 10
637.84268708679065
 20
369.31061435555
 30
0.0
 11
637.84268708679065
 21
423.31061435555
 31
0.0
  0
ARC
  5
9F
  8
21
 10
631.84268708679065
 20
423.31061435555
 30
0.0
 40
6.0
 50
0.0
 51
90.0
  0
LINE
  5
A0
  8
21
 10
439.34268708679048
 20
369.31061435555
 30
0.0
 11
439.34268708679048
 21
315.31061435555
 31
0.0
  0
CIRCLE
  5
A2
  8
21
 10
443.84268708679059
 20
315.31061435555
 30
0.0
 40
2.0
  0
ARC
  5
A3
  8
21
 10
443.84268708679059
 20
315.31061435555
 30
0.0
 40
4.5
 50
180.0
 51
270.0
  0
LINE
  5
A4
  8
21
 10
443.84268708679059
 20
310.81061435555
 30
0.0
 11
537.84268708679065
 21
310.81061435555
 31
0.0
  0
LINE
  5
A5
  8
21
 10
631.84268708679065
 20
310.81061435555
 30
0.0
 11
537.84268708679065
 21
310.81061435555
 31
0.0
  0
ARC
  5
A6
  8
21
 10
631.84268708679065
 20
315.31061435555
 30
0.0
 40
4.5
 50
270.0
 51
0.0
  0
LINE
  5
A7
  8
21
 10
636.34268708679065
 20
369.31061435555
 30
0.0
 11
636.34268708679065
 21
315.31061435555
 31
0.0
  0
LINE
  5
A8
  8
21
 10
636.34268708679065
 20
369.31061435555
 30
0.0
 11
636.34268708679065
 21
423.31061435555
 31
0.0
  0
ARC
  5
A9
  8
21
 10
631.84268708679065
 20
423.31061435555
 30
0.0
 40
4.5
 50
0.0
 51
90.0
  0
LINE
  5
AA
  8
21
 10
631.84268708679065
 20
427.81061435555
 30
0.0
 11
537.84268708679065
 21
427.81061435555
 31
0.0
  0
LINE
  5
AB
  8
21
 10
443.84268708679059
 20
427.81061435555
 30
0.0
 11
537.84268708679065
 21
427.81061435555
 31
0.0
  0
ARC
  5
AC
  8
21
 10
443.84268708679059
 20
423.31061435555
 30
0.0
 40
4.5
 50
90.0
 51
180.0
  0
LINE
  5
AD
  8
21
 10
439.34268708679048
 20
369.31061435555
 30
0.0
 11
439.34268708679048
 21
423.31061435555
 31
0.0
  0
LINE
  5
AE
  8
21
 10
152.83034668175949
 20
429.31061435554989
 30
0.0
 11
184.83034668175921
 21
429.31061435555
 31
0.0
  0
LINE
  5
AF
  8
21
 10
152.83034668175949
 20
309.31061435555
 30
0.0
 11
246.83034668175949
 21
309.31061435555
 31
0.0
  0
LINE
  5
B0
  8
21
 10
146.83034668175949
 20
369.31061435555
 30
0.0
 11
146.83034668175949
 21
315.31061435555
 31
0.0
  0
LINE
  5
B2
  8
21
 10
246.83034668175949
 20
313.81061435554989
 30
0.0
 11
160.03034668175951
 21
313.81061435554989
 31
0.0
  0
LINE
  5
B3
  8
21
 10
146.83034668175949
 20
369.31061435555
 30
0.0
 11
146.83034668175949
 21
423.31061435554989
 31
0.0
  0
LINE
  5
B6
  8
52
  6
CONTINUOUS
 10
246.83034668175949
 20
312.91061435555002
 30
0.0
 11
159.53034668175951
 21
312.91061435555002
 31
0.0
  0
LINE
  5
B7
  8
52
  6
CONTINUOUS
 10
246.83034668175949
 20
425.71061435554992
 30
0.0
 11
159.53034668175951
 21
425.71061435554992
 31
0.0
  0
LINE
  5
B8
  8
52
  6
CONTINUOUS
 10
150.4303466817594
 20
331.01061435554999
 30
0.0
 11
150.4303466817596
 21
369.31061435555
 31
0.0
  0
LINE
  5
B9
  8
52
  6
CONTINUOUS
 10
246.83034668175949
 20
310.31061435555
 30
0.0
 11
159.53034668175951
 21
310.31061435555
 31
0.0
  0
LINE
  5
BA
  8
52
  6
CONTINUOUS
 10
147.83034668175949
 20
331.01061435554999
 30
0.0
 11
147.83034668175949
 21
369.31061435555
 31
0.0
  0
LINE
  5
BB
  8
52
  6
CONTINUOUS
 10
150.4303466817594
 20
407.61061435555013
 30
0.0
 11
150.4303466817596
 21
369.31061435555
 31
0.0
  0
LINE
  5
BC
  8
52
  6
CONTINUOUS
 10
246.83034668175949
 20
428.31061435554989
 30
0.0
 11
159.53034668175951
 21
428.31061435554989
 31
0.0
  0
LINE
  5
BD
  8
52
  6
CONTINUOUS
 10
147.83034668175949
 20
407.61061435555001
 30
0.0
 11
147.83034668175949
 21
369.31061435555
 31
0.0
  0
LINE
  5
BE
  8
21
 10
340.83034668175952
 20
309.31061435555
 30
0.0
 11
246.83034668175949
 21
309.31061435555
 31
0.0
  0
LINE
  5
BF
  8
21
 10
346.83034668175952
 20
369.31061435555
 30
0.0
 11
346.83034668175952
 21
315.31061435555
 31
0.0
  0
LINE
  5
C0
  8
21
 10
342.33034668175941
 20
331.51061435554999
 30
0.0
 11
342.33034668175952
 21
369.31061435555
 31
0.0
  0
ARC
  5
C1
  8
21
 10
340.83034668175952
 20
315.31061435555
 30
0.0
 40
6.0
 50
270.0
 51
0.0
  0
LINE
  5
C2
  8
21
 10
246.83034668175949
 20
313.81061435554989
 30
0.0
 11
333.63034668175959
 21
313.81061435554989
 31
0.0
  0
LINE
  5
C3
  8
52
  6
CONTINUOUS
 10
246.83034668175949
 20
312.91061435555002
 30
0.0
 11
334.13034668175959
 21
312.91061435555002
 31
0.0
  0
LINE
  5
C4
  8
52
  6
CONTINUOUS
 10
343.23034668175961
 20
331.01061435554999
 30
0.0
 11
343.2303466817595
 21
369.31061435555
 31
0.0
  0
LINE
  5
C5
  8
52
  6
CONTINUOUS
 10
246.83034668175949
 20
310.31061435555
 30
0.0
 11
334.13034668175959
 21
310.31061435555
 31
0.0
  0
LINE
  5
C6
  8
52
  6
CONTINUOUS
 10
345.83034668175958
 20
331.01061435554999
 30
0.0
 11
345.83034668175958
 21
369.31061435555
 31
0.0
  0
LINE
  5
C7
  8
21
 10
346.83034668175952
 20
369.31061435555
 30
0.0
 11
346.83034668175952
 21
423.31061435554989
 31
0.0
  0
LINE
  5
C8
  8
21
 10
342.33034668175952
 20
407.11061435555013
 30
0.0
 11
342.33034668175952
 21
369.31061435555
 31
0.0
  0
ARC
  5
C9
  8
21
 10
340.83034668175952
 20
423.31061435554989
 30
0.0
 40
6.0
 50
0.0
 51
90.0
  0
LINE
  5
CA
  8
21
 10
246.83034668175949
 20
424.81061435554989
 30
0.0
 11
333.63034668175959
 21
424.81061435554989
 31
0.0
  0
LINE
  5
CB
  8
52
  6
CONTINUOUS
 10
246.83034668175949
 20
425.71061435554992
 30
0.0
 11
334.13034668175959
 21
425.71061435554992
 31
0.0
  0
LINE
  5
CC
  8
21
 10
333.63034668175959
 20
425.71061435554992
 30
0.0
 11
333.63034668175959
 21
414.6106143555499
 31
0.0
  0
LINE
  5
CD
  8
52
  6
CONTINUOUS
 10
334.53034668175962
 20
425.31061435554989
 30
0.0
 11
334.53034668175962
 21
414.6106143555499
 31
0.0
  0
LINE
  5
CE
  8
52
  6
CONTINUOUS
 10
343.2303466817595
 20
407.61061435555013
 30
0.0
 11
343.2303466817595
 21
369.31061435555
 31
0.0
  0
LINE
  5
CF
  8
52
  6
CONTINUOUS
 10
246.83034668175949
 20
428.31061435554989
 30
0.0
 11
334.13034668175959
 21
428.31061435554989
 31
0.0
  0
LINE
  5
D0
  8
52
  6
CONTINUOUS
 10
337.13034668175948
 20
425.31061435554989
 30
0.0
 11
337.13034668175948
 21
414.61061435555001
 31
0.0
  0
LINE
  5
D1
  8
52
  6
CONTINUOUS
 10
345.83034668175958
 20
407.61061435555001
 30
0.0
 11
345.83034668175958
 21
369.31061435555
 31
0.0
  0
INSERT
  5
D6
  8
0
  2
TKK-ACAD
 10
10.80341610938499
 20
397.8579202461292
 30
0.0
  0
ARC
  5
D7
  8
52
  6
CONTINUOUS
 10
334.13034668175959
 20
425.31061435554989
 30
0.0
 40
0.4
 50
0.0000000000000799
 51
90.0
  0
ARC
  5
D8
  8
52
  6
CONTINUOUS
 10
334.13034668175959
 20
425.31061435554989
 30
0.0
 40
3.0
 50
0.0000000000000799
 51
90.0
  0
LINE
  5
D9
  8
52
  6
CONTINUOUS
 10
342.83034668175952
 20
408.01061435554999
 30
0.0
 11
341.13034668175982
 21
408.01061435554988
 31
0.0
  0
LINE
  5
DA
  8
52
  6
CONTINUOUS
 10
342.83034668175952
 20
410.61061435555001
 30
0.0
 11
341.13034668175948
 21
410.61061435555001
 31
0.0
  0
ARC
  5
DB
  8
52
  6
CONTINUOUS
 10
342.83034668175952
 20
407.61061435555001
 30
0.0
 40
3.0
 50
0.0
 51
90.0
  0
ARC
  5
DC
  8
52
  6
CONTINUOUS
 10
341.13034668175948
 20
414.61061435555001
 30
0.0
 40
4.0
 50
180.0
 51
270.0
  0
ARC
  5
DD
  8
52
  6
CONTINUOUS
 10
341.13034668175948
 20
414.6106143555499
 30
0.0
 40
6.5999999999999988
 50
180.0
 51
270.00000000000182
  0
LINE
  5
DE
  8
21
 10
342.33034668175952
 20
407.11061435555001
 30
0.0
 11
341.13034668175999
 21
407.1106143555499
 31
0.0
  0
ARC
  5
DF
  8
21
 10
341.13034668175948
 20
414.6106143555499
 30
0.0
 40
7.5
 50
180.0
 51
270.00000000000358
  0
ARC
  5
EA
  8
21
 10
341.13034668175948
 20
324.01061435554999
 30
0.0
 40
7.5
 50
89.999999999996405
 51
180.0
  0
LINE
  5
EB
  8
21
 10
342.33034668175952
 20
331.51061435554999
 30
0.0
 11
341.13034668175999
 21
331.51061435554999
 31
0.0
  0
ARC
  5
EC
  8
52
  6
CONTINUOUS
 10
341.13034668175948
 20
324.01061435554999
 30
0.0
 40
6.5999999999999988
 50
89.999999999998238
 51
180.0
  0
ARC
  5
ED
  8
52
  6
CONTINUOUS
 10
341.13034668175948
 20
324.01061435554988
 30
0.0
 40
4.0
 50
90.000000000000028
 51
179.99999999999989
  0
ARC
  5
EE
  8
52
  6
CONTINUOUS
 10
342.83034668175952
 20
331.01061435554999
 30
0.0
 40
3.0
 50
270.0
 51
0.0000000000000799
  0
LINE
  5
EF
  8
52
  6
CONTINUOUS
 10
342.83034668175952
 20
328.01061435554988
 30
0.0
 11
341.13034668175948
 21
328.01061435554988
 31
0.0
  0
LINE
  5
F0
  8
52
  6
CONTINUOUS
 10
342.83034668175952
 20
330.61061435555001
 30
0.0
 11
341.13034668175982
 21
330.61061435555001
 31
0.0
  0
ARC
  5
F1
  8
52
  6
CONTINUOUS
 10
334.13034668175959
 20
313.31061435555
 30
0.0
 40
3.0
 50
270.0
 51
359.99999999999989
  0
ARC
  5
F2
  8
52
  6
CONTINUOUS
 10
334.13034668175959
 20
313.31061435555
 30
0.0
 40
0.4
 50
270.0
 51
359.99999999999989
  0
LINE
  5
F7
  8
52
  6
CONTINUOUS
 10
337.13034668175948
 20
313.31061435555
 30
0.0
 11
337.13034668175948
 21
324.01061435554988
 31
0.0
  0
LINE
  5
F8
  8
52
  6
CONTINUOUS
 10
334.53034668175962
 20
313.31061435555
 30
0.0
 11
334.53034668175962
 21
324.01061435554999
 31
0.0
  0
LINE
  5
F9
  8
21
 10
333.63034668175959
 20
312.91061435555002
 30
0.0
 11
333.63034668175959
 21
324.01061435554999
 31
0.0
  0
ARC
  5
101
  8
52
  6
CONTINUOUS
 10
152.53034668175951
 20
414.6106143555499
 30
0.0
 40
6.5999999999999988
 50
269.99999999999812
 51
0.0
  0
ARC
  5
102
  8
52
  6
CONTINUOUS
 10
152.53034668175951
 20
414.61061435555001
 30
0.0
 40
4.0
 50
270.0
 51
359.99999999999989
  0
ARC
  5
103
  8
52
  6
CONTINUOUS
 10
150.83034668175949
 20
407.61061435555001
 30
0.0
 40
3.0
 50
90.0
 51
180.0
  0
LINE
  5
104
  8
52
  6
CONTINUOUS
 10
150.83034668175949
 20
410.61061435555001
 30
0.0
 11
152.53034668175951
 21
410.61061435555001
 31
0.0
  0
LINE
  5
105
  8
52
  6
CONTINUOUS
 10
150.83034668175941
 20
408.01061435554999
 30
0.0
 11
152.53034668175931
 21
408.01061435554988
 31
0.0
  0
ARC
  5
106
  8
52
  6
CONTINUOUS
 10
159.53034668175951
 20
425.31061435554989
 30
0.0
 40
3.0
 50
90.0
 51
179.9999999999998
  0
ARC
  5
107
  8
52
  6
CONTINUOUS
 10
159.53034668175951
 20
425.31061435554989
 30
0.0
 40
0.4
 50
90.0
 51
179.9999999999998
  0
LINE
  5
10C
  8
52
  6
CONTINUOUS
 10
156.53034668175951
 20
425.31061435554989
 30
0.0
 11
156.53034668175951
 21
414.61061435555001
 31
0.0
  0
LINE
  5
10D
  8
52
  6
CONTINUOUS
 10
159.13034668175959
 20
425.31061435554989
 30
0.0
 11
159.13034668175959
 21
414.6106143555499
 31
0.0
  0
ARC
  5
10F
  8
21
 10
152.83034668175949
 20
423.31061435554989
 30
0.0
 40
6.0
 50
90.0
 51
180.0
  0
LINE
  5
110
  8
21
 10
160.03034668175951
 20
312.91061435555002
 30
0.0
 11
160.03034668175951
 21
324.01061435554999
 31
0.0
  0
LINE
  5
111
  8
52
  6
CONTINUOUS
 10
159.13034668175959
 20
313.31061435555
 30
0.0
 11
159.13034668175959
 21
324.01061435554999
 31
0.0
  0
LINE
  5
112
  8
52
  6
CONTINUOUS
 10
156.53034668175951
 20
313.31061435555
 30
0.0
 11
156.53034668175951
 21
324.01061435554988
 31
0.0
  0
ARC
  5
117
  8
52
  6
CONTINUOUS
 10
159.53034668175951
 20
313.31061435555
 30
0.0
 40
0.4
 50
180.0
 51
270.0
  0
ARC
  5
118
  8
52
  6
CONTINUOUS
 10
159.53034668175951
 20
313.31061435555
 30
0.0
 40
3.0
 50
180.0
 51
270.0
  0
LINE
  5
119
  8
52
  6
CONTINUOUS
 10
150.83034668175941
 20
330.61061435555001
 30
0.0
 11
152.53034668175931
 21
330.61061435555001
 31
0.0
  0
LINE
  5
11A
  8
52
  6
CONTINUOUS
 10
150.83034668175949
 20
328.01061435554988
 30
0.0
 11
152.53034668175951
 21
328.01061435554988
 31
0.0
  0
ARC
  5
11B
  8
52
  6
CONTINUOUS
 10
150.83034668175949
 20
331.01061435554999
 30
0.0
 40
3.0
 50
179.99999999999989
 51
270.0
  0
ARC
  5
11C
  8
52
  6
CONTINUOUS
 10
152.53034668175951
 20
324.01061435554988
 30
0.0
 40
4.0
 50
0.0000000000000799
 51
90.000000000000028
  0
ARC
  5
11D
  8
52
  6
CONTINUOUS
 10
152.53034668175951
 20
324.01061435554999
 30
0.0
 40
6.5999999999999988
 50
0.0
 51
90.000000000001791
  0
LINE
  5
11E
  8
21
 10
151.33034668175949
 20
331.51061435554999
 30
0.0
 11
152.53034668175911
 21
331.51061435554999
 31
0.0
  0
ARC
  5
11F
  8
21
 10
152.53034668175951
 20
324.01061435554999
 30
0.0
 40
7.5
 50
0.0
 51
90.000000000003595
  0
ARC
  5
125
  8
21
 10
152.83034668175949
 20
315.31061435555
 30
0.0
 40
6.0
 50
180.0
 51
270.0
  0
ARC
  5
126
  8
52
  6
CONTINUOUS
 10
342.83034668175952
 20
407.61061435555013
 30
0.0
 40
0.4
 50
0.0
 51
90.000000000003595
  0
ARC
  5
127
  8
52
  6
CONTINUOUS
 10
342.83034668175952
 20
331.01061435554999
 30
0.0
 40
0.4
 50
269.99999999999631
 51
0.0000000000000799
  0
ARC
  5
128
  8
52
  6
CONTINUOUS
 10
150.83034668175941
 20
331.01061435554999
 30
0.0
 40
0.4
 50
179.9999999999998
 51
270.00000000000358
  0
ARC
  5
129
  8
52
  6
CONTINUOUS
 10
150.83034668175941
 20
407.61061435555013
 30
0.0
 40
0.4
 50
89.999999999996405
 51
180.00000000000011
  0
LINE
  5
13C
  8
21
 10
184.83034668175921
 20
429.31061435554977
 30
0.0
 11
246.83034668175949
 21
429.31061435554989
 31
0.0
  0
LINE
  5
13D
  8
21
 10
340.83034668175952
 20
429.31061435554977
 30
0.0
 11
246.83034668175949
 21
429.31061435554989
 31
0.0
  0
LINE
  5
174
  8
13
  6
DASHED
 10
537.84268708679065
 20
506.24443728499512
 30
0.0
 11
624.0335820867906
 21
506.24443728499512
 31
0.0
  0
LINE
  5
175
  8
13
  6
DASHED
 10
537.84268708679065
 20
506.24443728499512
 30
0.0
 11
451.65179208679052
 21
506.24443728499512
 31
0.0
  0
LINE
  5
176
  8
13
  6
DASHED
 10
451.04268708679052
 20
478.244437284995
 30
0.0
 11
451.1518109727877
 21
505.74880055407482
 31
0.0
  0
ARC
  5
177
  8
13
  6
DASHED
 10
451.65179208679052
 20
505.74443728499512
 30
0.0
 40
0.5
 50
90.0
 51
179.49999999999989
  0
LINE
  5
178
  8
63
 10
537.84268708679065
 20
509.89888947939579
 30
0.0
 11
537.84268708679065
 21
475.13715553835721
 31
0.0
  0
LINE
  5
179
  8
13
  6
DASHED
 10
624.6426870867906
 20
478.244437284995
 30
0.0
 11
624.53356320079342
 21
505.74880055407482
 31
0.0
  0
ARC
  5
17A
  8
13
  6
DASHED
 10
624.0335820867906
 20
505.74443728499512
 30
0.0
 40
0.5
 50
0.4999999999999944
 51
90.0
  0
LINE
  5
17B
  8
33
  6
DASHED
 10
720.93956244988146
 20
369.31061435555
 30
0.0
 11
720.93956244988146
 21
332.1183712852083
 31
0.0
  0
LINE
  5
17C
  8
33
  6
DASHED
 10
720.93956244988146
 20
369.31061435555
 30
0.0
 11
720.93956244988146
 21
406.50285742589199
 31
0.0
  0
LINE
  5
17D
  8
33
  6
DASHED
 10
707.93956244988146
 20
407.09556731786608
 30
0.0
 11
720.44391395872572
 21
407.001490593683
 31
0.0
  0
ARC
  5
17E
  8
33
  6
DASHED
 10
720.43956244988146
 20
406.50285742589199
 30
0.0
 40
0.5
 50
0.0
 51
89.499999644061916
  0
LINE
  5
17F
  8
33
 10
727.10334739715427
 20
369.31061435555
 30
0.0
 11
706.37625161894334
 21
369.31061435555
 31
0.0
  0
LINE
  5
180
  8
33
  6
DASHED
 10
707.93956244988146
 20
331.52566139323392
 30
0.0
 11
720.44391395872572
 21
331.61973811741723
 31
0.0
  0
ARC
  5
181
  8
33
  6
DASHED
 10
720.43956244988146
 20
332.1183712852083
 30
0.0
 40
0.5
 50
270.50000035593803
 51
0.0
  0
LINE
  5
182
  8
63
 10
537.84268708679065
 20
432.31061435555
 30
0.0
 11
537.84268708679065
 21
306.31061435555
 31
0.0
  0
LINE
  5
183
  8
63
 10
640.84268708679065
 20
369.31061435555
 30
0.0
 11
434.84268708679048
 21
369.31061435555
 31
0.0
  0
LINE
  5
1A1
  8
13
  6
DASHED
 10
380.26099765655653
 20
369.31061435555
 30
0.0
 11
380.26099765655653
 21
332.1183712852083
 31
0.0
  0
LINE
  5
1AE
  8
13
  6
DASHED
 10
408.26099765655653
 20
331.52566139323392
 30
0.0
 11
380.75664614771227
 21
331.61973811741723
 31
0.0
  0
ARC
  5
1AF
  8
13
  6
DASHED
 10
380.76099765655653
 20
332.1183712852083
 30
0.0
 40
0.5
 50
180.0
 51
269.49999964406192
  0
LINE
  5
1B3
  8
13
  6
DASHED
 10
380.26099765655653
 20
369.31061435555
 30
0.0
 11
380.26099765655653
 21
406.50285742589199
 31
0.0
  0
LINE
  5
1B4
  8
63
 10
371.55029566422792
 20
369.31061435555
 30
0.0
 11
409.82430848749459
 21
369.31061435555
 31
0.0
  0
LINE
  5
1B5
  8
13
  6
DASHED
 10
408.26099765655653
 20
407.09556731786608
 30
0.0
 11
380.75664614771227
 21
407.001490593683
 31
0.0
  0
ARC
  5
1BA
  8
13
  6
DASHED
 10
380.76099765655653
 20
406.50285742589199
 30
0.0
 40
0.5
 50
90.500000355938084
 51
180.0
  0
LINE
  5
1BE
  8
63
 10
246.83034668175949
 20
306.31061435555
 30
0.0
 11
246.83034668175949
 21
432.31061435554989
 31
0.0
  0
LINE
  5
1BF
  8
63
 10
349.83034668175958
 20
369.31061435555
 30
0.0
 11
143.83034668175949
 21
369.31061435555
 31
0.0
  0
TEXT
  5
1C0
  8
L20
 10
178.5176483576507
 20
472.58338922210618
 30
0.0
 40
7.1999999999999993
  1
FIBOX EURONORD II 
  7
TKKISO
  0
TEXT
  5
1C8
  8
L20
 10
178.5176483576507
 20
458.2861751399634
 30
0.0
 40
7.1999999999999993
  1
120x200x15 COVER
  7
TKKISO
  0
LINE
  5
814
  8
0
  6
CONTINUOUS
 62
     7
 10
332.68286418138803
 20
424.86297955033461
 30
0.0
 11
160.9778291821313
 21
424.86297955033461
 31
0.0
  0
LINE
  5
A47
  8
0
  6
CONTINUOUS
 62
     7
 10
151.27798148697491
 20
406.16313185517811
 30
0.0
 11
151.27798148697491
 21
332.45809685592172
 31
0.0
  0
LINE
  5
B1D
  8
0
  6
CONTINUOUS
 62
     7
 10
159.9779814869749
 20
423.86313185517821
 30
0.0
 11
159.9779814869749
 21
414.61061435554979
 31
0.0
  0
ARC
  5
B20
  8
0
  6
CONTINUOUS
 62
     7
 10
152.5303466817596
 20
414.61061435554979
 30
0.0
 40
7.4476348052153583
 50
270.0
 51
0.0
  0
ARC
  5
B32
  8
0
  6
CONTINUOUS
 62
     7
 10
152.2777661233734
 20
406.16319491393853
 30
0.0
 40
0.9997846383872332
 50
90.0
 51
180.00361377909829
  0
LINE
  5
B50
  8
0
  6
CONTINUOUS
 62
     7
 10
152.5303466817596
 20
407.16297955033451
 30
0.0
 11
152.27782918213131
 21
407.16297955033451
 31
0.0
  0
ARC
  5
BCC
  8
0
  6
CONTINUOUS
 62
     7
 10
160.97776612339189
 20
423.86319491393078
 30
0.0
 40
0.9997846384057636
 50
90.0
 51
180.00361377865531
  0
LINE
  5
C5D
  8
0
  6
CONTINUOUS
 62
     7
 10
625.14268708679083
 20
476.24443728499512
 30
0.0
 11
450.54268708679058
 21
476.24443728499512
 31
0.0
  0
LINE
  5
C5F
  8
0
  6
CONTINUOUS
 62
     7
 10
443.84268708679059
 20
509.2444372849946
 30
0.0
 11
631.84268708679065
 21
509.2444372849946
 31
0.0
  0
LINE
  5
C60
  8
0
  6
CONTINUOUS
 62
     7
 10
443.84268708679059
 20
479.24443728499512
 30
0.0
 11
631.84268708679065
 21
479.24443728499512
 31
0.0
  0
LINE
  5
C61
  8
0
  6
CONTINUOUS
 62
     7
 10
631.84268708679065
 20
508.44455912886963
 30
0.0
 11
443.84268708679059
 21
508.44455912886963
 31
0.0
  0
LINE
  5
CDD
  8
0
  6
CONTINUOUS
 62
     7
 10
637.33299706409389
 20
508.44455912886963
 30
0.0
 11
637.84268708679065
 21
479.24443728499512
 31
0.0
  0
LINE
  5
CDF
  8
0
  6
CONTINUOUS
 62
     7
 10
632.14268708679083
 20
476.2444372849946
 30
0.0
 11
625.19551271307125
 21
476.2444372849946
 31
0.0
  0
LINE
  5
CE3
  8
0
  6
CONTINUOUS
 62
     7
 10
633.89551271307107
 20
476.2444372849946
 30
0.0
 11
633.84268708679065
 21
476.2444372849946
 31
0.0
  0
ARC
  5
CE4
  8
0
  6
CONTINUOUS
 62
     7
 10
633.89551271307084
 20
476.54443728499461
 30
0.0
 40
0.2999999999999676
 50
270.0
 51
359.00000000002422
  0
LINE
  5
CE5
  8
0
  6
CONTINUOUS
 62
     7
 10
633.84268708679065
 20
476.2444372849946
 30
0.0
 11
632.14268708679083
 21
476.2444372849946
 31
0.0
  0
LINE
  5
CE8
  8
0
  6
CONTINUOUS
 62
     7
 10
634.19546702161801
 20
476.53920156306373
 30
0.0
 11
634.24268708679051
 21
479.24443728499512
 31
0.0
  0
LINE
  5
CEB
  8
0
  6
CONTINUOUS
 62
     7
 10
631.84268708679065
 20
479.24443728499512
 30
0.0
 11
637.84268708679065
 21
479.24443728499512
 31
0.0
  0
ARC
  5
CED
  8
0
  6
CONTINUOUS
 62
     7
 10
625.19551271307114
 20
476.54443728499479
 30
0.0
 40
0.2999999999999696
 50
270.0
 51
359.00000000000472
  0
LINE
  5
CEE
  8
0
  6
CONTINUOUS
 62
     7
 10
625.19551271307125
 20
476.24443728499512
 30
0.0
 11
625.14268708679083
 21
476.24443728499512
 31
0.0
  0
LINE
  5
CF1
  8
0
  6
CONTINUOUS
 62
     7
 10
625.49546702161808
 20
476.53920156306373
 30
0.0
 11
625.54268708679069
 21
479.24443728499512
 31
0.0
  0
LINE
  5
CF2
  8
0
  6
CONTINUOUS
 62
     7
 10
637.33299706409389
 20
508.44455912886963
 30
0.0
 11
636.50469898608753
 21
509.2444372849946
 31
0.0
  0
LINE
  5
CF3
  8
0
  6
CONTINUOUS
 62
     7
 10
631.84268708679065
 20
509.2444372849946
 30
0.0
 11
636.50469898608753
 21
509.2444372849946
 31
0.0
  0
LINE
  5
CF5
  8
0
  6
CONTINUOUS
 62
     7
 10
637.33299706409389
 20
508.44455912886963
 30
0.0
 11
631.84268708679065
 21
508.44455912886963
 31
0.0
  0
LINE
  5
D6B
  8
0
  6
CONTINUOUS
 62
     7
 10
438.35237710948729
 20
508.44455912886963
 30
0.0
 11
437.84268708679048
 21
479.24443728499512
 31
0.0
  0
LINE
  5
D6C
  8
0
  6
CONTINUOUS
 62
     7
 10
443.54268708679058
 20
476.2444372849946
 30
0.0
 11
441.84268708679048
 21
476.2444372849946
 31
0.0
  0
LINE
  5
D6E
  8
0
  6
CONTINUOUS
 62
     7
 10
437.84268708679048
 20
479.24443728499512
 30
0.0
 11
443.84268708679059
 21
479.24443728499512
 31
0.0
  0
LINE
  5
D71
  8
0
  6
CONTINUOUS
 62
     7
 10
450.48986146050993
 20
476.2444372849946
 30
0.0
 11
443.54268708679058
 21
476.2444372849946
 31
0.0
  0
ARC
  5
D74
  8
0
  6
CONTINUOUS
 62
     7
 10
450.48986146050959
 20
476.54443728499501
 30
0.0
 40
0.2999999999999696
 50
180.9999999999952
 51
270.0
  0
LINE
  5
D75
  8
0
  6
CONTINUOUS
 62
     7
 10
450.54268708679058
 20
476.24443728499512
 30
0.0
 11
450.48986146050993
 21
476.24443728499512
 31
0.0
  0
LINE
  5
D77
  8
0
  6
CONTINUOUS
 62
     7
 10
450.18990715196298
 20
476.53920156306373
 30
0.0
 11
450.14268708679049
 21
479.24443728499512
 31
0.0
  0
LINE
  5
D7A
  8
0
  6
CONTINUOUS
 62
     7
 10
441.84268708679048
 20
476.2444372849946
 30
0.0
 11
441.78986146050983
 21
476.2444372849946
 31
0.0
  0
ARC
  5
D7B
  8
0
  6
CONTINUOUS
 62
     7
 10
441.78986146050983
 20
476.54443728499479
 30
0.0
 40
0.2999999999999676
 50
180.9999999999757
 51
270.0
  0
LINE
  5
D7D
  8
0
  6
CONTINUOUS
 62
     7
 10
441.489907151963
 20
476.53920156306373
 30
0.0
 11
441.4426870867905
 21
479.24443728499512
 31
0.0
  0
LINE
  5
D7F
  8
0
  6
CONTINUOUS
 62
     7
 10
439.1806751874937
 20
509.2444372849946
 30
0.0
 11
443.84268708679059
 21
509.2444372849946
 31
0.0
  0
LINE
  5
D80
  8
0
  6
CONTINUOUS
 62
     7
 10
443.84268708679059
 20
508.44455912886963
 30
0.0
 11
438.35237710948729
 21
508.44455912886963
 31
0.0
  0
LINE
  5
D82
  8
0
  6
CONTINUOUS
 62
     7
 10
438.35237710948729
 20
508.44455912886963
 30
0.0
 11
439.1806751874937
 21
509.2444372849946
 31
0.0
  0
LINE
  5
D87
  8
52
  6
CONTINUOUS
 10
152.38037243291001
 20
424.97014801991151
 30
0.0
 11
153.61392577784969
 21
427.10672508719381
 31
0.0
  0
LINE
  5
D88
  8
52
  6
CONTINUOUS
 10
153.28032093060679
 20
421.65108069118861
 30
0.0
 11
152.04676758566711
 21
419.51450362390619
 31
0.0
  0
ARC
  5
D89
  8
52
  6
CONTINUOUS
 10
152.8303466817585
 20
423.31061435555011
 30
0.0
 40
5.8835966883778923
 50
224.9203580856404
 51
287.38889085560169
  0
ARC
  5
D8A
  8
52
  6
CONTINUOUS
 10
152.8303466817585
 20
423.31061435554989
 30
0.0
 40
5.4171504320407058
 50
211.79606497097791
 51
293.65605070683472
  0
ARC
  5
D8B
  8
52
  6
CONTINUOUS
 10
152.8303466817585
 20
423.31061435554989
 30
0.0
 40
5.000000000000056
 50
90.0
 51
180.0
  0
ARC
  5
D8C
  8
52
  6
CONTINUOUS
 10
152.53034668175849
 20
414.61061435555013
 30
0.0
 40
2.7076757791580799
 50
270.0
 51
0.0
  0
ARC
  5
D8D
  8
52
  6
CONTINUOUS
 10
152.53034668175849
 20
414.61061435554979
 30
0.0
 40
3.200000000000073
 50
270.0
 51
0.0
  0
LINE
  5
D8E
  8
52
  6
CONTINUOUS
 10
152.53034668175849
 20
411.90293857639199
 30
0.0
 11
150.8303466817585
 21
411.90293857639199
 31
0.0
  0
LINE
  5
D8F
  8
52
  6
CONTINUOUS
 10
150.8303466817585
 20
411.4106143555498
 30
0.0
 11
152.53034668175849
 21
411.4106143555498
 31
0.0
  0
ARC
  5
D90
  8
52
  6
CONTINUOUS
 10
151.7003726101554
 20
419.71449088386498
 30
0.0
 40
0.3999804785336385
 50
252.55569099489921
 51
330.00049279639381
  0
LINE
  5
D91
  8
52
  6
CONTINUOUS
 10
151.1113223678951
 20
423.27208882995711
 30
0.0
 11
152.00419860868439
 21
424.8185958438753
 31
0.0
  0
ARC
  5
D92
  8
52
  6
CONTINUOUS
 10
152.8303466817585
 20
423.31061435554989
 30
0.0
 40
1.7194559627323649
 50
105.17070338957519
 51
118.71614348025901
  0
LINE
  5
D93
  8
52
  6
CONTINUOUS
 10
155.73034668175859
 20
414.61061435554979
 30
0.0
 11
155.73034668175859
 21
425.31061435554989
 31
0.0
  0
LINE
  5
D94
  8
52
  6
CONTINUOUS
 10
155.2380224609166
 20
417.21883161151482
 30
0.0
 11
155.2380224609166
 21
414.61061435555013
 31
0.0
  0
ARC
  5
D95
  8
52
  6
CONTINUOUS
 10
152.8303466817585
 20
423.31061435554989
 30
0.0
 40
4.1694559627323402
 50
47.443816208412073
 51
72.556183791587955
  0
ARC
  5
D96
  8
52
  6
CONTINUOUS
 10
155.3796939276298
 20
426.08726234305561
 30
0.0
 40
0.3999804785073808
 50
329.99950719581062
 51
47.444309001344052
  0
LINE
  5
D97
  8
52
  6
CONTINUOUS
 10
155.72608546289501
 20
425.88726912446151
 30
0.0
 11
154.49253211795531
 21
423.75069205717909
 31
0.0
  0
ARC
  5
D98
  8
52
  6
CONTINUOUS
 10
152.8303466817585
 20
423.31061435554989
 30
0.0
 40
1.719455962732388
 50
1.283856519743702
 51
14.82929661042624
  0
ARC
  5
D99
  8
52
  6
CONTINUOUS
 10
153.9603207533614
 20
426.90673782724889
 30
0.0
 40
0.3999804785236378
 50
72.55569099279117
 51
150.00049279787549
  0
ARC
  5
D9A
  8
52
  6
CONTINUOUS
 10
156.67395948788541
 20
428.11069172399249
 30
0.0
 40
0.199922662742291
 50
315.53995529966159
 51
90.032002046583614
  0
ARC
  5
D9B
  8
52
  6
CONTINUOUS
 10
159.5303466817586
 20
425.31061435554989
 30
0.0
 40
3.799999999999939
 50
135.57195732976291
 51
180.0
  0
LINE
  5
D9C
  8
52
  6
CONTINUOUS
 10
156.67384782287121
 20
428.31061435554989
 30
0.0
 11
152.8303466817585
 21
428.31061435554989
 31
0.0
  0
LINE
  5
D9D
  8
52
  6
CONTINUOUS
 10
154.5493709956219
 20
423.34913988114289
 30
0.0
 11
153.65649475483261
 21
421.8026328672247
 31
0.0
  0
ARC
  5
D9E
  8
52
  6
CONTINUOUS
 10
154.7379968501952
 20
417.21869310592388
 30
0.0
 40
0.5000256299074906
 50
0.0158707582644713
 51
107.373020097615
  0
ARC
  5
D9F
  8
52
  6
CONTINUOUS
 10
155.20515925787291
 20
417.89168791586729
 30
0.0
 40
0.4993103440036228
 50
359.89214810158302
 51
113.7639026063768
  0
ARC
  5
DA0
  8
52
  6
CONTINUOUS
 10
152.8303466817585
 20
423.31061435554989
 30
0.0
 40
1.7194559627323649
 50
285.1707033895799
 51
298.71614348026043
  0
LINE
  5
DA1
  8
52
  6
CONTINUOUS
 10
148.5275460832911
 20
418.85273135181689
 30
0.0
 11
148.5275460832911
 21
411.58351790585948
 31
0.0
  0
LINE
  5
DA2
  8
52
  6
CONTINUOUS
 10
148.0303466817586
 20
421.53226598923271
 30
0.0
 11
148.0303466817586
 21
410.26708569226389
 31
0.0
  0
POLYLINE
  5
DA3
  8
52
  6
CONTINUOUS
 66
     1
 10
0.0
 20
0.0
 30
0.0
 70
   128
  0
VERTEX
  5
1482
  8
52
  6
CONTINUOUS
 10
148.62536545867761
 20
411.29329069520941
 30
0.0
  0
VERTEX
  5
1483
  8
52
  6
CONTINUOUS
 10
148.61357931393991
 20
411.2867712629602
 30
0.0
  0
VERTEX
  5
1484
  8
52
  6
CONTINUOUS
 10
148.601380348904
 20
411.28106026251788
 30
0.0
  0
VERTEX
  5
1485
  8
52
  6
CONTINUOUS
 10
148.58882394121241
 20
411.27618361917553
 30
0.0
  0
VERTEX
  5
1486
  8
52
  6
CONTINUOUS
 10
148.57596709113199
 20
411.27216347063182
 30
0.0
  0
VERTEX
  5
1487
  8
52
  6
CONTINUOUS
 10
148.56286816279859
 20
411.2690180664963
 30
0.0
  0
VERTEX
  5
1488
  8
52
  6
CONTINUOUS
 10
148.5495866192704
 20
411.26676168544492
 30
0.0
  0
VERTEX
  5
1489
  8
52
  6
CONTINUOUS
 10
148.5361827525951
 20
411.26540457040068
 30
0.0
  0
VERTEX
  5
148A
  8
52
  6
CONTINUOUS
 10
148.52271741010941
 20
411.26495288203688
 30
0.0
  0
SEQEND
  5
148B
  8
52
  6
CONTINUOUS
  0
ARC
  5
DA4
  8
52
  6
CONTINUOUS
 10
156.94496621381171
 20
406.48881357417372
 30
0.0
 40
9.6822405258081794
 50
150.44303517933611
 51
157.0313724041404
  0
ARC
  5
DA5
  8
52
  6
CONTINUOUS
 10
145.54208169001359
 20
411.46945119834709
 30
0.0
 40
2.9876426923729862
 50
356.07514679760988
 51
2.1880560765446329
  0
ARC
  5
DA6
  8
52
  6
CONTINUOUS
 10
148.0302248813534
 20
410.46713394069678
 30
0.0
 40
0.2000482855123477
 50
270.03488482577689
 51
314.44256926194748
  0
ARC
  5
DA7
  8
52
  6
CONTINUOUS
 10
150.8303466817585
 20
407.61061435555013
 30
0.0
 40
4.292324220842004
 50
90.0
 51
120.91082273053109
  0
ARC
  5
DA8
  8
52
  6
CONTINUOUS
 10
150.8303466817585
 20
407.6106143555499
 30
0.0
 40
3.7999999999999821
 50
90.0
 51
134.4280426702382
  0
ARC
  5
DA9
  8
52
  6
CONTINUOUS
 10
152.8303466817585
 20
423.31061435554989
 30
0.0
 40
1.7194559627323669
 50
181.28385651974361
 51
194.82929661041939
  0
LINE
  5
DAA
  8
52
  6
CONTINUOUS
 10
149.93460790062181
 20
420.73395958663849
 30
0.0
 11
151.16816124556181
 21
422.87053665392091
 31
0.0
  0
ARC
  5
DAB
  8
52
  6
CONTINUOUS
 10
152.8303466817585
 20
423.31061435554989
 30
0.0
 40
4.1694559627323402
 50
227.44381620841079
 51
252.5561837915879
  0
ARC
  5
DAC
  8
52
  6
CONTINUOUS
 10
150.28099943606841
 20
420.53396636809521
 30
0.0
 40
0.3999804786390993
 50
149.99950721508969
 51
227.44430899153579
  0
LINE
  5
DAD
  8
52
  6
CONTINUOUS
 10
147.8303466817585
 20
423.31061435554989
 30
0.0
 11
147.8303466817585
 21
421.53226598923271
 31
0.0
  0
POLYLINE
  5
DAE
  8
52
  6
CONTINUOUS
 66
     1
 10
0.0
 20
0.0
 30
0.0
 70
   128
  0
VERTEX
  5
148C
  8
52
  6
CONTINUOUS
 10
148.52275721111661
 20
419.2146890505478
 30
0.0
  0
VERTEX
  5
148D
  8
52
  6
CONTINUOUS
 10
148.54237713701079
 20
419.2137278652242
 30
0.0
  0
VERTEX
  5
148E
  8
52
  6
CONTINUOUS
 10
148.5618065978251
 20
419.21084761280082
 30
0.0
  0
VERTEX
  5
148F
  8
52
  6
CONTINUOUS
 10
148.58085809338669
 20
419.20607608858501
 30
0.0
  0
VERTEX
  5
1490
  8
52
  6
CONTINUOUS
 10
148.59934777100139
 20
419.1994593392285
 30
0.0
  0
VERTEX
  5
1491
  8
52
  6
CONTINUOUS
 10
148.6170971996882
 20
419.19106121836359
 30
0.0
  0
VERTEX
  5
1492
  8
52
  6
CONTINUOUS
 10
148.6339350920918
 20
419.18096277039649
 30
0.0
  0
VERTEX
  5
1493
  8
52
  6
CONTINUOUS
 10
148.64969895745821
 20
419.16926144840482
 30
0.0
  0
VERTEX
  5
1494
  8
52
  6
CONTINUOUS
 10
148.66423666971889
 20
419.1560701736841
 30
0.0
  0
SEQEND
  5
1495
  8
52
  6
CONTINUOUS
  0
ARC
  5
DAF
  8
52
  6
CONTINUOUS
 10
148.0534977093227
 20
420.35219100688118
 30
0.0
 40
0.2016321231892161
 50
31.097022348979511
 51
89.442193650327951
  0
ARC
  5
DB0
  8
52
  6
CONTINUOUS
 10
159.74537167697031
 20
423.88199145042182
 30
0.0
 40
12.154455444036721
 50
195.8919262113541
 51
202.5816297145812
  0
ARC
  5
DB1
  8
52
  6
CONTINUOUS
 10
141.05185768762149
 20
418.93483497455009
 30
0.0
 40
7.4761392438887793
 50
359.37076003052402
 51
2.1452522387217332
  0
LINE
  5
DB2
  8
52
  6
CONTINUOUS
 10
148.0303466817586
 20
421.53226598923271
 30
0.0
 11
147.8303466817585
 21
421.53226598923271
 31
0.0
  0
LINE
  5
DB3
  8
52
  6
CONTINUOUS
 10
341.28032093060909
 20
424.97014801991151
 30
0.0
 11
340.04676758566939
 21
427.10672508719381
 31
0.0
  0
LINE
  5
DB4
  8
52
  6
CONTINUOUS
 10
337.93460790062409
 20
425.88726912446151
 30
0.0
 11
339.16816124556379
 21
423.75069205717909
 31
0.0
  0
LINE
  5
DB5
  8
52
  6
CONTINUOUS
 10
336.98684554064789
 20
428.31061435554989
 30
0.0
 11
340.83034668176049
 21
428.31061435554989
 31
0.0
  0
ARC
  5
DB6
  8
52
  6
CONTINUOUS
 10
334.1303466817605
 20
425.31061435554989
 30
0.0
 40
3.799999999999939
 50
0.000000000000007
 51
44.428042670237097
  0
ARC
  5
DB7
  8
52
  6
CONTINUOUS
 10
339.70037261015767
 20
426.90673782724889
 30
0.0
 40
0.3999804785236378
 50
29.99950720212443
 51
107.4443090072088
  0
ARC
  5
DB8
  8
52
  6
CONTINUOUS
 10
338.28099943588921
 20
426.08726234305561
 30
0.0
 40
0.3999804785073808
 50
132.5556909986559
 51
210.00049280418929
  0
ARC
  5
DB9
  8
52
  6
CONTINUOUS
 10
340.83034668176049
 20
423.31061435554989
 30
0.0
 40
4.1694559627323402
 50
107.443816208412
 51
132.5561837915879
  0
ARC
  5
DBA
  8
52
  6
CONTINUOUS
 10
336.98673387563372
 20
428.11069172399249
 30
0.0
 40
0.199922662742291
 50
89.967997953416386
 51
224.4600447003383
  0
ARC
  5
DBB
  8
52
  6
CONTINUOUS
 10
340.83034668176049
 20
423.31061435554989
 30
0.0
 40
5.000000000000056
 50
0.000000000000007
 51
90.0
  0
LINE
  5
DBC
  8
52
  6
CONTINUOUS
 10
340.38037243291222
 20
421.65108069118861
 30
0.0
 11
341.61392577785199
 21
419.51450362390619
 31
0.0
  0
LINE
  5
DBD
  8
52
  6
CONTINUOUS
 10
343.72608546289729
 20
420.73395958663849
 30
0.0
 11
342.4925321179573
 21
422.87053665392091
 31
0.0
  0
ARC
  5
DBE
  8
52
  6
CONTINUOUS
 10
340.83034668176049
 20
423.31061435554989
 30
0.0
 40
1.7194559627323669
 50
345.17070338958058
 51
358.71614348025622
  0
LINE
  5
DBF
  8
52
  6
CONTINUOUS
 10
342.54937099562397
 20
423.27208882995711
 30
0.0
 11
341.65649475483468
 21
424.8185958438753
 31
0.0
  0
ARC
  5
DC0
  8
52
  6
CONTINUOUS
 10
340.83034668176049
 20
423.31061435554989
 30
0.0
 40
1.7194559627323649
 50
61.283856519740979
 51
74.829296610424763
  0
LINE
  5
DC1
  8
52
  6
CONTINUOUS
 10
337.93034668176051
 20
414.61061435554979
 30
0.0
 11
337.93034668176051
 21
425.31061435554989
 31
0.0
  0
ARC
  5
DC2
  8
52
  6
CONTINUOUS
 10
340.83034668176049
 20
423.31061435554989
 30
0.0
 40
1.7194559627323649
 50
241.28385651973949
 51
254.82929661041999
  0
LINE
  5
DC3
  8
52
  6
CONTINUOUS
 10
339.11132236789712
 20
423.34913988114289
 30
0.0
 11
340.00419860868641
 21
421.8026328672247
 31
0.0
  0
ARC
  5
DC4
  8
52
  6
CONTINUOUS
 10
340.83034668176049
 20
423.31061435554989
 30
0.0
 40
1.719455962732388
 50
165.1707033895737
 51
178.71614348025631
  0
ARC
  5
DC5
  8
52
  6
CONTINUOUS
 10
341.1303466817605
 20
414.61061435554979
 30
0.0
 40
3.200000000000073
 50
180.0
 51
270.0
  0
ARC
  5
DC6
  8
52
  6
CONTINUOUS
 10
341.1303466817605
 20
414.61061435555013
 30
0.0
 40
2.7076757791580799
 50
180.0
 51
270.0
  0
ARC
  5
DC7
  8
52
  6
CONTINUOUS
 10
340.83034668176049
 20
423.31061435554989
 30
0.0
 40
5.4171504320407058
 50
246.3439492931652
 51
328.20393502902198
  0
ARC
  5
DC8
  8
52
  6
CONTINUOUS
 10
340.83034668176049
 20
423.31061435555011
 30
0.0
 40
5.8835966883778923
 50
252.61110914439811
 51
315.07964191435951
  0
ARC
  5
DC9
  8
52
  6
CONTINUOUS
 10
342.8303466817606
 20
407.61061435555013
 30
0.0
 40
4.292324220842004
 50
59.089177269468863
 51
90.0
  0
ARC
  5
DCA
  8
52
  6
CONTINUOUS
 10
348.11861167350548
 20
411.46945119834709
 30
0.0
 40
2.9876426923729862
 50
177.81194392345529
 51
183.92485320239001
  0
POLYLINE
  5
DCB
  8
52
  6
CONTINUOUS
 66
     1
 10
0.0
 20
0.0
 30
0.0
 70
   128
  0
VERTEX
  5
1496
  8
52
  6
CONTINUOUS
 10
345.03532790484149
 20
411.29329069520941
 30
0.0
  0
VERTEX
  5
1497
  8
52
  6
CONTINUOUS
 10
345.04711404957919
 20
411.2867712629602
 30
0.0
  0
VERTEX
  5
1498
  8
52
  6
CONTINUOUS
 10
345.0593130146151
 20
411.28106026251788
 30
0.0
  0
VERTEX
  5
1499
  8
52
  6
CONTINUOUS
 10
345.07186942230658
 20
411.27618361917553
 30
0.0
  0
VERTEX
  5
149A
  8
52
  6
CONTINUOUS
 10
345.08472627238712
 20
411.27216347063182
 30
0.0
  0
VERTEX
  5
149B
  8
52
  6
CONTINUOUS
 10
345.09782520072048
 20
411.2690180664963
 30
0.0
  0
VERTEX
  5
149C
  8
52
  6
CONTINUOUS
 10
345.11110674424862
 20
411.26676168544492
 30
0.0
  0
VERTEX
  5
149D
  8
52
  6
CONTINUOUS
 10
345.12451061092401
 20
411.26540457040068
 30
0.0
  0
VERTEX
  5
149E
  8
52
  6
CONTINUOUS
 10
345.13797595340969
 20
411.26495288203688
 30
0.0
  0
SEQEND
  5
149F
  8
52
  6
CONTINUOUS
  0
LINE
  5
DCC
  8
52
  6
CONTINUOUS
 10
345.133147280228
 20
418.85273135181689
 30
0.0
 11
345.133147280228
 21
411.58351790585948
 31
0.0
  0
LINE
  5
DCD
  8
52
  6
CONTINUOUS
 10
342.8303466817606
 20
411.4106143555498
 30
0.0
 11
341.1303466817605
 21
411.4106143555498
 31
0.0
  0
LINE
  5
DCE
  8
52
  6
CONTINUOUS
 10
341.1303466817605
 20
411.90293857639199
 30
0.0
 11
342.8303466817606
 21
411.90293857639199
 31
0.0
  0
LINE
  5
DCF
  8
52
  6
CONTINUOUS
 10
345.6303466817605
 20
421.53226598923271
 30
0.0
 11
345.8303466817606
 21
421.53226598923271
 31
0.0
  0
ARC
  5
DD0
  8
52
  6
CONTINUOUS
 10
352.60883567589752
 20
418.93483497455009
 30
0.0
 40
7.4761392438887793
 50
177.85474776127819
 51
180.629239969476
  0
ARC
  5
DD1
  8
52
  6
CONTINUOUS
 10
333.91532168654879
 20
423.88199145042182
 30
0.0
 40
12.154455444036721
 50
337.41837028541869
 51
344.10807378864581
  0
ARC
  5
DD2
  8
52
  6
CONTINUOUS
 10
345.60719565419629
 20
420.35219100688118
 30
0.0
 40
0.2016321231892161
 50
90.557806349672035
 51
148.90297765102039
  0
POLYLINE
  5
DD3
  8
52
  6
CONTINUOUS
 66
     1
 10
0.0
 20
0.0
 30
0.0
 70
   128
  0
VERTEX
  5
14A0
  8
52
  6
CONTINUOUS
 10
345.13793615240252
 20
419.2146890505478
 30
0.0
  0
VERTEX
  5
14A1
  8
52
  6
CONTINUOUS
 10
345.11831622650828
 20
419.2137278652242
 30
0.0
  0
VERTEX
  5
14A2
  8
52
  6
CONTINUOUS
 10
345.09888676569398
 20
419.21084761280082
 30
0.0
  0
VERTEX
  5
14A3
  8
52
  6
CONTINUOUS
 10
345.07983527013238
 20
419.20607608858501
 30
0.0
  0
VERTEX
  5
14A4
  8
52
  6
CONTINUOUS
 10
345.06134559251763
 20
419.1994593392285
 30
0.0
  0
VERTEX
  5
14A5
  8
52
  6
CONTINUOUS
 10
345.0435961638309
 20
419.19106121836359
 30
0.0
  0
VERTEX
  5
14A6
  8
52
  6
CONTINUOUS
 10
345.0267582714273
 20
419.18096277039649
 30
0.0
  0
VERTEX
  5
14A7
  8
52
  6
CONTINUOUS
 10
345.01099440606089
 20
419.16926144840482
 30
0.0
  0
VERTEX
  5
14A8
  8
52
  6
CONTINUOUS
 10
344.9964566938001
 20
419.1560701736841
 30
0.0
  0
SEQEND
  5
14A9
  8
52
  6
CONTINUOUS
  0
LINE
  5
DD4
  8
52
  6
CONTINUOUS
 10
345.8303466817606
 20
423.31061435554989
 30
0.0
 11
345.8303466817606
 21
421.53226598923271
 31
0.0
  0
ARC
  5
DD5
  8
52
  6
CONTINUOUS
 10
343.37969392745072
 20
420.53396636809521
 30
0.0
 40
0.3999804786390993
 50
312.55569100846412
 51
30.000492784910239
  0
ARC
  5
DD6
  8
52
  6
CONTINUOUS
 10
340.83034668176049
 20
423.31061435554989
 30
0.0
 40
4.1694559627323402
 50
287.44381620841199
 51
312.55618379158909
  0
ARC
  5
DD7
  8
52
  6
CONTINUOUS
 10
341.96032075336359
 20
419.71449088386498
 30
0.0
 40
0.3999804785336385
 50
209.99950720360621
 51
287.44430900510071
  0
LINE
  5
DD8
  8
52
  6
CONTINUOUS
 10
338.42267090260242
 20
417.21883161151482
 30
0.0
 11
338.42267090260242
 21
414.61061435555013
 31
0.0
  0
ARC
  5
DD9
  8
52
  6
CONTINUOUS
 10
338.45553410564611
 20
417.89168791586729
 30
0.0
 40
0.4993103440036228
 50
66.236097393623155
 51
180.1078518984169
  0
ARC
  5
DDA
  8
52
  6
CONTINUOUS
 10
338.92269651332379
 20
417.21869310592388
 30
0.0
 40
0.5000256299074906
 50
72.626979902384932
 51
179.9841292417355
  0
ARC
  5
DDB
  8
52
  6
CONTINUOUS
 10
342.8303466817606
 20
407.6106143555499
 30
0.0
 40
3.7999999999999821
 50
45.571957329761737
 51
90.0
  0
ARC
  5
DDC
  8
52
  6
CONTINUOUS
 10
336.71572714970728
 20
406.48881357417372
 30
0.0
 40
9.6822405258081794
 50
22.968627595859498
 51
29.556964820663872
  0
LINE
  5
DDD
  8
52
  6
CONTINUOUS
 10
345.6303466817605
 20
421.53226598923271
 30
0.0
 11
345.6303466817605
 21
410.26708569226389
 31
0.0
  0
ARC
  5
DDE
  8
52
  6
CONTINUOUS
 10
345.63046848216572
 20
410.46713394069678
 30
0.0
 40
0.2000482855123477
 50
225.55743073805249
 51
269.965115174223
  0
ARC
  5
DDF
  8
52
  6
CONTINUOUS
 10
340.83034668176049
 20
315.31061435555
 30
0.0
 40
5.000000000000056
 50
270.0
 51
360.0
  0
LINE
  5
DE0
  8
52
  6
CONTINUOUS
 10
337.93460790062409
 20
312.73395958663838
 30
0.0
 11
339.16816124556379
 21
314.87053665392079
 31
0.0
  0
LINE
  5
DE1
  8
52
  6
CONTINUOUS
 10
341.28032093060909
 20
313.6510806911885
 30
0.0
 11
340.04676758566939
 21
311.51450362390608
 31
0.0
  0
ARC
  5
DE2
  8
52
  6
CONTINUOUS
 10
340.83034668176049
 20
315.31061435554977
 30
0.0
 40
5.8835966883778923
 50
44.92035808564043
 51
107.3888908556018
  0
ARC
  5
DE3
  8
52
  6
CONTINUOUS
 10
340.83034668176049
 20
315.31061435555
 30
0.0
 40
5.4171504320407058
 50
31.79606497097793
 51
113.65605070683471
  0
ARC
  5
DE4
  8
52
  6
CONTINUOUS
 10
340.83034668176049
 20
315.31061435555
 30
0.0
 40
1.7194559627323649
 50
285.17070338957518
 51
298.71614348025901
  0
LINE
  5
DE5
  8
52
  6
CONTINUOUS
 10
340.38037243291222
 20
316.97014801991139
 30
0.0
 11
341.61392577785199
 21
319.10672508719369
 31
0.0
  0
ARC
  5
DE6
  8
52
  6
CONTINUOUS
 10
338.92269651332379
 20
321.40253560517601
 30
0.0
 40
0.5000256299074906
 50
180.01587075826441
 51
287.37302009761498
  0
ARC
  5
DE7
  8
52
  6
CONTINUOUS
 10
338.45553410564611
 20
320.72954079523248
 30
0.0
 40
0.4993103440036228
 50
179.89214810158299
 51
293.76390260637669
  0
LINE
  5
DE8
  8
52
  6
CONTINUOUS
 10
338.42267090260242
 20
321.40239709958507
 30
0.0
 11
338.42267090260242
 21
324.01061435554982
 31
0.0
  0
ARC
  5
DE9
  8
52
  6
CONTINUOUS
 10
340.83034668176049
 20
315.31061435555
 30
0.0
 40
1.719455962732388
 50
181.28385651974361
 51
194.82929661042621
  0
LINE
  5
DEA
  8
52
  6
CONTINUOUS
 10
339.11132236789712
 20
315.27208882995689
 30
0.0
 11
340.00419860868641
 21
316.81859584387519
 31
0.0
  0
ARC
  5
DEB
  8
52
  6
CONTINUOUS
 10
340.83034668176049
 20
315.31061435555
 30
0.0
 40
1.7194559627323649
 50
105.1707033895799
 51
118.7161434802604
  0
LINE
  5
DEC
  8
52
  6
CONTINUOUS
 10
345.6303466817605
 20
317.08896272186718
 30
0.0
 11
345.6303466817605
 21
328.354143018836
 31
0.0
  0
ARC
  5
DED
  8
52
  6
CONTINUOUS
 10
341.96032075336359
 20
318.90673782723491
 30
0.0
 40
0.3999804785336385
 50
72.555690994899265
 51
150.0004927963937
  0
ARC
  5
DEE
  8
52
  6
CONTINUOUS
 10
340.83034668176049
 20
315.31061435555
 30
0.0
 40
4.1694559627323402
 50
47.443816208410837
 51
72.556183791587955
  0
ARC
  5
DEF
  8
52
  6
CONTINUOUS
 10
343.37969392745072
 20
318.08726234300468
 30
0.0
 40
0.3999804786390993
 50
329.99950721508969
 51
47.44430899153587
  0
LINE
  5
DF0
  8
52
  6
CONTINUOUS
 10
345.8303466817606
 20
315.31061435555
 30
0.0
 11
345.8303466817606
 21
317.08896272186718
 31
0.0
  0
POLYLINE
  5
DF1
  8
52
  6
CONTINUOUS
 66
     1
 10
0.0
 20
0.0
 30
0.0
 70
   128
  0
VERTEX
  5
14AA
  8
52
  6
CONTINUOUS
 10
345.13793615240252
 20
319.40653966055208
 30
0.0
  0
VERTEX
  5
14AB
  8
52
  6
CONTINUOUS
 10
345.11831622650828
 20
319.40750084587569
 30
0.0
  0
VERTEX
  5
14AC
  8
52
  6
CONTINUOUS
 10
345.09888676569398
 20
319.41038109829918
 30
0.0
  0
VERTEX
  5
14AD
  8
52
  6
CONTINUOUS
 10
345.07983527013238
 20
319.41515262251488
 30
0.0
  0
VERTEX
  5
14AE
  8
52
  6
CONTINUOUS
 10
345.06134559251763
 20
319.42176937187139
 30
0.0
  0
VERTEX
  5
14AF
  8
52
  6
CONTINUOUS
 10
345.0435961638309
 20
319.43016749273642
 30
0.0
  0
VERTEX
  5
14B0
  8
52
  6
CONTINUOUS
 10
345.0267582714273
 20
319.4402659407034
 30
0.0
  0
VERTEX
  5
14B1
  8
52
  6
CONTINUOUS
 10
345.01099440606089
 20
319.45196726269518
 30
0.0
  0
VERTEX
  5
14B2
  8
52
  6
CONTINUOUS
 10
344.9964566938001
 20
319.46515853741568
 30
0.0
  0
SEQEND
  5
14B3
  8
52
  6
CONTINUOUS
  0
ARC
  5
DF2
  8
52
  6
CONTINUOUS
 10
345.60719565419629
 20
318.2690377042187
 30
0.0
 40
0.2016321231892161
 50
211.09702234897949
 51
269.44219365032791
  0
ARC
  5
DF3
  8
52
  6
CONTINUOUS
 10
333.91532168654879
 20
314.73923726067812
 30
0.0
 40
12.154455444036721
 50
15.891926211354139
 51
22.581629714581261
  0
ARC
  5
DF4
  8
52
  6
CONTINUOUS
 10
352.60883567589752
 20
319.6863937365498
 30
0.0
 40
7.4761392438887793
 50
179.37076003052391
 51
182.1452522387217
  0
LINE
  5
DF5
  8
52
  6
CONTINUOUS
 10
345.6303466817605
 20
317.08896272186718
 30
0.0
 11
345.8303466817606
 21
317.08896272186718
 31
0.0
  0
LINE
  5
DF6
  8
52
  6
CONTINUOUS
 10
345.133147280228
 20
319.76849735928312
 30
0.0
 11
345.133147280228
 21
327.03771080524041
 31
0.0
  0
LINE
  5
DF7
  8
52
  6
CONTINUOUS
 10
342.54937099562397
 20
315.34913988114289
 30
0.0
 11
341.65649475483468
 21
313.80263286722459
 31
0.0
  0
ARC
  5
DF8
  8
52
  6
CONTINUOUS
 10
340.83034668176049
 20
315.31061435555
 30
0.0
 40
1.7194559627323669
 50
1.2838565197437179
 51
14.829296610419449
  0
LINE
  5
DF9
  8
52
  6
CONTINUOUS
 10
343.72608546289729
 20
317.8872691244614
 30
0.0
 11
342.4925321179573
 21
315.75069205717898
 31
0.0
  0
ARC
  5
DFA
  8
52
  6
CONTINUOUS
 10
336.98673387563372
 20
310.51053698710751
 30
0.0
 40
0.199922662742291
 50
135.53995529966161
 51
270.03200204658361
  0
ARC
  5
DFB
  8
52
  6
CONTINUOUS
 10
340.83034668176049
 20
315.31061435555
 30
0.0
 40
4.1694559627323402
 50
227.44381620841199
 51
252.5561837915879
  0
ARC
  5
DFC
  8
52
  6
CONTINUOUS
 10
338.28099943588921
 20
312.53396636804439
 30
0.0
 40
0.3999804785073808
 50
149.99950719581059
 51
227.44430900134401
  0
ARC
  5
DFD
  8
52
  6
CONTINUOUS
 10
339.70037261015767
 20
311.714490883851
 30
0.0
 40
0.3999804785236378
 50
252.55569099279111
 51
330.00049279787549
  0
ARC
  5
DFE
  8
52
  6
CONTINUOUS
 10
334.1303466817605
 20
313.31061435555
 30
0.0
 40
3.799999999999939
 50
315.57195732976282
 51
360.0
  0
LINE
  5
DFF
  8
52
  6
CONTINUOUS
 10
336.98684554064789
 20
310.31061435555
 30
0.0
 11
340.83034668176049
 21
310.31061435555
 31
0.0
  0
LINE
  5
E00
  8
52
  6
CONTINUOUS
 10
337.93034668176051
 20
324.0106143555501
 30
0.0
 11
337.93034668176051
 21
313.31061435555
 31
0.0
  0
LINE
  5
E01
  8
52
  6
CONTINUOUS
 10
341.1303466817605
 20
326.7182901347079
 30
0.0
 11
342.8303466817606
 21
326.7182901347079
 31
0.0
  0
LINE
  5
E02
  8
52
  6
CONTINUOUS
 10
342.8303466817606
 20
327.21061435555009
 30
0.0
 11
341.1303466817605
 21
327.21061435555009
 31
0.0
  0
ARC
  5
E03
  8
52
  6
CONTINUOUS
 10
341.1303466817605
 20
324.01061435554982
 30
0.0
 40
2.7076757791580799
 50
90.000000000000028
 51
180.0
  0
ARC
  5
E04
  8
52
  6
CONTINUOUS
 10
341.1303466817605
 20
324.0106143555501
 30
0.0
 40
3.200000000000073
 50
90.000000000000028
 51
180.0
  0
POLYLINE
  5
E05
  8
52
  6
CONTINUOUS
 66
     1
 10
0.0
 20
0.0
 30
0.0
 70
   128
  0
VERTEX
  5
14B4
  8
52
  6
CONTINUOUS
 10
345.03532790484149
 20
327.32793801589048
 30
0.0
  0
VERTEX
  5
14B5
  8
52
  6
CONTINUOUS
 10
345.04711404957919
 20
327.33445744813969
 30
0.0
  0
VERTEX
  5
14B6
  8
52
  6
CONTINUOUS
 10
345.0593130146151
 20
327.34016844858201
 30
0.0
  0
VERTEX
  5
14B7
  8
52
  6
CONTINUOUS
 10
345.07186942230658
 20
327.34504509192442
 30
0.0
  0
VERTEX
  5
14B8
  8
52
  6
CONTINUOUS
 10
345.08472627238712
 20
327.34906524046818
 30
0.0
  0
VERTEX
  5
14B9
  8
52
  6
CONTINUOUS
 10
345.09782520072048
 20
327.35221064460359
 30
0.0
  0
VERTEX
  5
14BA
  8
52
  6
CONTINUOUS
 10
345.11110674424862
 20
327.35446702565503
 30
0.0
  0
VERTEX
  5
14BB
  8
52
  6
CONTINUOUS
 10
345.12451061092401
 20
327.35582414069921
 30
0.0
  0
VERTEX
  5
14BC
  8
52
  6
CONTINUOUS
 10
345.13797595340969
 20
327.35627582906312
 30
0.0
  0
SEQEND
  5
14BD
  8
52
  6
CONTINUOUS
  0
ARC
  5
E06
  8
52
  6
CONTINUOUS
 10
348.11861167350548
 20
327.1517775127528
 30
0.0
 40
2.9876426923729862
 50
176.0751467976099
 51
182.1880560765446
  0
ARC
  5
E07
  8
52
  6
CONTINUOUS
 10
342.8303466817606
 20
331.01061435554982
 30
0.0
 40
4.292324220842004
 50
270.0
 51
300.91082273053109
  0
ARC
  5
E08
  8
52
  6
CONTINUOUS
 10
345.63046848216572
 20
328.15409477040299
 30
0.0
 40
0.2000482855123477
 50
90.03488482577697
 51
134.4425692619474
  0
ARC
  5
E09
  8
52
  6
CONTINUOUS
 10
336.71572714970728
 20
332.13241513692623
 30
0.0
 40
9.6822405258081794
 50
330.44303517933611
 51
337.03137240414043
  0
ARC
  5
E0A
  8
52
  6
CONTINUOUS
 10
342.8303466817606
 20
331.0106143555501
 30
0.0
 40
3.7999999999999821
 50
270.0
 51
314.4280426702382
  0
ARC
  5
E0B
  8
52
  6
CONTINUOUS
 10
152.8303466817585
 20
315.31061435555
 30
0.0
 40
5.000000000000056
 50
180.0
 51
270.0
  0
ARC
  5
E0C
  8
52
  6
CONTINUOUS
 10
152.8303466817585
 20
315.31061435555
 30
0.0
 40
5.4171504320407058
 50
66.343949293165281
 51
148.20393502902201
  0
ARC
  5
E0D
  8
52
  6
CONTINUOUS
 10
152.8303466817585
 20
315.31061435554977
 30
0.0
 40
5.8835966883778923
 50
72.611109144398213
 51
135.07964191435951
  0
LINE
  5
E0E
  8
52
  6
CONTINUOUS
 10
153.28032093060679
 20
316.97014801991139
 30
0.0
 11
152.04676758566711
 21
319.10672508719369
 31
0.0
  0
LINE
  5
E0F
  8
52
  6
CONTINUOUS
 10
148.0303466817586
 20
317.08896272186718
 30
0.0
 11
148.0303466817586
 21
328.354143018836
 31
0.0
  0
LINE
  5
E10
  8
52
  6
CONTINUOUS
 10
148.5275460832911
 20
319.76849735928312
 30
0.0
 11
148.5275460832911
 21
327.03771080524041
 31
0.0
  0
LINE
  5
E11
  8
52
  6
CONTINUOUS
 10
148.0303466817586
 20
317.08896272186718
 30
0.0
 11
147.8303466817585
 21
317.08896272186718
 31
0.0
  0
ARC
  5
E12
  8
52
  6
CONTINUOUS
 10
141.05185768762149
 20
319.6863937365498
 30
0.0
 40
7.4761392438887793
 50
357.8547477612783
 51
0.6292399694760107
  0
ARC
  5
E13
  8
52
  6
CONTINUOUS
 10
159.74537167697031
 20
314.73923726067812
 30
0.0
 40
12.154455444036721
 50
157.41837028541869
 51
164.10807378864581
  0
ARC
  5
E14
  8
52
  6
CONTINUOUS
 10
148.0534977093227
 20
318.2690377042187
 30
0.0
 40
0.2016321231892161
 50
270.55780634967198
 51
328.90297765102042
  0
POLYLINE
  5
E15
  8
52
  6
CONTINUOUS
 66
     1
 10
0.0
 20
0.0
 30
0.0
 70
   128
  0
VERTEX
  5
14BE
  8
52
  6
CONTINUOUS
 10
148.52275721111661
 20
319.40653966055208
 30
0.0
  0
VERTEX
  5
14BF
  8
52
  6
CONTINUOUS
 10
148.54237713701079
 20
319.40750084587569
 30
0.0
  0
VERTEX
  5
14C0
  8
52
  6
CONTINUOUS
 10
148.5618065978251
 20
319.41038109829918
 30
0.0
  0
VERTEX
  5
14C1
  8
52
  6
CONTINUOUS
 10
148.58085809338669
 20
319.41515262251488
 30
0.0
  0
VERTEX
  5
14C2
  8
52
  6
CONTINUOUS
 10
148.59934777100139
 20
319.42176937187139
 30
0.0
  0
VERTEX
  5
14C3
  8
52
  6
CONTINUOUS
 10
148.6170971996882
 20
319.43016749273642
 30
0.0
  0
VERTEX
  5
14C4
  8
52
  6
CONTINUOUS
 10
148.6339350920918
 20
319.4402659407034
 30
0.0
  0
VERTEX
  5
14C5
  8
52
  6
CONTINUOUS
 10
148.64969895745821
 20
319.45196726269518
 30
0.0
  0
VERTEX
  5
14C6
  8
52
  6
CONTINUOUS
 10
148.66423666971889
 20
319.46515853741568
 30
0.0
  0
SEQEND
  5
14C7
  8
52
  6
CONTINUOUS
  0
LINE
  5
E16
  8
52
  6
CONTINUOUS
 10
147.8303466817585
 20
315.31061435555
 30
0.0
 11
147.8303466817585
 21
317.08896272186718
 31
0.0
  0
ARC
  5
E17
  8
52
  6
CONTINUOUS
 10
150.28099943606841
 20
318.08726234300468
 30
0.0
 40
0.3999804786390993
 50
132.55569100846409
 51
210.00049278491019
  0
ARC
  5
E18
  8
52
  6
CONTINUOUS
 10
152.8303466817585
 20
315.31061435555
 30
0.0
 40
4.1694559627323402
 50
107.443816208412
 51
132.55618379158909
  0
LINE
  5
E19
  8
52
  6
CONTINUOUS
 10
149.93460790062181
 20
317.8872691244614
 30
0.0
 11
151.16816124556181
 21
315.75069205717898
 31
0.0
  0
ARC
  5
E1A
  8
52
  6
CONTINUOUS
 10
152.8303466817585
 20
315.31061435555
 30
0.0
 40
1.7194559627323669
 50
165.1707033895805
 51
178.71614348025631
  0
LINE
  5
E1B
  8
52
  6
CONTINUOUS
 10
151.1113223678951
 20
315.34913988114289
 30
0.0
 11
152.00419860868439
 21
313.80263286722459
 31
0.0
  0
ARC
  5
E1C
  8
52
  6
CONTINUOUS
 10
151.7003726101554
 20
318.90673782723491
 30
0.0
 40
0.3999804785336385
 50
29.999507203606221
 51
107.44430900510071
  0
LINE
  5
E1D
  8
52
  6
CONTINUOUS
 10
155.73034668175859
 20
324.0106143555501
 30
0.0
 11
155.73034668175859
 21
313.31061435555
 31
0.0
  0
LINE
  5
E1E
  8
52
  6
CONTINUOUS
 10
155.72608546289501
 20
312.73395958663838
 30
0.0
 11
154.49253211795531
 21
314.87053665392079
 31
0.0
  0
LINE
  5
E1F
  8
52
  6
CONTINUOUS
 10
155.2380224609166
 20
321.40239709958507
 30
0.0
 11
155.2380224609166
 21
324.01061435554982
 31
0.0
  0
ARC
  5
E20
  8
52
  6
CONTINUOUS
 10
152.8303466817585
 20
315.31061435555
 30
0.0
 40
1.7194559627323649
 50
61.28385651973953
 51
74.829296610420045
  0
ARC
  5
E21
  8
52
  6
CONTINUOUS
 10
155.20515925787291
 20
320.72954079523248
 30
0.0
 40
0.4993103440036228
 50
246.23609739362311
 51
0.1078518984169126
  0
ARC
  5
E22
  8
52
  6
CONTINUOUS
 10
154.7379968501952
 20
321.40253560517601
 30
0.0
 40
0.5000256299074906
 50
252.6269799023849
 51
359.9841292417355
  0
LINE
  5
E23
  8
52
  6
CONTINUOUS
 10
154.5493709956219
 20
315.27208882995689
 30
0.0
 11
153.65649475483261
 21
316.81859584387519
 31
0.0
  0
ARC
  5
E24
  8
52
  6
CONTINUOUS
 10
152.8303466817585
 20
315.31061435555
 30
0.0
 40
1.719455962732388
 50
345.1707033895737
 51
358.71614348025622
  0
ARC
  5
E25
  8
52
  6
CONTINUOUS
 10
152.53034668175849
 20
324.0106143555501
 30
0.0
 40
3.200000000000073
 50
0.0
 51
90.000000000000028
  0
ARC
  5
E26
  8
52
  6
CONTINUOUS
 10
152.53034668175849
 20
324.01061435554982
 30
0.0
 40
2.7076757791580799
 50
0.0
 51
90.000000000000028
  0
ARC
  5
E27
  8
52
  6
CONTINUOUS
 10
150.8303466817585
 20
331.01061435554982
 30
0.0
 40
4.292324220842004
 50
239.08917726946879
 51
270.0
  0
ARC
  5
E28
  8
52
  6
CONTINUOUS
 10
145.54208169001359
 20
327.1517775127528
 30
0.0
 40
2.9876426923729862
 50
357.81194392345532
 51
3.9248532023900449
  0
POLYLINE
  5
E29
  8
52
  6
CONTINUOUS
 66
     1
 10
0.0
 20
0.0
 30
0.0
 70
   128
  0
VERTEX
  5
14C8
  8
52
  6
CONTINUOUS
 10
148.62536545867761
 20
327.32793801589048
 30
0.0
  0
VERTEX
  5
14C9
  8
52
  6
CONTINUOUS
 10
148.61357931393991
 20
327.33445744813969
 30
0.0
  0
VERTEX
  5
14CA
  8
52
  6
CONTINUOUS
 10
148.601380348904
 20
327.34016844858201
 30
0.0
  0
VERTEX
  5
14CB
  8
52
  6
CONTINUOUS
 10
148.58882394121241
 20
327.34504509192442
 30
0.0
  0
VERTEX
  5
14CC
  8
52
  6
CONTINUOUS
 10
148.57596709113199
 20
327.34906524046818
 30
0.0
  0
VERTEX
  5
14CD
  8
52
  6
CONTINUOUS
 10
148.56286816279859
 20
327.35221064460359
 30
0.0
  0
VERTEX
  5
14CE
  8
52
  6
CONTINUOUS
 10
148.5495866192704
 20
327.35446702565503
 30
0.0
  0
VERTEX
  5
14CF
  8
52
  6
CONTINUOUS
 10
148.5361827525951
 20
327.35582414069921
 30
0.0
  0
VERTEX
  5
14D0
  8
52
  6
CONTINUOUS
 10
148.52271741010941
 20
327.35627582906312
 30
0.0
  0
SEQEND
  5
14D1
  8
52
  6
CONTINUOUS
  0
LINE
  5
E2A
  8
52
  6
CONTINUOUS
 10
150.8303466817585
 20
327.21061435555009
 30
0.0
 11
152.53034668175849
 21
327.21061435555009
 31
0.0
  0
LINE
  5
E2B
  8
52
  6
CONTINUOUS
 10
152.53034668175849
 20
326.7182901347079
 30
0.0
 11
150.8303466817585
 21
326.7182901347079
 31
0.0
  0
ARC
  5
E2C
  8
52
  6
CONTINUOUS
 10
150.8303466817585
 20
331.0106143555501
 30
0.0
 40
3.7999999999999821
 50
225.57195732976169
 51
270.0
  0
ARC
  5
E2D
  8
52
  6
CONTINUOUS
 10
156.94496621381171
 20
332.13241513692623
 30
0.0
 40
9.6822405258081794
 50
202.9686275958594
 51
209.55696482066381
  0
ARC
  5
E2E
  8
52
  6
CONTINUOUS
 10
148.0302248813534
 20
328.15409477040299
 30
0.0
 40
0.2000482855123477
 50
45.557430738052489
 51
89.965115174223044
  0
LINE
  5
E2F
  8
52
  6
CONTINUOUS
 10
152.38037243291001
 20
313.6510806911885
 30
0.0
 11
153.61392577784969
 21
311.51450362390608
 31
0.0
  0
ARC
  5
E30
  8
52
  6
CONTINUOUS
 10
152.8303466817585
 20
315.31061435555
 30
0.0
 40
1.7194559627323649
 50
241.28385651974099
 51
254.82929661042471
  0
LINE
  5
E31
  8
52
  6
CONTINUOUS
 10
156.67384782287121
 20
310.31061435555
 30
0.0
 11
152.8303466817585
 21
310.31061435555
 31
0.0
  0
ARC
  5
E32
  8
52
  6
CONTINUOUS
 10
159.5303466817586
 20
313.31061435555
 30
0.0
 40
3.799999999999939
 50
180.0
 51
224.42804267023709
  0
ARC
  5
E33
  8
52
  6
CONTINUOUS
 10
156.67395948788541
 20
310.51053698710751
 30
0.0
 40
0.199922662742291
 50
269.96799795341627
 51
44.460044700338372
  0
ARC
  5
E34
  8
52
  6
CONTINUOUS
 10
153.9603207533614
 20
311.714490883851
 30
0.0
 40
0.3999804785236378
 50
209.99950720212439
 51
287.44430900720869
  0
ARC
  5
E35
  8
52
  6
CONTINUOUS
 10
155.3796939276298
 20
312.53396636804439
 30
0.0
 40
0.3999804785073808
 50
312.5556909986559
 51
30.000492804189399
  0
ARC
  5
E36
  8
52
  6
CONTINUOUS
 10
152.8303466817585
 20
315.31061435555
 30
0.0
 40
4.1694559627323402
 50
287.44381620841199
 51
312.5561837915879
  0
LINE
  5
10AD
  8
0
  6
CONTINUOUS
 62
     7
 10
378.06087581268167
 20
428.80092433285301
 30
0.0
 11
378.06087581268167
 21
309.82030437824631
 31
0.0
  0
LINE
  5
10AE
  8
0
  6
CONTINUOUS
 62
     7
 10
410.26099765655653
 20
407.61061435554973
 30
0.0
 11
410.26099765655653
 21
331.01061435554982
 31
0.0
  0
LINE
  5
10AF
  8
0
  6
CONTINUOUS
 62
     7
 10
407.26099765655653
 20
315.31061435554972
 30
0.0
 11
407.26099765655653
 21
423.31061435554972
 31
0.0
  0
LINE
  5
10B0
  8
0
  6
CONTINUOUS
 62
     7
 10
377.26099765655653
 20
315.31061435554972
 30
0.0
 11
377.26099765655653
 21
423.31061435554972
 31
0.0
  0
LINE
  5
10B1
  8
0
  6
CONTINUOUS
 62
     7
 10
378.06087581268167
 20
309.82030437824631
 30
0.0
 11
407.26099765655653
 21
309.31061435554972
 31
0.0
  0
LINE
  5
10B2
  8
0
  6
CONTINUOUS
 62
     7
 10
378.06087581268167
 20
309.82030437824631
 30
0.0
 11
377.26099765655653
 21
310.64860245625277
 31
0.0
  0
LINE
  5
10B3
  8
0
  6
CONTINUOUS
 62
     7
 10
377.26099765655653
 20
310.64860245625277
 30
0.0
 11
377.26099765655653
 21
315.31061435554972
 31
0.0
  0
LINE
  5
10B4
  8
0
  6
CONTINUOUS
 62
     7
 10
410.26099765655653
 20
324.01061435554948
 30
0.0
 11
410.26099765655653
 21
313.31061435554972
 31
0.0
  0
LINE
  5
10B5
  8
0
  6
CONTINUOUS
 62
     7
 10
409.9662333784878
 20
312.95783442072212
 30
0.0
 11
407.26099765655653
 21
312.91061435554963
 31
0.0
  0
ARC
  5
10B6
  8
0
  6
CONTINUOUS
 62
     7
 10
409.96099765655651
 20
313.25778872926901
 30
0.0
 40
0.3000000000000264
 50
270.99999999999682
 51
0.0
  0
LINE
  5
10B7
  8
0
  6
CONTINUOUS
 62
     7
 10
410.26099765655653
 20
313.31061435554972
 30
0.0
 11
410.26099765655653
 21
313.25778872926901
 31
0.0
  0
LINE
  5
10B8
  8
0
  6
CONTINUOUS
 62
     7
 10
407.26099765655653
 20
309.31061435554972
 30
0.0
 11
407.26099765655653
 21
315.31061435554972
 31
0.0
  0
LINE
  5
10B9
  8
0
  6
CONTINUOUS
 62
     7
 10
409.9662333784878
 20
330.65783442072222
 30
0.0
 11
407.26099765655653
 21
330.6106143555499
 31
0.0
  0
LINE
  5
10BA
  8
0
  6
CONTINUOUS
 62
     7
 10
410.26099765655653
 20
331.01061435554982
 30
0.0
 11
410.26099765655653
 21
330.95778872926928
 31
0.0
  0
ARC
  5
10BB
  8
0
  6
CONTINUOUS
 62
     7
 10
409.96099765655651
 20
330.95778872926928
 30
0.0
 40
0.3000000000000833
 50
270.99999999999682
 51
0.0
  0
LINE
  5
10BC
  8
0
  6
CONTINUOUS
 62
     7
 10
410.26099765655653
 20
330.957788729269
 30
0.0
 11
410.26099765655653
 21
324.01061435554948
 31
0.0
  0
LINE
  5
10BD
  8
0
  6
CONTINUOUS
 62
     7
 10
378.06087581268167
 20
428.80092433285301
 30
0.0
 11
407.26099765655653
 21
429.31061435554977
 31
0.0
  0
LINE
  5
10BE
  8
0
  6
CONTINUOUS
 62
     7
 10
377.26099765655653
 20
427.9726262548466
 30
0.0
 11
378.06087581268167
 21
428.80092433285301
 31
0.0
  0
LINE
  5
10BF
  8
0
  6
CONTINUOUS
 62
     7
 10
377.26099765655653
 20
423.31061435554972
 30
0.0
 11
377.26099765655653
 21
427.9726262548466
 31
0.0
  0
LINE
  5
10C0
  8
0
  6
CONTINUOUS
 62
     7
 10
410.26099765655653
 20
425.31061435554972
 30
0.0
 11
410.26099765655653
 21
414.61061435554973
 31
0.0
  0
LINE
  5
10C1
  8
0
  6
CONTINUOUS
 62
     7
 10
409.9662333784878
 20
407.9633942903771
 30
0.0
 11
407.26099765655653
 21
408.01061435554959
 31
0.0
  0
ARC
  5
10C2
  8
0
  6
CONTINUOUS
 62
     7
 10
409.96099765655651
 20
407.66343998183021
 30
0.0
 40
0.2999999999999696
 50
0.0
 51
89.000000000003112
  0
LINE
  5
10C3
  8
0
  6
CONTINUOUS
 62
     7
 10
410.26099765655653
 20
407.66343998183021
 30
0.0
 11
410.26099765655653
 21
407.61061435554973
 31
0.0
  0
LINE
  5
10C4
  8
0
  6
CONTINUOUS
 62
     7
 10
410.26099765655653
 20
414.61061435554973
 30
0.0
 11
410.26099765655653
 21
407.66343998183021
 31
0.0
  0
LINE
  5
10C5
  8
0
  6
CONTINUOUS
 62
     7
 10
409.9662333784878
 20
425.66339429037731
 30
0.0
 11
407.26099765655653
 21
425.71061435554958
 31
0.0
  0
ARC
  5
10C6
  8
0
  6
CONTINUOUS
 62
     7
 10
409.96099765655651
 20
425.3634399818302
 30
0.0
 40
0.3000000000000264
 50
0.0
 51
89.000000000003112
  0
LINE
  5
10C7
  8
0
  6
CONTINUOUS
 62
     7
 10
410.26099765655653
 20
425.3634399818302
 30
0.0
 11
410.26099765655653
 21
425.31061435554972
 31
0.0
  0
LINE
  5
10C8
  8
0
  6
CONTINUOUS
 62
     7
 10
407.26099765655653
 20
423.31061435554972
 30
0.0
 11
407.26099765655653
 21
429.31061435554977
 31
0.0
  0
POLYLINE
  5
10C9
  8
0
  6
CONTINUOUS
 62
     7
 66
     1
 10
0.0
 20
0.0
 30
0.0
 70
   128
  0
VERTEX
  5
14D2
  8
0
  6
CONTINUOUS
 62
     7
 10
443.15274362633352
 20
419.16855204394437
 30
0.0
  0
VERTEX
  5
14D3
  8
0
  6
CONTINUOUS
 62
     7
 10
443.1737727300391
 20
419.19889418022638
 30
0.0
  0
VERTEX
  5
14D4
  8
0
  6
CONTINUOUS
 62
     7
 10
443.18154616054511
 20
419.21189639536931
 30
0.0
  0
SEQEND
  5
14D5
  8
0
  6
CONTINUOUS
 62
     7
  0
POLYLINE
  5
10CA
  8
0
  6
CONTINUOUS
 62
     7
 66
     1
 10
0.0
 20
0.0
 30
0.0
 70
   128
  0
VERTEX
  5
14D6
  8
0
  6
CONTINUOUS
 62
     7
 10
447.0330517177045
 20
425.88442100833799
 30
0.0
  0
VERTEX
  5
14D7
  8
0
  6
CONTINUOUS
 62
     7
 10
446.9481843138293
 20
425.87756729324389
 30
0.0
  0
VERTEX
  5
14D8
  8
0
  6
CONTINUOUS
 62
     7
 10
446.76237529628878
 20
425.86074210668522
 30
0.0
  0
SEQEND
  5
14D9
  8
0
  6
CONTINUOUS
 62
     7
  0
POLYLINE
  5
10CB
  8
0
  6
CONTINUOUS
 62
     7
 66
     1
 10
0.0
 20
0.0
 30
0.0
 70
   128
  0
VERTEX
  5
14DA
  8
0
  6
CONTINUOUS
 62
     7
 10
443.0940557761607
 20
419.50702631942693
 30
0.0
  0
VERTEX
  5
14DB
  8
0
  6
CONTINUOUS
 62
     7
 10
443.12650907129398
 20
419.43613832480492
 30
0.0
  0
VERTEX
  5
14DC
  8
0
  6
CONTINUOUS
 62
     7
 10
443.20888745650348
 20
419.26077421144902
 30
0.0
  0
SEQEND
  5
14DD
  8
0
  6
CONTINUOUS
 62
     7
  0
POLYLINE
  5
10CC
  8
0
  6
CONTINUOUS
 62
     7
 66
     1
 10
0.0
 20
0.0
 30
0.0
 70
   128
  0
VERTEX
  5
14DE
  8
0
  6
CONTINUOUS
 62
     7
 10
444.5913183974202
 20
427.11420239167307
 30
0.0
  0
VERTEX
  5
14DF
  8
0
  6
CONTINUOUS
 62
     7
 10
444.55886510228709
 20
427.18509038629469
 30
0.0
  0
VERTEX
  5
14E0
  8
0
  6
CONTINUOUS
 62
     7
 10
444.47648671707742
 20
427.36045449965081
 30
0.0
  0
SEQEND
  5
14E1
  8
0
  6
CONTINUOUS
 62
     7
  0
POLYLINE
  5
10CD
  8
0
  6
CONTINUOUS
 62
     7
 66
     1
 10
0.0
 20
0.0
 30
0.0
 70
   128
  0
VERTEX
  5
14E2
  8
0
  6
CONTINUOUS
 62
     7
 10
447.06171050013188
 20
425.93253817325041
 30
0.0
  0
VERTEX
  5
14E3
  8
0
  6
CONTINUOUS
 62
     7
 10
447.0782546109873
 20
425.964178110548
 30
0.0
  0
VERTEX
  5
14E4
  8
0
  6
CONTINUOUS
 62
     7
 10
447.08484654247047
 20
425.97915407528342
 30
0.0
  0
SEQEND
  5
14E5
  8
0
  6
CONTINUOUS
 62
     7
  0
POLYLINE
  5
10CE
  8
0
  6
CONTINUOUS
 62
     7
 66
     1
 10
0.0
 20
0.0
 30
0.0
 70
   128
  0
VERTEX
  5
14E6
  8
0
  6
CONTINUOUS
 62
     7
 10
444.53263054724761
 20
427.45267666715552
 30
0.0
  0
VERTEX
  5
14E7
  8
0
  6
CONTINUOUS
 62
     7
 10
444.51160144354202
 20
427.42233453087329
 30
0.0
  0
VERTEX
  5
14E8
  8
0
  6
CONTINUOUS
 62
     7
 10
444.50382801303601
 20
427.40933231573058
 30
0.0
  0
SEQEND
  5
14E9
  8
0
  6
CONTINUOUS
 62
     7
  0
ARC
  5
10CF
  8
0
  6
CONTINUOUS
 62
     7
 10
443.84268708679059
 20
423.31061435555
 30
0.0
 40
2.9500000000000011
 50
265.07022794934147
 51
34.92977205065673
  0
LINE
  5
10D0
  8
0
  6
CONTINUOUS
 62
     7
 10
444.29266133563891
 20
421.65108069118838
 30
0.0
 11
443.05910799069909
 21
419.51450362390602
 31
0.0
  0
ARC
  5
10D1
  8
0
  6
CONTINUOUS
 62
     7
 10
481.38910760366451
 20
399.58454347784601
 30
0.0
 40
43.154392508445717
 50
149.6582061486549
 51
151.201916072339
  0
ARC
  5
10D2
  8
0
  6
CONTINUOUS
 62
     7
 10
443.84268708679059
 20
423.31061435555
 30
0.0
 40
4.199131121059887
 50
260.54306487615969
 51
39.45693512383626
  0
ARC
  5
10D3
  8
0
  6
CONTINUOUS
 62
     7
 10
443.84268708679059
 20
423.31061435555
 30
0.0
 40
3.876561722427986
 50
258.86523488558259
 51
41.134765114418073
  0
ARC
  5
10D4
  8
0
  6
CONTINUOUS
 62
     7
 10
442.4195450903934
 20
419.67023091705857
 30
0.0
 40
0.8892222245902082
 50
328.9735950808502
 51
332.58281067854642
  0
LINE
  5
10D5
  8
0
  6
CONTINUOUS
 62
     7
 10
443.57192994912373
 20
420.37306596064622
 30
0.0
 11
443.58917991993229
 21
420.37152706246872
 31
0.0
  0
LINE
  5
10D6
  8
0
  6
CONTINUOUS
 62
     7
 10
443.3031763550602
 20
419.87615435696432
 30
0.0
 11
443.58917991993229
 21
420.37152706246872
 31
0.0
  0
ARC
  5
10D7
  8
0
  6
CONTINUOUS
 62
     7
 10
457.37840609274218
 20
411.65837259906289
 30
0.0
 40
16.298589791421328
 50
149.72160557232149
 51
151.21304404766491
  0
ARC
  5
10D8
  8
0
  6
CONTINUOUS
 62
     7
 10
443.84268708679059
 20
423.31061435555
 30
0.0
 40
4.4268985625597281
 50
224.4886616188306
 51
255.51133838117059
  0
ARC
  5
10D9
  8
0
  6
CONTINUOUS
 62
     7
 10
443.84268708679059
 20
423.31061435555
 30
0.0
 40
4.1694559627323668
 50
227.44381620841079
 51
252.5561837915879
  0
ARC
  5
10DA
  8
0
  6
CONTINUOUS
 62
     7
 10
442.71271301520358
 20
419.71449088383753
 30
0.0
 40
0.3999804785123326
 50
252.5556909915345
 51
330.00049279916902
  0
ARC
  5
10DB
  8
0
  6
CONTINUOUS
 62
     7
 10
442.83520186467609
 20
419.4117625414861
 30
0.0
 40
0.3999801451459994
 50
255.51088037489231
 51
322.55089779787443
  0
ARC
  5
10DC
  8
0
  6
CONTINUOUS
 62
     7
 10
443.84268708679059
 20
423.31061435555
 30
0.0
 40
4.1991311210598958
 50
80.543064876159718
 51
219.45693512383619
  0
ARC
  5
10DD
  8
0
  6
CONTINUOUS
 62
     7
 10
443.84268708679059
 20
423.31061435555
 30
0.0
 40
3.876561722427998
 50
78.86523488557782
 51
221.13476511441809
  0
ARC
  5
10DF
  8
0
  6
CONTINUOUS
 62
     7
 10
443.84268708679059
 20
423.31061435555
 30
0.0
 40
1.7255647701880921
 50
285.25442913122669
 51
298.77298311621382
  0
ARC
  5
10E0
  8
0
  6
CONTINUOUS
 62
     7
 10
443.84268708679059
 20
423.31061435555
 30
0.0
 40
1.71945596273235
 50
285.17070338957518
 51
298.71614348026043
  0
LINE
  5
10E1
  8
0
  6
CONTINUOUS
 62
     7
 10
444.29266133563891
 20
421.65108069118838
 30
0.0
 11
444.29669317670198
 21
421.64584642985062
 31
0.0
  0
LINE
  5
10E2
  8
0
  6
CONTINUOUS
 62
     7
 10
444.29669317670198
 20
421.64584642985062
 30
0.0
 11
444.14568883369168
 21
421.38429923559289
 31
0.0
  0
ARC
  5
10E3
  8
0
  6
CONTINUOUS
 62
     7
 10
444.8501723090057
 20
427.20946616924522
 30
0.0
 40
0.3999801454540837
 50
75.510880415070005
 51
142.55089776519401
  0
ARC
  5
10E4
  8
0
  6
CONTINUOUS
 62
     7
 10
445.65402845101869
 20
426.73836619660671
 30
0.0
 40
1.6220134261552459
 50
328.2325872111856
 51
330.21100704958951
  0
ARC
  5
10E5
  8
0
  6
CONTINUOUS
 62
     7
 10
446.39203433254551
 20
426.08726234303401
 30
0.0
 40
0.3999804785975329
 50
329.99950720680829
 51
47.444308991814722
  0
ARC
  5
10E6
  8
0
  6
CONTINUOUS
 62
     7
 10
446.71544926808258
 20
426.13254807355571
 30
0.0
 40
0.3999800807930307
 50
337.44909609630042
 51
44.489125715399858
  0
ARC
  5
10E7
  8
0
  6
CONTINUOUS
 62
     7
 10
444.97266115834913
 20
426.90673782743818
 30
0.0
 40
0.3999804783904701
 50
72.555690962995328
 51
150.00049281818229
  0
ARC
  5
10E8
  8
0
  6
CONTINUOUS
 62
     7
 10
443.84268708679059
 20
423.31061435555
 30
0.0
 40
4.1694559627323118
 50
47.443816208412073
 51
72.556183791587955
  0
LINE
  5
10E9
  8
0
  6
CONTINUOUS
 62
     7
 10
443.39271283794199
 20
424.97014801991128
 30
0.0
 11
444.62626618288181
 21
427.10672508719358
 31
0.0
  0
LINE
  5
10EA
  8
0
  6
CONTINUOUS
 62
     7
 10
443.39271283794199
 20
424.97014801991128
 30
0.0
 11
443.38868099687909
 21
424.97538228124932
 31
0.0
  0
LINE
  5
10EB
  8
0
  6
CONTINUOUS
 62
     7
 10
443.38868099687909
 20
424.97538228124932
 30
0.0
 11
443.53968533988939
 21
425.236929475507
 31
0.0
  0
ARC
  5
10EC
  8
0
  6
CONTINUOUS
 62
     7
 10
406.29626656381458
 20
447.0366852367091
 30
0.0
 40
43.154392515457289
 50
329.65820614878498
 51
331.20191607222102
  0
LINE
  5
10ED
  8
0
  6
CONTINUOUS
 62
     7
 10
444.11344422445711
 20
426.24816275045379
 30
0.0
 11
444.0961942536486
 21
426.24970164863117
 31
0.0
  0
LINE
  5
10EE
  8
0
  6
CONTINUOUS
 62
     7
 10
444.38219781852092
 20
426.74507435413562
 30
0.0
 11
444.0961942536486
 21
426.24970164863117
 31
0.0
  0
ARC
  5
10EF
  8
0
  6
CONTINUOUS
 62
     7
 10
430.3069680940643
 20
434.96285610447279
 30
0.0
 40
16.298589776187018
 50
329.7216055718456
 51
331.21304404857972
  0
ARC
  5
10F0
  8
0
  6
CONTINUOUS
 62
     7
 10
453.39167655384171
 20
421.71476874058231
 30
0.0
 40
7.818998037846149
 50
147.9780872340429
 51
151.08726314605369
  0
LINE
  5
10F1
  8
0
  6
CONTINUOUS
 62
     7
 10
446.26125776310971
 20
424.99970164863117
 30
0.0
 11
446.54726132798203
 21
425.49507435413562
 31
0.0
  0
LINE
  5
10F2
  8
0
  6
CONTINUOUS
 62
     7
 10
446.26125776310971
 20
424.99970164863117
 30
0.0
 11
446.25130005278999
 21
425.0138711124772
 31
0.0
  0
ARC
  5
10F3
  8
0
  6
CONTINUOUS
 62
     7
 10
463.17414407859633
 20
414.3991526187902
 30
0.0
 40
19.976358492527659
 50
147.9023362795769
 51
151.2375414994172
  0
LINE
  5
10F4
  8
0
  6
CONTINUOUS
 62
     7
 10
445.6624257898178
 20
424.01136470532111
 30
0.0
 11
445.5114214468075
 21
423.74981751106338
 31
0.0
  0
LINE
  5
10F5
  8
0
  6
CONTINUOUS
 62
     7
 10
445.50487252298728
 20
423.75069205717898
 30
0.0
 11
445.5114214468075
 21
423.74981751106338
 31
0.0
  0
LINE
  5
10F6
  8
0
  6
CONTINUOUS
 62
     7
 10
446.73842586792699
 20
425.88726912446128
 30
0.0
 11
445.50487252298728
 21
423.75069205717898
 31
0.0
  0
LINE
  5
10F7
  8
0
  6
CONTINUOUS
 62
     7
 10
445.56785618027089
 20
423.34756533673402
 30
0.0
 11
444.67327114513063
 21
421.79809860417993
 31
0.0
  0
ARC
  5
10F8
  8
0
  6
CONTINUOUS
 62
     7
 10
443.84268708679059
 20
423.31061435555
 30
0.0
 40
1.7255647701880841
 50
1.2270168838423681
 51
14.745570868772999
  0
ARC
  5
10F9
  8
0
  6
CONTINUOUS
 62
     7
 10
443.84268708679059
 20
423.31061435555
 30
0.0
 40
1.7255647701880521
 50
105.25442913122821
 51
118.7729831163508
  0
LINE
  5
10FA
  8
0
  6
CONTINUOUS
 62
     7
 10
444.66883515986473
 20
421.80263286722447
 30
0.0
 11
444.67327114513063
 21
421.79809860417993
 31
0.0
  0
ARC
  5
10FB
  8
0
  6
CONTINUOUS
 62
     7
 10
443.84268708679059
 20
423.31061435555
 30
0.0
 40
1.7194559627323129
 50
105.1707033895768
 51
118.71614348025901
  0
LINE
  5
10FC
  8
0
  6
CONTINUOUS
 62
     7
 10
443.0165390137164
 20
424.81859584387507
 30
0.0
 11
443.01210302844942
 21
424.8231301069178
 31
0.0
  0
LINE
  5
10FD
  8
0
  6
CONTINUOUS
 62
     7
 10
445.56171140065402
 20
423.34913988114278
 30
0.0
 11
445.56785618027089
 21
423.34756533673402
 31
0.0
  0
ARC
  5
10FE
  8
0
  6
CONTINUOUS
 62
     7
 10
443.84268708679059
 20
423.31061435555
 30
0.0
 40
1.719455962732374
 50
1.283856519743702
 51
14.829296610425761
  0
LINE
  5
10FF
  8
0
  6
CONTINUOUS
 62
     7
 10
445.56171140065402
 20
423.34913988114278
 30
0.0
 11
444.66883515986473
 21
421.80263286722447
 31
0.0
  0
ARC
  5
1100
  8
0
  6
CONTINUOUS
 62
     7
 10
445.2658291300358
 20
426.9509977678718
 30
0.0
 40
0.8892222782263511
 50
148.97359519186639
 51
152.58281057171311
  0
ARC
  5
1101
  8
0
  6
CONTINUOUS
 62
     7
 10
443.84268708679059
 20
423.31061435555
 30
0.0
 40
4.4268985625597423
 50
44.48866161883069
 51
75.511338381170646
  0
ARC
  5
1102
  8
0
  6
CONTINUOUS
 62
     7
 10
443.84268708679059
 20
423.31061435555
 30
0.0
 40
2.950000000000037
 50
85.070227949335106
 51
214.92977205065759
  0
LINE
  5
1103
  8
0
  6
CONTINUOUS
 62
     7
 10
442.11751799330989
 20
423.27366337436581
 30
0.0
 11
443.01210302844942
 21
424.8231301069178
 31
0.0
  0
LINE
  5
1104
  8
0
  6
CONTINUOUS
 62
     7
 10
442.1236627729271
 20
423.27208882995689
 30
0.0
 11
443.0165390137164
 21
424.81859584387507
 31
0.0
  0
POLYLINE
  5
1105
  8
0
  6
CONTINUOUS
 62
     7
 66
     1
 10
0.0
 20
0.0
 30
0.0
 70
   128
  0
VERTEX
  5
14EA
  8
0
  6
CONTINUOUS
 62
     7
 10
440.65232245587657
 20
420.73680770276161
 30
0.0
  0
VERTEX
  5
14EB
  8
0
  6
CONTINUOUS
 62
     7
 10
440.73718985975182
 20
420.74366141785578
 30
0.0
  0
VERTEX
  5
14EC
  8
0
  6
CONTINUOUS
 62
     7
 10
440.92299887729229
 20
420.76048660441438
 30
0.0
  0
SEQEND
  5
14ED
  8
0
  6
CONTINUOUS
 62
     7
  0
POLYLINE
  5
1106
  8
0
  6
CONTINUOUS
 62
     7
 66
     1
 10
0.0
 20
0.0
 30
0.0
 70
   128
  0
VERTEX
  5
14EE
  8
0
  6
CONTINUOUS
 62
     7
 10
440.62366367344919
 20
420.6886905378492
 30
0.0
  0
VERTEX
  5
14EF
  8
0
  6
CONTINUOUS
 62
     7
 10
440.60711956259382
 20
420.65705060055171
 30
0.0
  0
VERTEX
  5
14F0
  8
0
  6
CONTINUOUS
 62
     7
 10
440.60052763111042
 20
420.64207463581653
 30
0.0
  0
SEQEND
  5
14F1
  8
0
  6
CONTINUOUS
 62
     7
  0
ARC
  5
1107
  8
0
  6
CONTINUOUS
 62
     7
 10
441.29333984109343
 20
420.53396636812141
 30
0.0
 40
0.3999804786482226
 50
149.99950722018781
 51
227.4443089956676
  0
ARC
  5
1108
  8
0
  6
CONTINUOUS
 62
     7
 10
440.96992490570022
 20
420.48868063759687
 30
0.0
 40
0.3999800809592704
 50
157.44909611437001
 51
224.4891257025983
  0
ARC
  5
1109
  8
0
  6
CONTINUOUS
 62
     7
 10
424.5112300933414
 20
432.2220760932733
 30
0.0
 40
19.976358494431839
 50
327.90233627973947
 51
331.23754149926128
  0
LINE
  5
110A
  8
0
  6
CONTINUOUS
 62
     7
 10
440.94694830565379
 20
420.73395958663838
 30
0.0
 11
442.18050165059378
 21
422.87053665392068
 31
0.0
  0
ARC
  5
110B
  8
0
  6
CONTINUOUS
 62
     7
 10
442.03134569267303
 20
419.88286253228063
 30
0.0
 40
1.6220133913788659
 50
148.23258718953309
 51
150.21100707037121
  0
ARC
  5
110C
  8
0
  6
CONTINUOUS
 62
     7
 10
434.2936976176112
 20
424.90645997178473
 30
0.0
 40
7.8189980403216719
 50
327.97808723443518
 51
331.08726314546539
  0
LINE
  5
110D
  8
0
  6
CONTINUOUS
 62
     7
 10
441.42411641047107
 20
421.62152706246877
 30
0.0
 11
441.1381128455991
 21
421.12615435696421
 31
0.0
  0
LINE
  5
110E
  8
0
  6
CONTINUOUS
 62
     7
 10
441.42411641047107
 20
421.62152706246877
 30
0.0
 11
441.4340741207908
 21
421.60735759862251
 31
0.0
  0
LINE
  5
110F
  8
0
  6
CONTINUOUS
 62
     7
 10
442.02294838376309
 20
422.60986400577877
 30
0.0
 11
442.17395272677362
 21
422.8714112000365
 31
0.0
  0
LINE
  5
1110
  8
0
  6
CONTINUOUS
 62
     7
 10
442.18050165059378
 20
422.87053665392068
 30
0.0
 11
442.17395272677362
 21
422.8714112000365
 31
0.0
  0
ARC
  5
1111
  8
0
  6
CONTINUOUS
 62
     7
 10
443.84268708679059
 20
423.31061435555
 30
0.0
 40
1.7255647701880841
 50
181.2270168838489
 51
194.745570868773
  0
LINE
  5
1112
  8
0
  6
CONTINUOUS
 62
     7
 10
442.1236627729271
 20
423.27208882995689
 30
0.0
 11
442.11751799330989
 21
423.27366337436581
 31
0.0
  0
ARC
  5
1113
  8
0
  6
CONTINUOUS
 62
     7
 10
443.84268708679059
 20
423.31061435555
 30
0.0
 40
1.719455962732388
 50
181.28385651974361
 51
194.8292966104257
  0
ARC
  5
1116
  8
0
  6
CONTINUOUS
 62
     7
 10
631.84268708679065
 20
423.31061435555
 30
0.0
 40
2.950000000000037
 50
325.07022794934232
 51
94.929772050664909
  0
LINE
  5
1117
  8
0
  6
CONTINUOUS
 62
     7
 10
628.94694830565413
 20
425.88726912446128
 30
0.0
 11
630.18050165059378
 21
423.75069205717898
 31
0.0
  0
LINE
  5
1118
  8
0
  6
CONTINUOUS
 62
     7
 10
629.42411641047147
 20
424.99970164863117
 30
0.0
 11
629.13811284559915
 21
425.49507435413562
 31
0.0
  0
LINE
  5
1119
  8
0
  6
CONTINUOUS
 62
     7
 10
632.29669317670198
 20
424.97538228124932
 30
0.0
 11
632.14568883369179
 21
425.236929475507
 31
0.0
  0
LINE
  5
111A
  8
0
  6
CONTINUOUS
 62
     7
 10
632.2926613356392
 20
424.97014801991128
 30
0.0
 11
631.05910799069943
 21
427.10672508719358
 31
0.0
  0
ARC
  5
111B
  8
0
  6
CONTINUOUS
 62
     7
 10
631.84268708679065
 20
423.31061435555
 30
0.0
 40
3.876561722427998
 50
318.86523488558191
 51
101.13476511442209
  0
ARC
  5
111C
  8
0
  6
CONTINUOUS
 62
     7
 10
631.84268708679065
 20
423.31061435555
 30
0.0
 40
4.1991311210598958
 50
320.54306487616373
 51
99.456935123840282
  0
ARC
  5
111D
  8
0
  6
CONTINUOUS
 62
     7
 10
631.84268708679065
 20
423.31061435555
 30
0.0
 40
3.876561722427986
 50
138.86523488558191
 51
281.13476511441741
  0
ARC
  5
111E
  8
0
  6
CONTINUOUS
 62
     7
 10
631.84268708679065
 20
423.31061435555
 30
0.0
 40
4.199131121059887
 50
140.5430648761637
 51
279.4569351238402
  0
ARC
  5
1121
  8
0
  6
CONTINUOUS
 62
     7
 10
631.84268708679065
 20
423.31061435555
 30
0.0
 40
1.719455962732388
 50
345.17070338957421
 51
358.71614348025622
  0
LINE
  5
1122
  8
0
  6
CONTINUOUS
 62
     7
 10
633.56171140065408
 20
423.27208882995689
 30
0.0
 11
633.56785618027129
 21
423.27366337436581
 31
0.0
  0
ARC
  5
1123
  8
0
  6
CONTINUOUS
 62
     7
 10
631.84268708679065
 20
423.31061435555
 30
0.0
 40
1.7255647701880841
 50
345.25442913122703
 51
358.77298311615112
  0
LINE
  5
1124
  8
0
  6
CONTINUOUS
 62
     7
 10
633.50487252298728
 20
422.87053665392068
 30
0.0
 11
633.51142144680762
 21
422.8714112000365
 31
0.0
  0
LINE
  5
1125
  8
0
  6
CONTINUOUS
 62
     7
 10
633.66242578981814
 20
422.60986400577877
 30
0.0
 11
633.51142144680762
 21
422.8714112000365
 31
0.0
  0
LINE
  5
1126
  8
0
  6
CONTINUOUS
 62
     7
 10
634.26125776311005
 20
421.62152706246877
 30
0.0
 11
634.25130005279038
 21
421.60735759862251
 31
0.0
  0
LINE
  5
1127
  8
0
  6
CONTINUOUS
 62
     7
 10
634.26125776311005
 20
421.62152706246877
 30
0.0
 11
634.54726132798214
 21
421.12615435696421
 31
0.0
  0
ARC
  5
1128
  8
0
  6
CONTINUOUS
 62
     7
 10
641.39167655596987
 20
424.90645997178473
 30
0.0
 40
7.8189980403216719
 50
208.9127368545345
 51
212.02191276556479
  0
ARC
  5
1129
  8
0
  6
CONTINUOUS
 62
     7
 10
633.65402848090821
 20
419.88286253228063
 30
0.0
 40
1.6220133913788659
 50
29.788992929628801
 51
31.767412810466809
  0
LINE
  5
112A
  8
0
  6
CONTINUOUS
 62
     7
 10
634.73842586792739
 20
420.73395958663838
 30
0.0
 11
633.50487252298728
 21
422.87053665392068
 31
0.0
  0
ARC
  5
112B
  8
0
  6
CONTINUOUS
 62
     7
 10
651.17414408023967
 20
432.2220760932733
 30
0.0
 40
19.976358494431839
 50
208.76245850073869
 51
212.09766372026041
  0
ARC
  5
112C
  8
0
  6
CONTINUOUS
 62
     7
 10
634.71544926788101
 20
420.48868063759687
 30
0.0
 40
0.3999800809592704
 50
315.5108742974017
 51
22.550903885629928
  0
ARC
  5
112D
  8
0
  6
CONTINUOUS
 62
     7
 10
634.39203433248781
 20
420.53396636812141
 30
0.0
 40
0.3999804786482226
 50
312.55569100433229
 51
30.000492779812141
  0
POLYLINE
  5
112E
  8
0
  6
CONTINUOUS
 62
     7
 66
     1
 10
0.0
 20
0.0
 30
0.0
 70
   128
  0
VERTEX
  5
14F2
  8
0
  6
CONTINUOUS
 62
     7
 10
635.06171050013199
 20
420.6886905378492
 30
0.0
  0
VERTEX
  5
14F3
  8
0
  6
CONTINUOUS
 62
     7
 10
635.07825461098741
 20
420.65705060055171
 30
0.0
  0
VERTEX
  5
14F4
  8
0
  6
CONTINUOUS
 62
     7
 10
635.08484654247081
 20
420.64207463581653
 30
0.0
  0
SEQEND
  5
14F5
  8
0
  6
CONTINUOUS
 62
     7
  0
POLYLINE
  5
112F
  8
0
  6
CONTINUOUS
 62
     7
 66
     1
 10
0.0
 20
0.0
 30
0.0
 70
   128
  0
VERTEX
  5
14F6
  8
0
  6
CONTINUOUS
 62
     7
 10
635.03305171770455
 20
420.73680770276161
 30
0.0
  0
VERTEX
  5
14F7
  8
0
  6
CONTINUOUS
 62
     7
 10
634.94818431382942
 20
420.74366141785578
 30
0.0
  0
VERTEX
  5
14F8
  8
0
  6
CONTINUOUS
 62
     7
 10
634.76237529628884
 20
420.76048660441438
 30
0.0
  0
SEQEND
  5
14F9
  8
0
  6
CONTINUOUS
 62
     7
  0
LINE
  5
1130
  8
0
  6
CONTINUOUS
 62
     7
 10
633.56171140065408
 20
423.27208882995689
 30
0.0
 11
632.66883515986467
 21
424.81859584387507
 31
0.0
  0
LINE
  5
1131
  8
0
  6
CONTINUOUS
 62
     7
 10
633.56785618027129
 20
423.27366337436581
 30
0.0
 11
632.67327114513182
 21
424.8231301069178
 31
0.0
  0
LINE
  5
1132
  8
0
  6
CONTINUOUS
 62
     7
 10
630.12366277292722
 20
423.34913988114278
 30
0.0
 11
631.0165390137164
 21
421.80263286722447
 31
0.0
  0
ARC
  5
1133
  8
0
  6
CONTINUOUS
 62
     7
 10
631.84268708679065
 20
423.31061435555
 30
0.0
 40
1.719455962732374
 50
165.17070338957419
 51
178.71614348025631
  0
LINE
  5
1134
  8
0
  6
CONTINUOUS
 62
     7
 10
630.12366277292722
 20
423.34913988114278
 30
0.0
 11
630.11751799331023
 21
423.34756533673402
 31
0.0
  0
LINE
  5
1135
  8
0
  6
CONTINUOUS
 62
     7
 10
632.66883515986467
 20
424.81859584387507
 30
0.0
 11
632.67327114513182
 21
424.8231301069178
 31
0.0
  0
ARC
  5
1136
  8
0
  6
CONTINUOUS
 62
     7
 10
631.84268708679065
 20
423.31061435555
 30
0.0
 40
1.7194559627323129
 50
61.283856519740979
 51
74.829296610423185
  0
LINE
  5
1137
  8
0
  6
CONTINUOUS
 62
     7
 10
631.0165390137164
 20
421.80263286722447
 30
0.0
 11
631.01210302845061
 21
421.79809860417993
 31
0.0
  0
ARC
  5
1138
  8
0
  6
CONTINUOUS
 62
     7
 10
631.84268708679065
 20
423.31061435555
 30
0.0
 40
1.7255647701880521
 50
61.227016883649192
 51
74.745570868771708
  0
ARC
  5
1139
  8
0
  6
CONTINUOUS
 62
     7
 10
631.84268708679065
 20
423.31061435555
 30
0.0
 40
1.7255647701880841
 50
165.254429131227
 51
178.7729831161576
  0
LINE
  5
113A
  8
0
  6
CONTINUOUS
 62
     7
 10
630.11751799331023
 20
423.34756533673402
 30
0.0
 11
631.01210302845061
 21
421.79809860417993
 31
0.0
  0
LINE
  5
113B
  8
0
  6
CONTINUOUS
 62
     7
 10
630.18050165059378
 20
423.75069205717898
 30
0.0
 11
630.17395272677356
 21
423.74981751106338
 31
0.0
  0
LINE
  5
113C
  8
0
  6
CONTINUOUS
 62
     7
 10
630.02294838376326
 20
424.01136470532111
 30
0.0
 11
630.17395272677356
 21
423.74981751106338
 31
0.0
  0
ARC
  5
113D
  8
0
  6
CONTINUOUS
 62
     7
 10
612.51123009498485
 20
414.3991526187902
 30
0.0
 40
19.976358492527659
 50
28.76245850058271
 51
32.097663720423022
  0
LINE
  5
113E
  8
0
  6
CONTINUOUS
 62
     7
 10
629.42411641047147
 20
424.99970164863117
 30
0.0
 11
629.43407412079114
 21
425.0138711124772
 31
0.0
  0
LINE
  5
113F
  8
0
  6
CONTINUOUS
 62
     7
 10
632.2926613356392
 20
424.97014801991128
 30
0.0
 11
632.29669317670198
 21
424.97538228124932
 31
0.0
  0
LINE
  5
1140
  8
0
  6
CONTINUOUS
 62
     7
 10
631.3886809968792
 20
421.64584642985062
 30
0.0
 11
631.5396853398895
 21
421.38429923559289
 31
0.0
  0
LINE
  5
1141
  8
0
  6
CONTINUOUS
 62
     7
 10
631.39271283794233
 20
421.65108069118838
 30
0.0
 11
631.3886809968792
 21
421.64584642985062
 31
0.0
  0
ARC
  5
1142
  8
0
  6
CONTINUOUS
 62
     7
 10
631.84268708679065
 20
423.31061435555
 30
0.0
 40
1.71945596273235
 50
241.28385651973949
 51
254.82929661042471
  0
ARC
  5
1143
  8
0
  6
CONTINUOUS
 62
     7
 10
631.84268708679065
 20
423.31061435555
 30
0.0
 40
1.7255647701880921
 50
241.22701688378621
 51
254.7455708687732
  0
ARC
  5
1144
  8
0
  6
CONTINUOUS
 62
     7
 10
632.85017230890503
 20
419.4117625414861
 30
0.0
 40
0.3999801451459994
 50
217.4491022021256
 51
284.48911962510761
  0
ARC
  5
1145
  8
0
  6
CONTINUOUS
 62
     7
 10
632.9726611583776
 20
419.71449088383753
 30
0.0
 40
0.3999804785123326
 50
209.99950720083089
 51
287.44430900846538
  0
ARC
  5
1146
  8
0
  6
CONTINUOUS
 62
     7
 10
631.84268708679065
 20
423.31061435555
 30
0.0
 40
4.1694559627323668
 50
287.44381620841199
 51
312.55618379158909
  0
ARC
  5
1147
  8
0
  6
CONTINUOUS
 62
     7
 10
631.84268708679065
 20
423.31061435555
 30
0.0
 40
4.4268985625597281
 50
284.48866161882933
 51
315.51133838116931
  0
ARC
  5
1148
  8
0
  6
CONTINUOUS
 62
     7
 10
618.30696808083894
 20
411.65837259906289
 30
0.0
 40
16.298589791421328
 50
28.786955952334999
 51
30.278394427678439
  0
LINE
  5
1149
  8
0
  6
CONTINUOUS
 62
     7
 10
632.38219781852104
 20
419.87615435696432
 30
0.0
 11
632.09619425364895
 21
420.37152706246872
 31
0.0
  0
LINE
  5
114A
  8
0
  6
CONTINUOUS
 62
     7
 10
632.11344422445745
 20
420.37306596064622
 30
0.0
 11
632.09619425364895
 21
420.37152706246872
 31
0.0
  0
ARC
  5
114B
  8
0
  6
CONTINUOUS
 62
     7
 10
633.26582908318778
 20
419.67023091705857
 30
0.0
 40
0.8892222245902082
 50
207.41718932145349
 51
211.02640491914971
  0
ARC
  5
114C
  8
0
  6
CONTINUOUS
 62
     7
 10
594.29626656991672
 20
399.58454347784601
 30
0.0
 40
43.154392508445717
 50
28.798083927660979
 51
30.34179385134507
  0
LINE
  5
114D
  8
0
  6
CONTINUOUS
 62
     7
 10
631.39271283794233
 20
421.65108069118838
 30
0.0
 11
632.62626618288198
 21
419.51450362390602
 31
0.0
  0
ARC
  5
114E
  8
0
  6
CONTINUOUS
 62
     7
 10
631.84268708679065
 20
423.31061435555
 30
0.0
 40
2.9500000000000011
 50
145.07022794934321
 51
274.92977205065841
  0
POLYLINE
  5
114F
  8
0
  6
CONTINUOUS
 62
     7
 66
     1
 10
0.0
 20
0.0
 30
0.0
 70
   128
  0
VERTEX
  5
14FA
  8
0
  6
CONTINUOUS
 62
     7
 10
632.59131839742054
 20
419.50702631942693
 30
0.0
  0
VERTEX
  5
14FB
  8
0
  6
CONTINUOUS
 62
     7
 10
632.55886510228709
 20
419.43613832480492
 30
0.0
  0
VERTEX
  5
14FC
  8
0
  6
CONTINUOUS
 62
     7
 10
632.47648671707771
 20
419.26077421144902
 30
0.0
  0
SEQEND
  5
14FD
  8
0
  6
CONTINUOUS
 62
     7
  0
POLYLINE
  5
1150
  8
0
  6
CONTINUOUS
 62
     7
 66
     1
 10
0.0
 20
0.0
 30
0.0
 70
   128
  0
VERTEX
  5
14FE
  8
0
  6
CONTINUOUS
 62
     7
 10
632.53263054724766
 20
419.16855204394437
 30
0.0
  0
VERTEX
  5
14FF
  8
0
  6
CONTINUOUS
 62
     7
 10
632.51160144354208
 20
419.19889418022638
 30
0.0
  0
VERTEX
  5
1500
  8
0
  6
CONTINUOUS
 62
     7
 10
632.50382801303613
 20
419.21189639536931
 30
0.0
  0
SEQEND
  5
1501
  8
0
  6
CONTINUOUS
 62
     7
  0
ARC
  5
1151
  8
0
  6
CONTINUOUS
 62
     7
 10
631.84268708679065
 20
423.31061435555
 30
0.0
 40
4.4268985625597423
 50
104.4886616188293
 51
135.51133838116931
  0
ARC
  5
1152
  8
0
  6
CONTINUOUS
 62
     7
 10
630.41954504354544
 20
426.9509977678718
 30
0.0
 40
0.8892222782263511
 50
27.417189428286861
 51
31.026404808133591
  0
ARC
  5
1153
  8
0
  6
CONTINUOUS
 62
     7
 10
622.29369761973953
 20
421.71476874058231
 30
0.0
 40
7.818998037846149
 50
28.912736853946331
 51
32.021912765957033
  0
ARC
  5
1154
  8
0
  6
CONTINUOUS
 62
     7
 10
645.37840607951694
 20
434.96285610447279
 30
0.0
 40
16.298589776187018
 50
208.7869559514202
 51
210.2783944281544
  0
LINE
  5
1155
  8
0
  6
CONTINUOUS
 62
     7
 10
631.30317635506015
 20
426.74507435413562
 30
0.0
 11
631.58917991993246
 21
426.24970164863117
 31
0.0
  0
LINE
  5
1156
  8
0
  6
CONTINUOUS
 62
     7
 10
631.57192994912407
 20
426.24816275045379
 30
0.0
 11
631.58917991993246
 21
426.24970164863117
 31
0.0
  0
ARC
  5
1157
  8
0
  6
CONTINUOUS
 62
     7
 10
669.38910760976648
 20
447.0366852367091
 30
0.0
 40
43.154392515457289
 50
208.79808392777889
 51
210.3417938512149
  0
ARC
  5
1158
  8
0
  6
CONTINUOUS
 62
     7
 10
631.84268708679065
 20
423.31061435555
 30
0.0
 40
4.1694559627323118
 50
107.443816208412
 51
132.5561837915879
  0
ARC
  5
1159
  8
0
  6
CONTINUOUS
 62
     7
 10
630.71271301523211
 20
426.90673782743818
 30
0.0
 40
0.3999804783904701
 50
29.999507181817631
 51
107.4443090370046
  0
ARC
  5
115A
  8
0
  6
CONTINUOUS
 62
     7
 10
628.9699249054986
 20
426.13254807355571
 30
0.0
 40
0.3999800807930307
 50
135.51087428460011
 51
202.55090390369949
  0
ARC
  5
115B
  8
0
  6
CONTINUOUS
 62
     7
 10
629.29333984103573
 20
426.08726234303401
 30
0.0
 40
0.3999804785975329
 50
132.55569100818519
 51
210.0004927931916
  0
ARC
  5
115C
  8
0
  6
CONTINUOUS
 62
     7
 10
630.03134572256249
 20
426.73836619660671
 30
0.0
 40
1.6220134261552459
 50
209.78899295041049
 51
211.76741278881431
  0
ARC
  5
115D
  8
0
  6
CONTINUOUS
 62
     7
 10
630.83520186457554
 20
427.20946616924522
 30
0.0
 40
0.3999801454540837
 50
37.449102234805927
 51
104.4891195849299
  0
POLYLINE
  5
115E
  8
0
  6
CONTINUOUS
 62
     7
 66
     1
 10
0.0
 20
0.0
 30
0.0
 70
   128
  0
VERTEX
  5
1502
  8
0
  6
CONTINUOUS
 62
     7
 10
631.15274362633363
 20
427.45267666715552
 30
0.0
  0
VERTEX
  5
1503
  8
0
  6
CONTINUOUS
 62
     7
 10
631.17377273003922
 20
427.42233453087329
 30
0.0
  0
VERTEX
  5
1504
  8
0
  6
CONTINUOUS
 62
     7
 10
631.18154616054505
 20
427.40933231573058
 30
0.0
  0
SEQEND
  5
1505
  8
0
  6
CONTINUOUS
 62
     7
  0
POLYLINE
  5
115F
  8
0
  6
CONTINUOUS
 62
     7
 66
     1
 10
0.0
 20
0.0
 30
0.0
 70
   128
  0
VERTEX
  5
1506
  8
0
  6
CONTINUOUS
 62
     7
 10
628.6236636734493
 20
425.93253817325041
 30
0.0
  0
VERTEX
  5
1507
  8
0
  6
CONTINUOUS
 62
     7
 10
628.60711956259388
 20
425.964178110548
 30
0.0
  0
VERTEX
  5
1508
  8
0
  6
CONTINUOUS
 62
     7
 10
628.60052763111071
 20
425.97915407528342
 30
0.0
  0
SEQEND
  5
1509
  8
0
  6
CONTINUOUS
 62
     7
  0
POLYLINE
  5
1160
  8
0
  6
CONTINUOUS
 62
     7
 66
     1
 10
0.0
 20
0.0
 30
0.0
 70
   128
  0
VERTEX
  5
150A
  8
0
  6
CONTINUOUS
 62
     7
 10
631.09405577616087
 20
427.11420239167307
 30
0.0
  0
VERTEX
  5
150B
  8
0
  6
CONTINUOUS
 62
     7
 10
631.12650907129398
 20
427.18509038629469
 30
0.0
  0
VERTEX
  5
150C
  8
0
  6
CONTINUOUS
 62
     7
 10
631.20888745650382
 20
427.36045449965081
 30
0.0
  0
SEQEND
  5
150D
  8
0
  6
CONTINUOUS
 62
     7
  0
POLYLINE
  5
1161
  8
0
  6
CONTINUOUS
 62
     7
 66
     1
 10
0.0
 20
0.0
 30
0.0
 70
   128
  0
VERTEX
  5
150E
  8
0
  6
CONTINUOUS
 62
     7
 10
628.65232245587663
 20
425.88442100833799
 30
0.0
  0
VERTEX
  5
150F
  8
0
  6
CONTINUOUS
 62
     7
 10
628.73718985975188
 20
425.87756729324389
 30
0.0
  0
VERTEX
  5
1510
  8
0
  6
CONTINUOUS
 62
     7
 10
628.92299887729234
 20
425.86074210668522
 30
0.0
  0
SEQEND
  5
1511
  8
0
  6
CONTINUOUS
 62
     7
  0
ARC
  5
1162
  8
0
  6
CONTINUOUS
 62
     7
 10
631.84268708679065
 20
315.31061435555
 30
0.0
 40
4.199131121059887
 50
80.543064876159761
 51
219.45693512383619
  0
ARC
  5
1163
  8
0
  6
CONTINUOUS
 62
     7
 10
631.84268708679065
 20
315.31061435555
 30
0.0
 40
3.876561722427986
 50
78.865234885582623
 51
221.134765114418
  0
LINE
  5
1164
  8
0
  6
CONTINUOUS
 62
     7
 10
632.2926613356392
 20
313.65108069118861
 30
0.0
 11
631.05910799069943
 21
311.51450362390631
 31
0.0
  0
LINE
  5
1165
  8
0
  6
CONTINUOUS
 62
     7
 10
632.29669317670198
 20
313.64584642985062
 30
0.0
 11
632.14568883369179
 21
313.38429923559289
 31
0.0
  0
LINE
  5
1166
  8
0
  6
CONTINUOUS
 62
     7
 10
629.42411641047147
 20
313.62152706246872
 30
0.0
 11
629.13811284559915
 21
313.12615435696432
 31
0.0
  0
LINE
  5
1167
  8
0
  6
CONTINUOUS
 62
     7
 10
628.94694830565413
 20
312.7339595866386
 30
0.0
 11
630.18050165059378
 21
314.87053665392102
 31
0.0
  0
ARC
  5
1168
  8
0
  6
CONTINUOUS
 62
     7
 10
631.84268708679065
 20
315.31061435555
 30
0.0
 40
2.950000000000037
 50
265.07022794933511
 51
34.929772050657618
  0
CIRCLE
  5
1169
  8
21
 10
631.84268708679065
 20
315.31061435555
 30
0.0
 40
2.0
  0
ARC
  5
116A
  8
0
  6
CONTINUOUS
 62
     7
 10
631.84268708679065
 20
315.31061435555
 30
0.0
 40
2.9500000000000011
 50
85.070227949341543
 51
214.92977205065671
  0
POLYLINE
  5
116B
  8
0
  6
CONTINUOUS
 62
     7
 66
     1
 10
0.0
 20
0.0
 30
0.0
 70
   128
  0
VERTEX
  5
1512
  8
0
  6
CONTINUOUS
 62
     7
 10
632.53263054724766
 20
319.45267666715552
 30
0.0
  0
VERTEX
  5
1513
  8
0
  6
CONTINUOUS
 62
     7
 10
632.51160144354208
 20
319.42233453087363
 30
0.0
  0
VERTEX
  5
1514
  8
0
  6
CONTINUOUS
 62
     7
 10
632.50382801303613
 20
319.40933231573069
 30
0.0
  0
SEQEND
  5
1515
  8
0
  6
CONTINUOUS
 62
     7
  0
POLYLINE
  5
116C
  8
0
  6
CONTINUOUS
 62
     7
 66
     1
 10
0.0
 20
0.0
 30
0.0
 70
   128
  0
VERTEX
  5
1516
  8
0
  6
CONTINUOUS
 62
     7
 10
632.59131839742054
 20
319.11420239167302
 30
0.0
  0
VERTEX
  5
1517
  8
0
  6
CONTINUOUS
 62
     7
 10
632.55886510228709
 20
319.18509038629492
 30
0.0
  0
VERTEX
  5
1518
  8
0
  6
CONTINUOUS
 62
     7
 10
632.47648671707771
 20
319.36045449965093
 30
0.0
  0
SEQEND
  5
1519
  8
0
  6
CONTINUOUS
 62
     7
  0
LINE
  5
116D
  8
0
  6
CONTINUOUS
 62
     7
 10
631.39271283794233
 20
316.97014801991151
 30
0.0
 11
632.62626618288198
 21
319.10672508719392
 31
0.0
  0
ARC
  5
116E
  8
0
  6
CONTINUOUS
 62
     7
 10
594.29626656991672
 20
339.03668523325388
 30
0.0
 40
43.154392508445717
 50
329.65820614865493
 51
331.20191607233892
  0
ARC
  5
116F
  8
0
  6
CONTINUOUS
 62
     7
 10
633.26582908318778
 20
318.95099779404143
 30
0.0
 40
0.8892222245902082
 50
148.9735950808502
 51
152.58281067854639
  0
LINE
  5
1170
  8
0
  6
CONTINUOUS
 62
     7
 10
632.11344422445745
 20
318.24816275045379
 30
0.0
 11
632.09619425364895
 21
318.24970164863117
 31
0.0
  0
LINE
  5
1171
  8
0
  6
CONTINUOUS
 62
     7
 10
632.38219781852104
 20
318.74507435413568
 30
0.0
 11
632.09619425364895
 21
318.24970164863117
 31
0.0
  0
ARC
  5
1172
  8
0
  6
CONTINUOUS
 62
     7
 10
618.30696808083894
 20
326.962856112037
 30
0.0
 40
16.298589791421328
 50
329.72160557232149
 51
331.21304404766499
  0
ARC
  5
1173
  8
0
  6
CONTINUOUS
 62
     7
 10
631.84268708679065
 20
315.31061435555
 30
0.0
 40
4.4268985625597281
 50
44.488661618830662
 51
75.511338381170646
  0
ARC
  5
1174
  8
0
  6
CONTINUOUS
 62
     7
 10
631.84268708679065
 20
315.31061435555
 30
0.0
 40
4.1694559627323668
 50
47.443816208410837
 51
72.556183791587955
  0
ARC
  5
1175
  8
0
  6
CONTINUOUS
 62
     7
 10
632.9726611583776
 20
318.90673782726242
 30
0.0
 40
0.3999804785123326
 50
72.555690991534533
 51
150.000492799169
  0
ARC
  5
1176
  8
0
  6
CONTINUOUS
 62
     7
 10
632.85017230890503
 20
319.20946616961379
 30
0.0
 40
0.3999801451459994
 50
75.510880374892352
 51
142.55089779787431
  0
ARC
  5
1177
  8
0
  6
CONTINUOUS
 62
     7
 10
631.84268708679065
 20
315.31061435555
 30
0.0
 40
1.7255647701880921
 50
105.2544291312267
 51
118.77298311621369
  0
ARC
  5
1178
  8
0
  6
CONTINUOUS
 62
     7
 10
631.84268708679065
 20
315.31061435555
 30
0.0
 40
1.71945596273235
 50
105.17070338957519
 51
118.7161434802604
  0
LINE
  5
1179
  8
0
  6
CONTINUOUS
 62
     7
 10
631.39271283794233
 20
316.97014801991151
 30
0.0
 11
631.3886809968792
 21
316.97538228124932
 31
0.0
  0
LINE
  5
117A
  8
0
  6
CONTINUOUS
 62
     7
 10
631.3886809968792
 20
316.97538228124932
 30
0.0
 11
631.5396853398895
 21
317.236929475507
 31
0.0
  0
LINE
  5
117B
  8
0
  6
CONTINUOUS
 62
     7
 10
632.2926613356392
 20
313.65108069118861
 30
0.0
 11
632.29669317670198
 21
313.64584642985062
 31
0.0
  0
LINE
  5
117C
  8
0
  6
CONTINUOUS
 62
     7
 10
629.42411641047147
 20
313.62152706246872
 30
0.0
 11
629.43407412079114
 21
313.6073575986228
 31
0.0
  0
ARC
  5
117D
  8
0
  6
CONTINUOUS
 62
     7
 10
612.51123009498485
 20
324.22207609230969
 30
0.0
 40
19.976358492527659
 50
327.9023362795769
 51
331.2375414994172
  0
LINE
  5
117E
  8
0
  6
CONTINUOUS
 62
     7
 10
630.02294838376326
 20
314.60986400577877
 30
0.0
 11
630.17395272677356
 21
314.87141120003639
 31
0.0
  0
LINE
  5
117F
  8
0
  6
CONTINUOUS
 62
     7
 10
630.18050165059378
 20
314.87053665392102
 30
0.0
 11
630.17395272677356
 21
314.87141120003639
 31
0.0
  0
LINE
  5
1180
  8
0
  6
CONTINUOUS
 62
     7
 10
630.11751799331023
 20
315.27366337436598
 30
0.0
 11
631.01210302845061
 21
316.82313010692002
 31
0.0
  0
ARC
  5
1181
  8
0
  6
CONTINUOUS
 62
     7
 10
631.84268708679065
 20
315.31061435555
 30
0.0
 40
1.7255647701880841
 50
181.22701688384231
 51
194.745570868773
  0
ARC
  5
1182
  8
0
  6
CONTINUOUS
 62
     7
 10
631.84268708679065
 20
315.31061435555
 30
0.0
 40
1.7255647701880521
 50
285.25442913122828
 51
298.77298311635082
  0
LINE
  5
1183
  8
0
  6
CONTINUOUS
 62
     7
 10
631.0165390137164
 20
316.81859584387541
 30
0.0
 11
631.01210302845061
 21
316.82313010692002
 31
0.0
  0
ARC
  5
1184
  8
0
  6
CONTINUOUS
 62
     7
 10
631.84268708679065
 20
315.31061435555
 30
0.0
 40
1.7194559627323129
 50
285.17070338957677
 51
298.71614348025901
  0
LINE
  5
1185
  8
0
  6
CONTINUOUS
 62
     7
 10
632.66883515986467
 20
313.80263286722482
 30
0.0
 11
632.67327114513182
 21
313.7980986041822
 31
0.0
  0
LINE
  5
1186
  8
0
  6
CONTINUOUS
 62
     7
 10
630.12366277292722
 20
315.27208882995711
 30
0.0
 11
630.11751799331023
 21
315.27366337436598
 31
0.0
  0
ARC
  5
1187
  8
0
  6
CONTINUOUS
 62
     7
 10
631.84268708679065
 20
315.31061435555
 30
0.0
 40
1.719455962732374
 50
181.28385651974361
 51
194.8292966104257
  0
LINE
  5
1188
  8
0
  6
CONTINUOUS
 62
     7
 10
630.12366277292722
 20
315.27208882995711
 30
0.0
 11
631.0165390137164
 21
316.81859584387541
 31
0.0
  0
LINE
  5
1189
  8
0
  6
CONTINUOUS
 62
     7
 10
633.56785618027129
 20
315.34756533673408
 30
0.0
 11
632.67327114513182
 21
313.7980986041822
 31
0.0
  0
LINE
  5
118A
  8
0
  6
CONTINUOUS
 62
     7
 10
633.56171140065408
 20
315.349139881143
 30
0.0
 11
632.66883515986467
 21
313.80263286722482
 31
0.0
  0
ARC
  5
118B
  8
0
  6
CONTINUOUS
 62
     7
 10
634.39203433248781
 20
318.08726234297848
 30
0.0
 40
0.3999804786482226
 50
329.99950722018781
 51
47.444308995667647
  0
ARC
  5
118C
  8
0
  6
CONTINUOUS
 62
     7
 10
651.17414408023967
 20
306.39915261782659
 30
0.0
 40
19.976358494431839
 50
147.9023362797395
 51
151.23754149926131
  0
LINE
  5
118D
  8
0
  6
CONTINUOUS
 62
     7
 10
634.73842586792739
 20
317.88726912446151
 30
0.0
 11
633.50487252298728
 21
315.75069205717921
 31
0.0
  0
ARC
  5
118E
  8
0
  6
CONTINUOUS
 62
     7
 10
641.39167655596987
 20
313.71476873931522
 30
0.0
 40
7.8189980403216719
 50
147.97808723443509
 51
151.08726314546541
  0
LINE
  5
118F
  8
0
  6
CONTINUOUS
 62
     7
 10
634.26125776311005
 20
316.99970164863117
 30
0.0
 11
634.54726132798214
 21
317.49507435413562
 31
0.0
  0
LINE
  5
1190
  8
0
  6
CONTINUOUS
 62
     7
 10
634.26125776311005
 20
316.99970164863117
 30
0.0
 11
634.25130005279038
 21
317.01387111247737
 31
0.0
  0
LINE
  5
1191
  8
0
  6
CONTINUOUS
 62
     7
 10
633.66242578981814
 20
316.01136470532111
 30
0.0
 11
633.51142144680762
 21
315.7498175110635
 31
0.0
  0
LINE
  5
1192
  8
0
  6
CONTINUOUS
 62
     7
 10
633.50487252298728
 20
315.75069205717921
 30
0.0
 11
633.51142144680762
 21
315.7498175110635
 31
0.0
  0
ARC
  5
1193
  8
0
  6
CONTINUOUS
 62
     7
 10
631.84268708679065
 20
315.31061435555
 30
0.0
 40
1.7255647701880841
 50
1.2270168838489159
 51
14.74557086877299
  0
LINE
  5
1194
  8
0
  6
CONTINUOUS
 62
     7
 10
633.56171140065408
 20
315.349139881143
 30
0.0
 11
633.56785618027129
 21
315.34756533673408
 31
0.0
  0
ARC
  5
1195
  8
0
  6
CONTINUOUS
 62
     7
 10
631.84268708679065
 20
315.31061435555
 30
0.0
 40
1.719455962732388
 50
1.2838565197437179
 51
14.829296610425761
  0
ARC
  5
1196
  8
0
  6
CONTINUOUS
 62
     7
 10
669.38910760976648
 20
291.58454347439073
 30
0.0
 40
43.154392515457289
 50
149.65820614878501
 51
151.201916072221
  0
ARC
  5
1197
  8
0
  6
CONTINUOUS
 62
     7
 10
622.29369761973953
 20
316.90645997051757
 30
0.0
 40
7.818998037846149
 50
327.9780872340429
 51
331.0872631460536
  0
ARC
  5
1198
  8
0
  6
CONTINUOUS
 62
     7
 10
631.84268708679065
 20
315.31061435555
 30
0.0
 40
4.1991311210598958
 50
260.54306487615969
 51
39.456935123836217
  0
ARC
  5
1199
  8
0
  6
CONTINUOUS
 62
     7
 10
631.84268708679065
 20
315.31061435555
 30
0.0
 40
3.876561722427998
 50
258.86523488557782
 51
41.134765114418123
  0
POLYLINE
  5
119A
  8
0
  6
CONTINUOUS
 62
     7
 66
     1
 10
0.0
 20
0.0
 30
0.0
 70
   128
  0
VERTEX
  5
151A
  8
0
  6
CONTINUOUS
 62
     7
 10
635.03305171770455
 20
317.88442100833828
 30
0.0
  0
VERTEX
  5
151B
  8
0
  6
CONTINUOUS
 62
     7
 10
634.94818431382942
 20
317.87756729324411
 30
0.0
  0
VERTEX
  5
151C
  8
0
  6
CONTINUOUS
 62
     7
 10
634.76237529628884
 20
317.86074210668551
 30
0.0
  0
SEQEND
  5
151D
  8
0
  6
CONTINUOUS
 62
     7
  0
POLYLINE
  5
119B
  8
0
  6
CONTINUOUS
 62
     7
 66
     1
 10
0.0
 20
0.0
 30
0.0
 70
   128
  0
VERTEX
  5
151E
  8
0
  6
CONTINUOUS
 62
     7
 10
635.06171050013199
 20
317.93253817325058
 30
0.0
  0
VERTEX
  5
151F
  8
0
  6
CONTINUOUS
 62
     7
 10
635.07825461098741
 20
317.96417811054818
 30
0.0
  0
VERTEX
  5
1520
  8
0
  6
CONTINUOUS
 62
     7
 10
635.08484654247081
 20
317.97915407528342
 30
0.0
  0
SEQEND
  5
1521
  8
0
  6
CONTINUOUS
 62
     7
  0
ARC
  5
119C
  8
0
  6
CONTINUOUS
 62
     7
 10
634.71544926788101
 20
318.13254807350302
 30
0.0
 40
0.3999800809592704
 50
337.44909611436998
 51
44.48912570259828
  0
ARC
  5
119D
  8
0
  6
CONTINUOUS
 62
     7
 10
633.65402848090821
 20
318.73836617881932
 30
0.0
 40
1.6220133913788659
 50
328.23258718953321
 51
330.21100707037118
  0
POLYLINE
  5
119E
  8
0
  6
CONTINUOUS
 62
     7
 66
     1
 10
0.0
 20
0.0
 30
0.0
 70
   128
  0
VERTEX
  5
1522
  8
0
  6
CONTINUOUS
 62
     7
 10
628.65232245587663
 20
312.73680770276189
 30
0.0
  0
VERTEX
  5
1523
  8
0
  6
CONTINUOUS
 62
     7
 10
628.73718985975188
 20
312.743661417856
 30
0.0
  0
VERTEX
  5
1524
  8
0
  6
CONTINUOUS
 62
     7
 10
628.92299887729234
 20
312.76048660441472
 30
0.0
  0
SEQEND
  5
1525
  8
0
  6
CONTINUOUS
 62
     7
  0
ARC
  5
119F
  8
0
  6
CONTINUOUS
 62
     7
 10
629.29333984103573
 20
312.53396636806599
 30
0.0
 40
0.3999804785975329
 50
149.99950720680829
 51
227.44430899181469
  0
ARC
  5
11A0
  8
0
  6
CONTINUOUS
 62
     7
 10
631.84268708679065
 20
315.31061435555
 30
0.0
 40
4.4268985625597423
 50
224.4886616188306
 51
255.51133838117059
  0
POLYLINE
  5
11A1
  8
0
  6
CONTINUOUS
 62
     7
 66
     1
 10
0.0
 20
0.0
 30
0.0
 70
   128
  0
VERTEX
  5
1526
  8
0
  6
CONTINUOUS
 62
     7
 10
628.6236636734493
 20
312.68869053784948
 30
0.0
  0
VERTEX
  5
1527
  8
0
  6
CONTINUOUS
 62
     7
 10
628.60711956259388
 20
312.657050600552
 30
0.0
  0
VERTEX
  5
1528
  8
0
  6
CONTINUOUS
 62
     7
 10
628.60052763111071
 20
312.64207463581653
 30
0.0
  0
SEQEND
  5
1529
  8
0
  6
CONTINUOUS
 62
     7
  0
ARC
  5
11A2
  8
0
  6
CONTINUOUS
 62
     7
 10
630.03134572256249
 20
311.88286251449318
 30
0.0
 40
1.6220134261552459
 50
148.23258721118549
 51
150.2110070495894
  0
ARC
  5
11A3
  8
0
  6
CONTINUOUS
 62
     7
 10
628.9699249054986
 20
312.48868063754418
 30
0.0
 40
0.3999800807930307
 50
157.44909609630039
 51
224.48912571539981
  0
POLYLINE
  5
11A4
  8
0
  6
CONTINUOUS
 62
     7
 66
     1
 10
0.0
 20
0.0
 30
0.0
 70
   128
  0
VERTEX
  5
152A
  8
0
  6
CONTINUOUS
 62
     7
 10
631.09405577616087
 20
311.50702631942693
 30
0.0
  0
VERTEX
  5
152B
  8
0
  6
CONTINUOUS
 62
     7
 10
631.12650907129398
 20
311.4361383248052
 30
0.0
  0
VERTEX
  5
152C
  8
0
  6
CONTINUOUS
 62
     7
 10
631.20888745650382
 20
311.26077421144902
 30
0.0
  0
SEQEND
  5
152D
  8
0
  6
CONTINUOUS
 62
     7
  0
POLYLINE
  5
11A5
  8
0
  6
CONTINUOUS
 62
     7
 66
     1
 10
0.0
 20
0.0
 30
0.0
 70
   128
  0
VERTEX
  5
152E
  8
0
  6
CONTINUOUS
 62
     7
 10
631.15274362633363
 20
311.16855204394437
 30
0.0
  0
VERTEX
  5
152F
  8
0
  6
CONTINUOUS
 62
     7
 10
631.17377273003922
 20
311.1988941802266
 30
0.0
  0
VERTEX
  5
1530
  8
0
  6
CONTINUOUS
 62
     7
 10
631.18154616054505
 20
311.21189639536931
 30
0.0
  0
SEQEND
  5
1531
  8
0
  6
CONTINUOUS
 62
     7
  0
ARC
  5
11A6
  8
0
  6
CONTINUOUS
 62
     7
 10
630.83520186457554
 20
311.41176254185473
 30
0.0
 40
0.3999801454540837
 50
255.51088041507001
 51
322.55089776519401
  0
ARC
  5
11A7
  8
0
  6
CONTINUOUS
 62
     7
 10
630.71271301523211
 20
311.71449088366182
 30
0.0
 40
0.3999804783904701
 50
252.5556909629953
 51
330.00049281818229
  0
ARC
  5
11A8
  8
0
  6
CONTINUOUS
 62
     7
 10
631.84268708679065
 20
315.31061435555
 30
0.0
 40
4.1694559627323118
 50
227.44381620841199
 51
252.5561837915879
  0
LINE
  5
11A9
  8
0
  6
CONTINUOUS
 62
     7
 10
631.57192994912407
 20
312.3730659606461
 30
0.0
 11
631.58917991993246
 21
312.37152706246872
 31
0.0
  0
LINE
  5
11AA
  8
0
  6
CONTINUOUS
 62
     7
 10
631.30317635506015
 20
311.87615435696432
 30
0.0
 11
631.58917991993246
 21
312.37152706246872
 31
0.0
  0
ARC
  5
11AB
  8
0
  6
CONTINUOUS
 62
     7
 10
645.37840607951694
 20
303.6583726066271
 30
0.0
 40
16.298589776187018
 50
149.72160557184549
 51
151.21304404857969
  0
ARC
  5
11AC
  8
0
  6
CONTINUOUS
 62
     7
 10
630.41954504354544
 20
311.67023094322809
 30
0.0
 40
0.8892222782263511
 50
328.97359519186642
 51
332.58281057171308
  0
ARC
  5
11AD
  8
0
  6
CONTINUOUS
 62
     7
 10
443.84268708679059
 20
315.31061435555
 30
0.0
 40
2.950000000000037
 50
145.0702279493423
 51
274.92977205066489
  0
LINE
  5
11AE
  8
0
  6
CONTINUOUS
 62
     7
 10
446.73842586792699
 20
312.7339595866386
 30
0.0
 11
445.50487252298728
 21
314.87053665392102
 31
0.0
  0
LINE
  5
11AF
  8
0
  6
CONTINUOUS
 62
     7
 10
446.26125776310971
 20
313.62152706246872
 30
0.0
 11
446.54726132798203
 21
313.12615435696432
 31
0.0
  0
LINE
  5
11B0
  8
0
  6
CONTINUOUS
 62
     7
 10
443.38868099687909
 20
313.64584642985062
 30
0.0
 11
443.53968533988939
 21
313.38429923559289
 31
0.0
  0
LINE
  5
11B1
  8
0
  6
CONTINUOUS
 62
     7
 10
443.39271283794199
 20
313.65108069118861
 30
0.0
 11
444.62626618288181
 21
311.51450362390631
 31
0.0
  0
ARC
  5
11B2
  8
0
  6
CONTINUOUS
 62
     7
 10
443.84268708679059
 20
315.31061435555
 30
0.0
 40
3.876561722427986
 50
318.86523488558191
 51
101.13476511441741
  0
ARC
  5
11B3
  8
0
  6
CONTINUOUS
 62
     7
 10
443.84268708679059
 20
315.31061435555
 30
0.0
 40
4.199131121059887
 50
320.54306487616373
 51
99.456935123840253
  0
ARC
  5
11B4
  8
0
  6
CONTINUOUS
 62
     7
 10
443.84268708679059
 20
315.31061435555
 30
0.0
 40
1.719455962732388
 50
165.17070338957419
 51
178.71614348025631
  0
LINE
  5
11B5
  8
0
  6
CONTINUOUS
 62
     7
 10
442.1236627729271
 20
315.349139881143
 30
0.0
 11
442.11751799330989
 21
315.34756533673408
 31
0.0
  0
ARC
  5
11B6
  8
0
  6
CONTINUOUS
 62
     7
 10
443.84268708679059
 20
315.31061435555
 30
0.0
 40
1.7255647701880841
 50
165.254429131227
 51
178.77298311615101
  0
LINE
  5
11B7
  8
0
  6
CONTINUOUS
 62
     7
 10
442.18050165059378
 20
315.75069205717921
 30
0.0
 11
442.17395272677362
 21
315.7498175110635
 31
0.0
  0
LINE
  5
11B8
  8
0
  6
CONTINUOUS
 62
     7
 10
442.02294838376309
 20
316.01136470532111
 30
0.0
 11
442.17395272677362
 21
315.7498175110635
 31
0.0
  0
LINE
  5
11B9
  8
0
  6
CONTINUOUS
 62
     7
 10
441.42411641047107
 20
316.99970164863117
 30
0.0
 11
441.4340741207908
 21
317.01387111247737
 31
0.0
  0
LINE
  5
11BA
  8
0
  6
CONTINUOUS
 62
     7
 10
441.42411641047107
 20
316.99970164863117
 30
0.0
 11
441.1381128455991
 21
317.49507435413562
 31
0.0
  0
ARC
  5
11BB
  8
0
  6
CONTINUOUS
 62
     7
 10
434.2936976176112
 20
313.71476873931522
 30
0.0
 40
7.8189980403216719
 50
28.912736854534561
 51
32.021912765564828
  0
LINE
  5
11BC
  8
0
  6
CONTINUOUS
 62
     7
 10
440.94694830565379
 20
317.88726912446151
 30
0.0
 11
442.18050165059378
 21
315.75069205717921
 31
0.0
  0
ARC
  5
11BD
  8
0
  6
CONTINUOUS
 62
     7
 10
424.5112300933414
 20
306.39915261782659
 30
0.0
 40
19.976358494431839
 50
28.762458500738688
 51
32.097663720260471
  0
LINE
  5
11BE
  8
0
  6
CONTINUOUS
 62
     7
 10
442.1236627729271
 20
315.349139881143
 30
0.0
 11
443.0165390137164
 21
313.80263286722482
 31
0.0
  0
LINE
  5
11BF
  8
0
  6
CONTINUOUS
 62
     7
 10
442.11751799330989
 20
315.34756533673408
 30
0.0
 11
443.01210302844942
 21
313.7980986041822
 31
0.0
  0
LINE
  5
11C0
  8
0
  6
CONTINUOUS
 62
     7
 10
445.56171140065402
 20
315.27208882995711
 30
0.0
 11
444.66883515986473
 21
316.81859584387541
 31
0.0
  0
ARC
  5
11C1
  8
0
  6
CONTINUOUS
 62
     7
 10
443.84268708679059
 20
315.31061435555
 30
0.0
 40
1.719455962732374
 50
345.17070338957421
 51
358.71614348025622
  0
LINE
  5
11C2
  8
0
  6
CONTINUOUS
 62
     7
 10
445.56171140065402
 20
315.27208882995711
 30
0.0
 11
445.56785618027089
 21
315.27366337436598
 31
0.0
  0
LINE
  5
11C3
  8
0
  6
CONTINUOUS
 62
     7
 10
443.0165390137164
 20
313.80263286722482
 30
0.0
 11
443.01210302844942
 21
313.7980986041822
 31
0.0
  0
ARC
  5
11C4
  8
0
  6
CONTINUOUS
 62
     7
 10
443.84268708679059
 20
315.31061435555
 30
0.0
 40
1.7194559627323129
 50
241.28385651974099
 51
254.8292966104232
  0
LINE
  5
11C5
  8
0
  6
CONTINUOUS
 62
     7
 10
444.66883515986473
 20
316.81859584387541
 30
0.0
 11
444.67327114513063
 21
316.82313010692002
 31
0.0
  0
ARC
  5
11C6
  8
0
  6
CONTINUOUS
 62
     7
 10
443.84268708679059
 20
315.31061435555
 30
0.0
 40
1.7255647701880521
 50
241.2270168836491
 51
254.74557086877169
  0
ARC
  5
11C7
  8
0
  6
CONTINUOUS
 62
     7
 10
443.84268708679059
 20
315.31061435555
 30
0.0
 40
1.7255647701880841
 50
345.25442913122691
 51
358.77298311615749
  0
LINE
  5
11C8
  8
0
  6
CONTINUOUS
 62
     7
 10
445.56785618027089
 20
315.27366337436598
 30
0.0
 11
444.67327114513063
 21
316.82313010692002
 31
0.0
  0
LINE
  5
11C9
  8
0
  6
CONTINUOUS
 62
     7
 10
445.50487252298728
 20
314.87053665392102
 30
0.0
 11
445.5114214468075
 21
314.87141120003639
 31
0.0
  0
LINE
  5
11CA
  8
0
  6
CONTINUOUS
 62
     7
 10
445.6624257898178
 20
314.60986400577877
 30
0.0
 11
445.5114214468075
 21
314.87141120003639
 31
0.0
  0
ARC
  5
11CB
  8
0
  6
CONTINUOUS
 62
     7
 10
463.17414407859633
 20
324.22207609230969
 30
0.0
 40
19.976358492527659
 50
208.76245850058271
 51
212.09766372042299
  0
LINE
  5
11CC
  8
0
  6
CONTINUOUS
 62
     7
 10
446.26125776310971
 20
313.62152706246872
 30
0.0
 11
446.25130005278999
 21
313.6073575986228
 31
0.0
  0
LINE
  5
11CD
  8
0
  6
CONTINUOUS
 62
     7
 10
443.39271283794199
 20
313.65108069118861
 30
0.0
 11
443.38868099687909
 21
313.64584642985062
 31
0.0
  0
LINE
  5
11CE
  8
0
  6
CONTINUOUS
 62
     7
 10
444.29669317670198
 20
316.97538228124932
 30
0.0
 11
444.14568883369168
 21
317.236929475507
 31
0.0
  0
LINE
  5
11CF
  8
0
  6
CONTINUOUS
 62
     7
 10
444.29266133563891
 20
316.97014801991151
 30
0.0
 11
444.29669317670198
 21
316.97538228124932
 31
0.0
  0
ARC
  5
11D0
  8
0
  6
CONTINUOUS
 62
     7
 10
443.84268708679059
 20
315.31061435555
 30
0.0
 40
1.71945596273235
 50
61.28385651973953
 51
74.829296610424777
  0
ARC
  5
11D1
  8
0
  6
CONTINUOUS
 62
     7
 10
443.84268708679059
 20
315.31061435555
 30
0.0
 40
1.7255647701880921
 50
61.227016883786199
 51
74.745570868773285
  0
ARC
  5
11D2
  8
0
  6
CONTINUOUS
 62
     7
 10
442.83520186467609
 20
319.20946616961379
 30
0.0
 40
0.3999801451459994
 50
37.449102202125609
 51
104.48911962510761
  0
ARC
  5
11D3
  8
0
  6
CONTINUOUS
 62
     7
 10
442.71271301520358
 20
318.90673782726242
 30
0.0
 40
0.3999804785123326
 50
29.999507200830951
 51
107.4443090084654
  0
ARC
  5
11D4
  8
0
  6
CONTINUOUS
 62
     7
 10
443.84268708679059
 20
315.31061435555
 30
0.0
 40
4.1694559627323668
 50
107.443816208412
 51
132.55618379158909
  0
ARC
  5
11D5
  8
0
  6
CONTINUOUS
 62
     7
 10
443.84268708679059
 20
315.31061435555
 30
0.0
 40
4.4268985625597281
 50
104.4886616188293
 51
135.51133838116931
  0
ARC
  5
11D6
  8
0
  6
CONTINUOUS
 62
     7
 10
457.37840609274218
 20
326.962856112037
 30
0.0
 40
16.298589791421328
 50
208.78695595233501
 51
210.27839442767839
  0
LINE
  5
11D7
  8
0
  6
CONTINUOUS
 62
     7
 10
443.3031763550602
 20
318.74507435413568
 30
0.0
 11
443.58917991993229
 21
318.24970164863117
 31
0.0
  0
LINE
  5
11D8
  8
0
  6
CONTINUOUS
 62
     7
 10
443.57192994912373
 20
318.24816275045379
 30
0.0
 11
443.58917991993229
 21
318.24970164863117
 31
0.0
  0
ARC
  5
11D9
  8
0
  6
CONTINUOUS
 62
     7
 10
442.4195450903934
 20
318.95099779404143
 30
0.0
 40
0.8892222245902082
 50
27.417189321453559
 51
31.026404919149758
  0
ARC
  5
11DA
  8
0
  6
CONTINUOUS
 62
     7
 10
481.38910760366451
 20
339.03668523325388
 30
0.0
 40
43.154392508445717
 50
208.79808392766091
 51
210.34179385134499
  0
LINE
  5
11DB
  8
0
  6
CONTINUOUS
 62
     7
 10
444.29266133563891
 20
316.97014801991151
 30
0.0
 11
443.05910799069909
 21
319.10672508719392
 31
0.0
  0
ARC
  5
11DC
  8
0
  6
CONTINUOUS
 62
     7
 10
443.84268708679059
 20
315.31061435555
 30
0.0
 40
2.9500000000000011
 50
325.07022794934318
 51
94.929772050658457
  0
POLYLINE
  5
11DD
  8
0
  6
CONTINUOUS
 62
     7
 66
     1
 10
0.0
 20
0.0
 30
0.0
 70
   128
  0
VERTEX
  5
1532
  8
0
  6
CONTINUOUS
 62
     7
 10
443.0940557761607
 20
319.11420239167302
 30
0.0
  0
VERTEX
  5
1533
  8
0
  6
CONTINUOUS
 62
     7
 10
443.12650907129398
 20
319.18509038629492
 30
0.0
  0
VERTEX
  5
1534
  8
0
  6
CONTINUOUS
 62
     7
 10
443.20888745650348
 20
319.36045449965093
 30
0.0
  0
SEQEND
  5
1535
  8
0
  6
CONTINUOUS
 62
     7
  0
POLYLINE
  5
11DE
  8
0
  6
CONTINUOUS
 62
     7
 66
     1
 10
0.0
 20
0.0
 30
0.0
 70
   128
  0
VERTEX
  5
1536
  8
0
  6
CONTINUOUS
 62
     7
 10
443.15274362633352
 20
319.45267666715552
 30
0.0
  0
VERTEX
  5
1537
  8
0
  6
CONTINUOUS
 62
     7
 10
443.1737727300391
 20
319.42233453087363
 30
0.0
  0
VERTEX
  5
1538
  8
0
  6
CONTINUOUS
 62
     7
 10
443.18154616054511
 20
319.40933231573069
 30
0.0
  0
SEQEND
  5
1539
  8
0
  6
CONTINUOUS
 62
     7
  0
ARC
  5
11DF
  8
0
  6
CONTINUOUS
 62
     7
 10
453.39167655384171
 20
316.90645997051757
 30
0.0
 40
7.818998037846149
 50
208.91273685394631
 51
212.02191276595701
  0
ARC
  5
11E0
  8
0
  6
CONTINUOUS
 62
     7
 10
406.29626656381458
 20
291.58454347439073
 30
0.0
 40
43.154392515457289
 50
28.798083927778968
 51
30.341793851214948
  0
ARC
  5
11E3
  8
0
  6
CONTINUOUS
 62
     7
 10
443.84268708679059
 20
315.31061435555
 30
0.0
 40
4.4268985625597423
 50
284.48866161882933
 51
315.51133838116931
  0
ARC
  5
11E4
  8
0
  6
CONTINUOUS
 62
     7
 10
445.2658291300358
 20
311.67023094322809
 30
0.0
 40
0.8892222782263511
 50
207.4171894282868
 51
211.02640480813349
  0
ARC
  5
11E5
  8
0
  6
CONTINUOUS
 62
     7
 10
430.3069680940643
 20
303.6583726066271
 30
0.0
 40
16.298589776187018
 50
28.786955951420278
 51
30.278394428154382
  0
LINE
  5
11E6
  8
0
  6
CONTINUOUS
 62
     7
 10
444.38219781852092
 20
311.87615435696432
 30
0.0
 11
444.0961942536486
 21
312.37152706246872
 31
0.0
  0
LINE
  5
11E7
  8
0
  6
CONTINUOUS
 62
     7
 10
444.11344422445711
 20
312.3730659606461
 30
0.0
 11
444.0961942536486
 21
312.37152706246872
 31
0.0
  0
ARC
  5
11E8
  8
0
  6
CONTINUOUS
 62
     7
 10
443.84268708679059
 20
315.31061435555
 30
0.0
 40
4.1694559627323118
 50
287.44381620841199
 51
312.5561837915879
  0
ARC
  5
11E9
  8
0
  6
CONTINUOUS
 62
     7
 10
444.97266115834913
 20
311.71449088366182
 30
0.0
 40
0.3999804783904701
 50
209.99950718181759
 51
287.44430903700459
  0
ARC
  5
11EA
  8
0
  6
CONTINUOUS
 62
     7
 10
446.71544926808258
 20
312.48868063754418
 30
0.0
 40
0.3999800807930307
 50
315.51087428459999
 51
22.55090390369957
  0
ARC
  5
11EB
  8
0
  6
CONTINUOUS
 62
     7
 10
446.39203433254551
 20
312.53396636806599
 30
0.0
 40
0.3999804785975329
 50
312.55569100818519
 51
30.0004927931917
  0
ARC
  5
11EC
  8
0
  6
CONTINUOUS
 62
     7
 10
445.65402845101869
 20
311.88286251449318
 30
0.0
 40
1.6220134261552459
 50
29.788992950410531
 51
31.767412788814369
  0
ARC
  5
11ED
  8
0
  6
CONTINUOUS
 62
     7
 10
444.8501723090057
 20
311.41176254185473
 30
0.0
 40
0.3999801454540837
 50
217.44910223480591
 51
284.48911958492988
  0
POLYLINE
  5
11EE
  8
0
  6
CONTINUOUS
 62
     7
 66
     1
 10
0.0
 20
0.0
 30
0.0
 70
   128
  0
VERTEX
  5
153A
  8
0
  6
CONTINUOUS
 62
     7
 10
444.53263054724761
 20
311.16855204394437
 30
0.0
  0
VERTEX
  5
153B
  8
0
  6
CONTINUOUS
 62
     7
 10
444.51160144354202
 20
311.1988941802266
 30
0.0
  0
VERTEX
  5
153C
  8
0
  6
CONTINUOUS
 62
     7
 10
444.50382801303601
 20
311.21189639536931
 30
0.0
  0
SEQEND
  5
153D
  8
0
  6
CONTINUOUS
 62
     7
  0
POLYLINE
  5
11EF
  8
0
  6
CONTINUOUS
 62
     7
 66
     1
 10
0.0
 20
0.0
 30
0.0
 70
   128
  0
VERTEX
  5
153E
  8
0
  6
CONTINUOUS
 62
     7
 10
447.06171050013188
 20
312.68869053784948
 30
0.0
  0
VERTEX
  5
153F
  8
0
  6
CONTINUOUS
 62
     7
 10
447.0782546109873
 20
312.657050600552
 30
0.0
  0
VERTEX
  5
1540
  8
0
  6
CONTINUOUS
 62
     7
 10
447.08484654247047
 20
312.64207463581653
 30
0.0
  0
SEQEND
  5
1541
  8
0
  6
CONTINUOUS
 62
     7
  0
POLYLINE
  5
11F0
  8
0
  6
CONTINUOUS
 62
     7
 66
     1
 10
0.0
 20
0.0
 30
0.0
 70
   128
  0
VERTEX
  5
1542
  8
0
  6
CONTINUOUS
 62
     7
 10
444.5913183974202
 20
311.50702631942693
 30
0.0
  0
VERTEX
  5
1543
  8
0
  6
CONTINUOUS
 62
     7
 10
444.55886510228709
 20
311.4361383248052
 30
0.0
  0
VERTEX
  5
1544
  8
0
  6
CONTINUOUS
 62
     7
 10
444.47648671707742
 20
311.26077421144902
 30
0.0
  0
SEQEND
  5
1545
  8
0
  6
CONTINUOUS
 62
     7
  0
POLYLINE
  5
11F1
  8
0
  6
CONTINUOUS
 62
     7
 66
     1
 10
0.0
 20
0.0
 30
0.0
 70
   128
  0
VERTEX
  5
1546
  8
0
  6
CONTINUOUS
 62
     7
 10
447.0330517177045
 20
312.73680770276189
 30
0.0
  0
VERTEX
  5
1547
  8
0
  6
CONTINUOUS
 62
     7
 10
446.9481843138293
 20
312.743661417856
 30
0.0
  0
VERTEX
  5
1548
  8
0
  6
CONTINUOUS
 62
     7
 10
446.76237529628878
 20
312.76048660441472
 30
0.0
  0
SEQEND
  5
1549
  8
0
  6
CONTINUOUS
 62
     7
  0
ARC
  5
11F2
  8
0
  6
CONTINUOUS
 62
     7
 10
442.03134569267303
 20
318.73836617881932
 30
0.0
 40
1.6220133913788659
 50
209.78899292962871
 51
211.76741281046679
  0
ARC
  5
11F3
  8
0
  6
CONTINUOUS
 62
     7
 10
440.96992490570022
 20
318.13254807350302
 30
0.0
 40
0.3999800809592704
 50
135.51087429740161
 51
202.55090388562991
  0
ARC
  5
11F4
  8
0
  6
CONTINUOUS
 62
     7
 10
441.29333984109343
 20
318.08726234297848
 30
0.0
 40
0.3999804786482226
 50
132.55569100433229
 51
210.00049277981211
  0
POLYLINE
  5
11F5
  8
0
  6
CONTINUOUS
 62
     7
 66
     1
 10
0.0
 20
0.0
 30
0.0
 70
   128
  0
VERTEX
  5
154A
  8
0
  6
CONTINUOUS
 62
     7
 10
440.62366367344919
 20
317.93253817325058
 30
0.0
  0
VERTEX
  5
154B
  8
0
  6
CONTINUOUS
 62
     7
 10
440.60711956259382
 20
317.96417811054818
 30
0.0
  0
VERTEX
  5
154C
  8
0
  6
CONTINUOUS
 62
     7
 10
440.60052763111042
 20
317.97915407528342
 30
0.0
  0
SEQEND
  5
154D
  8
0
  6
CONTINUOUS
 62
     7
  0
POLYLINE
  5
11F6
  8
0
  6
CONTINUOUS
 62
     7
 66
     1
 10
0.0
 20
0.0
 30
0.0
 70
   128
  0
VERTEX
  5
154E
  8
0
  6
CONTINUOUS
 62
     7
 10
440.65232245587657
 20
317.88442100833828
 30
0.0
  0
VERTEX
  5
154F
  8
0
  6
CONTINUOUS
 62
     7
 10
440.73718985975182
 20
317.87756729324411
 30
0.0
  0
VERTEX
  5
1550
  8
0
  6
CONTINUOUS
 62
     7
 10
440.92299887729229
 20
317.86074210668551
 30
0.0
  0
SEQEND
  5
1551
  8
0
  6
CONTINUOUS
 62
     7
  0
ARC
  5
11F7
  8
0
  6
CONTINUOUS
 62
     7
 10
443.84268708679059
 20
315.31061435555
 30
0.0
 40
3.876561722427998
 50
138.8652348855818
 51
281.13476511442212
  0
ARC
  5
11F8
  8
0
  6
CONTINUOUS
 62
     7
 10
443.84268708679059
 20
315.31061435555
 30
0.0
 40
4.1991311210598958
 50
140.5430648761637
 51
279.4569351238402
  0
LINE
  5
11F9
  8
13
  6
DASHED
 10
624.6426870867906
 20
260.37679142610489
 30
0.0
 11
624.53356320079342
 21
232.8724281570251
 31
0.0
  0
LINE
  5
11FA
  8
63
 10
537.84268708679065
 20
228.7223392317041
 30
0.0
 11
537.84268708679065
 21
263.48407317274268
 31
0.0
  0
LINE
  5
11FB
  8
13
  6
DASHED
 10
451.04268708679052
 20
260.37679142610489
 30
0.0
 11
451.1518109727877
 21
232.8724281570251
 31
0.0
  0
LINE
  5
11FC
  8
0
  6
CONTINUOUS
 62
     7
 10
637.33299706409389
 20
230.17666958223029
 30
0.0
 11
637.84268708679065
 21
259.37679142610477
 31
0.0
  0
LINE
  5
11FD
  8
0
  6
CONTINUOUS
 62
     7
 10
438.35237710948729
 20
230.17666958223029
 30
0.0
 11
437.84268708679048
 21
259.37679142610477
 31
0.0
  0
LINE
  5
11FE
  8
0
  6
CONTINUOUS
 62
     7
 10
443.84268708679059
 20
259.37679142610477
 30
0.0
 11
631.84268708679065
 21
259.37679142610477
 31
0.0
  0
LINE
  5
11FF
  8
0
  6
CONTINUOUS
 62
     7
 10
625.14268708679083
 20
262.37679142610489
 30
0.0
 11
450.54268708679058
 21
262.37679142610489
 31
0.0
  0
LINE
  5
1200
  8
0
  6
CONTINUOUS
 62
     7
 10
450.48986146050993
 20
262.37679142610529
 30
0.0
 11
443.54268708679058
 21
262.37679142610529
 31
0.0
  0
LINE
  5
1201
  8
0
  6
CONTINUOUS
 62
     7
 10
437.84268708679048
 20
259.37679142610477
 30
0.0
 11
443.84268708679059
 21
259.37679142610477
 31
0.0
  0
ARC
  5
1202
  8
0
  6
CONTINUOUS
 62
     7
 10
441.78986146050983
 20
262.0767914261051
 30
0.0
 40
0.2999999999999676
 50
90.000000000000028
 51
179.00000000002419
  0
LINE
  5
1203
  8
0
  6
CONTINUOUS
 62
     7
 10
441.84268708679048
 20
262.37679142610529
 30
0.0
 11
441.78986146050983
 21
262.37679142610529
 31
0.0
  0
LINE
  5
1204
  8
0
  6
CONTINUOUS
 62
     7
 10
443.54268708679058
 20
262.37679142610529
 30
0.0
 11
441.84268708679048
 21
262.37679142610529
 31
0.0
  0
LINE
  5
1205
  8
0
  6
CONTINUOUS
 62
     7
 10
441.489907151963
 20
262.08202714803622
 30
0.0
 11
441.4426870867905
 21
259.37679142610477
 31
0.0
  0
LINE
  5
1206
  8
0
  6
CONTINUOUS
 62
     7
 10
450.54268708679058
 20
262.37679142610489
 30
0.0
 11
450.48986146050993
 21
262.37679142610489
 31
0.0
  0
ARC
  5
1207
  8
0
  6
CONTINUOUS
 62
     7
 10
450.48986146050959
 20
262.07679142610488
 30
0.0
 40
0.2999999999999696
 50
90.000000000000028
 51
179.00000000000469
  0
LINE
  5
1208
  8
0
  6
CONTINUOUS
 62
     7
 10
450.18990715196298
 20
262.08202714803622
 30
0.0
 11
450.14268708679049
 21
259.37679142610477
 31
0.0
  0
LINE
  5
1209
  8
0
  6
CONTINUOUS
 62
     7
 10
632.14268708679083
 20
262.37679142610529
 30
0.0
 11
625.19551271307125
 21
262.37679142610529
 31
0.0
  0
LINE
  5
120A
  8
0
  6
CONTINUOUS
 62
     7
 10
625.19551271307125
 20
262.37679142610489
 30
0.0
 11
625.14268708679083
 21
262.37679142610489
 31
0.0
  0
ARC
  5
120B
  8
0
  6
CONTINUOUS
 62
     7
 10
625.19551271307114
 20
262.0767914261051
 30
0.0
 40
0.2999999999999696
 50
0.9999999999952699
 51
90.000000000000028
  0
LINE
  5
120C
  8
0
  6
CONTINUOUS
 62
     7
 10
625.49546702161808
 20
262.08202714803622
 30
0.0
 11
625.54268708679069
 21
259.37679142610477
 31
0.0
  0
LINE
  5
120D
  8
0
  6
CONTINUOUS
 62
     7
 10
631.84268708679065
 20
259.37679142610477
 30
0.0
 11
637.84268708679065
 21
259.37679142610477
 31
0.0
  0
LINE
  5
120E
  8
0
  6
CONTINUOUS
 62
     7
 10
633.84268708679065
 20
262.37679142610529
 30
0.0
 11
632.14268708679083
 21
262.37679142610529
 31
0.0
  0
ARC
  5
120F
  8
0
  6
CONTINUOUS
 62
     7
 10
633.89551271307084
 20
262.07679142610527
 30
0.0
 40
0.2999999999999676
 50
0.9999999999757285
 51
90.000000000000028
  0
LINE
  5
1210
  8
0
  6
CONTINUOUS
 62
     7
 10
633.89551271307107
 20
262.37679142610529
 30
0.0
 11
633.84268708679065
 21
262.37679142610529
 31
0.0
  0
LINE
  5
1211
  8
0
  6
CONTINUOUS
 62
     7
 10
634.19546702161801
 20
262.08202714803622
 30
0.0
 11
634.24268708679051
 21
259.37679142610477
 31
0.0
  0
LINE
  5
1212
  8
13
  6
DASHED
 10
537.84268708679065
 20
232.3767914261048
 30
0.0
 11
624.0335820867906
 21
232.37679142610489
 31
0.0
  0
LINE
  5
1213
  8
0
  6
CONTINUOUS
 62
     7
 10
631.84268708679065
 20
230.17666958223029
 30
0.0
 11
443.84268708679059
 21
230.17666958223029
 31
0.0
  0
LINE
  5
1214
  8
0
  6
CONTINUOUS
 62
     7
 10
443.84268708679059
 20
229.37679142610531
 30
0.0
 11
631.84268708679065
 21
229.37679142610531
 31
0.0
  0
LINE
  5
1215
  8
13
  6
DASHED
 10
537.84268708679065
 20
232.3767914261048
 30
0.0
 11
451.65179208679052
 21
232.37679142610489
 31
0.0
  0
LINE
  5
1216
  8
0
  6
CONTINUOUS
 62
     7
 10
443.84268708679059
 20
230.17666958223029
 30
0.0
 11
438.35237710948729
 21
230.17666958223029
 31
0.0
  0
LINE
  5
1217
  8
0
  6
CONTINUOUS
 62
     7
 10
439.1806751874937
 20
229.37679142610531
 30
0.0
 11
443.84268708679059
 21
229.37679142610531
 31
0.0
  0
LINE
  5
1218
  8
0
  6
CONTINUOUS
 62
     7
 10
438.35237710948729
 20
230.17666958223029
 30
0.0
 11
439.1806751874937
 21
229.37679142610531
 31
0.0
  0
ARC
  5
1219
  8
13
  6
DASHED
 10
451.65179208679052
 20
232.87679142610489
 30
0.0
 40
0.5
 50
180.5
 51
270.0
  0
ARC
  5
121A
  8
13
  6
DASHED
 10
624.0335820867906
 20
232.87679142610489
 30
0.0
 40
0.5
 50
270.0
 51
359.5
  0
LINE
  5
121B
  8
0
  6
CONTINUOUS
 62
     7
 10
637.33299706409389
 20
230.17666958223029
 30
0.0
 11
631.84268708679065
 21
230.17666958223029
 31
0.0
  0
LINE
  5
121C
  8
0
  6
CONTINUOUS
 62
     7
 10
637.33299706409389
 20
230.17666958223029
 30
0.0
 11
636.50469898608753
 21
229.37679142610531
 31
0.0
  0
LINE
  5
121D
  8
0
  6
CONTINUOUS
 62
     7
 10
631.84268708679065
 20
229.37679142610531
 30
0.0
 11
636.50469898608753
 21
229.37679142610531
 31
0.0
  0
LINE
  5
121E
  8
13
  6
DASHED
 10
695.42437651702471
 20
369.31061435555
 30
0.0
 11
695.42437651702471
 21
332.1183712852083
 31
0.0
  0
LINE
  5
121F
  8
0
  6
CONTINUOUS
 62
     7
 10
698.42437651702471
 20
315.31061435554972
 30
0.0
 11
698.42437651702471
 21
423.31061435554972
 31
0.0
  0
LINE
  5
1220
  8
0
  6
CONTINUOUS
 62
     7
 10
668.42437651702471
 20
315.31061435554972
 30
0.0
 11
668.42437651702471
 21
423.31061435554972
 31
0.0
  0
LINE
  5
1221
  8
0
  6
CONTINUOUS
 62
     7
 10
697.62449836089945
 20
428.80092433285301
 30
0.0
 11
697.62449836089945
 21
309.82030437824631
 31
0.0
  0
LINE
  5
1222
  8
0
  6
CONTINUOUS
 62
     7
 10
665.42437651702471
 20
407.61061435554973
 30
0.0
 11
665.42437651702471
 21
331.01061435554982
 31
0.0
  0
LINE
  5
1223
  8
13
  6
DASHED
 10
667.4243765170246
 20
331.52566139323392
 30
0.0
 11
694.92872802586896
 21
331.61973811741723
 31
0.0
  0
LINE
  5
1224
  8
0
  6
CONTINUOUS
 62
     7
 10
697.62449836089945
 20
309.82030437824631
 30
0.0
 11
668.42437651702471
 21
309.31061435554972
 31
0.0
  0
LINE
  5
1225
  8
0
  6
CONTINUOUS
 62
     7
 10
698.42437651702471
 20
310.64860245625277
 30
0.0
 11
698.42437651702471
 21
315.31061435554972
 31
0.0
  0
LINE
  5
1226
  8
0
  6
CONTINUOUS
 62
     7
 10
697.62449836089945
 20
309.82030437824631
 30
0.0
 11
698.42437651702471
 21
310.64860245625277
 31
0.0
  0
ARC
  5
1227
  8
13
  6
DASHED
 10
694.92437651702471
 20
332.1183712852083
 30
0.0
 40
0.5
 50
270.50000035593803
 51
0.000000000000007
  0
LINE
  5
1228
  8
0
  6
CONTINUOUS
 62
     7
 10
665.42437651702471
 20
330.957788729269
 30
0.0
 11
665.42437651702471
 21
324.01061435554948
 31
0.0
  0
LINE
  5
1229
  8
0
  6
CONTINUOUS
 62
     7
 10
665.42437651702471
 20
324.01061435554948
 30
0.0
 11
665.42437651702471
 21
313.31061435554972
 31
0.0
  0
LINE
  5
122A
  8
0
  6
CONTINUOUS
 62
     7
 10
665.42437651702471
 20
313.31061435554972
 30
0.0
 11
665.42437651702471
 21
313.25778872926901
 31
0.0
  0
ARC
  5
122B
  8
0
  6
CONTINUOUS
 62
     7
 10
665.72437651702455
 20
313.25778872926901
 30
0.0
 40
0.3000000000000264
 50
180.0
 51
269.00000000000313
  0
LINE
  5
122C
  8
0
  6
CONTINUOUS
 62
     7
 10
668.42437651702471
 20
309.31061435554972
 30
0.0
 11
668.42437651702471
 21
315.31061435554972
 31
0.0
  0
LINE
  5
122D
  8
0
  6
CONTINUOUS
 62
     7
 10
665.71914079509327
 20
312.95783442072212
 30
0.0
 11
668.42437651702471
 21
312.91061435554963
 31
0.0
  0
ARC
  5
122E
  8
0
  6
CONTINUOUS
 62
     7
 10
665.72437651702455
 20
330.95778872926928
 30
0.0
 40
0.3000000000000833
 50
180.0
 51
269.00000000000313
  0
LINE
  5
122F
  8
0
  6
CONTINUOUS
 62
     7
 10
665.42437651702471
 20
331.01061435554982
 30
0.0
 11
665.42437651702471
 21
330.95778872926928
 31
0.0
  0
LINE
  5
1230
  8
0
  6
CONTINUOUS
 62
     7
 10
665.71914079509327
 20
330.65783442072222
 30
0.0
 11
668.42437651702471
 21
330.6106143555499
 31
0.0
  0
LINE
  5
1231
  8
0
  6
CONTINUOUS
 62
     7
 10
665.42437651702471
 20
425.31061435554972
 30
0.0
 11
665.42437651702471
 21
414.61061435554973
 31
0.0
  0
LINE
  5
1232
  8
0
  6
CONTINUOUS
 62
     7
 10
698.42437651702471
 20
423.31061435554972
 30
0.0
 11
698.42437651702471
 21
427.9726262548466
 31
0.0
  0
LINE
  5
1233
  8
0
  6
CONTINUOUS
 62
     7
 10
668.42437651702471
 20
423.31061435554972
 30
0.0
 11
668.42437651702471
 21
429.31061435554977
 31
0.0
  0
LINE
  5
1234
  8
13
  6
DASHED
 10
667.4243765170246
 20
407.09556731786608
 30
0.0
 11
694.92872802586896
 21
407.001490593683
 31
0.0
  0
LINE
  5
1235
  8
63
 10
704.13507850935332
 20
369.31061435555
 30
0.0
 11
665.8610656860867
 21
369.31061435555
 31
0.0
  0
LINE
  5
1236
  8
13
  6
DASHED
 10
695.42437651702471
 20
369.31061435555
 30
0.0
 11
695.42437651702471
 21
406.50285742589199
 31
0.0
  0
ARC
  5
1237
  8
13
  6
DASHED
 10
694.92437651702471
 20
406.50285742589199
 30
0.0
 40
0.5
 50
0.000000000000007
 51
89.499999644061944
  0
LINE
  5
1238
  8
0
  6
CONTINUOUS
 62
     7
 10
665.42437651702471
 20
414.61061435554973
 30
0.0
 11
665.42437651702471
 21
407.66343998183021
 31
0.0
  0
ARC
  5
1239
  8
0
  6
CONTINUOUS
 62
     7
 10
665.72437651702455
 20
407.66343998183021
 30
0.0
 40
0.2999999999999696
 50
90.999999999996874
 51
180.0
  0
LINE
  5
123A
  8
0
  6
CONTINUOUS
 62
     7
 10
665.71914079509327
 20
407.9633942903771
 30
0.0
 11
668.42437651702471
 21
408.01061435554959
 31
0.0
  0
LINE
  5
123B
  8
0
  6
CONTINUOUS
 62
     7
 10
665.42437651702471
 20
407.66343998183021
 30
0.0
 11
665.42437651702471
 21
407.61061435554973
 31
0.0
  0
LINE
  5
123C
  8
0
  6
CONTINUOUS
 62
     7
 10
697.62449836089945
 20
428.80092433285301
 30
0.0
 11
668.42437651702471
 21
429.31061435554977
 31
0.0
  0
LINE
  5
123D
  8
0
  6
CONTINUOUS
 62
     7
 10
698.42437651702471
 20
427.9726262548466
 30
0.0
 11
697.62449836089945
 21
428.80092433285301
 31
0.0
  0
LINE
  5
123E
  8
0
  6
CONTINUOUS
 62
     7
 10
665.42437651702471
 20
425.3634399818302
 30
0.0
 11
665.42437651702471
 21
425.31061435554972
 31
0.0
  0
ARC
  5
123F
  8
0
  6
CONTINUOUS
 62
     7
 10
665.72437651702455
 20
425.3634399818302
 30
0.0
 40
0.3000000000000264
 50
90.999999999996874
 51
180.0
  0
LINE
  5
1240
  8
0
  6
CONTINUOUS
 62
     7
 10
665.71914079509327
 20
425.66339429037731
 30
0.0
 11
668.42437651702471
 21
425.71061435554958
 31
0.0
  0
ENDSEC
  0
EOF
