  0
SECTION
  2
HEADER
  9
$ACADVER
  1
AC1009
  9
$INSBASE
 10
0.0
 20
0.0
 30
0.0
  9
$EXTMIN
 10
24.767673731246219
 20
457.25345876138442
 30
0.0
  9
$EXTMAX
 10
556.43530396045162
 20
737.70238777440954
 30
0.0
  9
$LIMMIN
 10
0.0
 20
0.0
  9
$LIMMAX
 10
841.0
 20
594.0
  9
$ORTHOMODE
 70
     1
  9
$REGENMODE
 70
     1
  9
$FILLMODE
 70
     1
  9
$QTEXTMODE
 70
     0
  9
$MIRRTEXT
 70
     1
  9
$DRAGMODE
 70
     2
  9
$LTSCALE
 40
7.0
  9
$OSMODE
 70
    37
  9
$ATTMODE
 70
     1
  9
$TEXTSIZE
 40
3.5
  9
$TRACEWID
 40
0.05
  9
$TEXTSTYLE
  7
TKKISO
  9
$CLAYER
  8
1
  9
$CELTYPE
  6
BYLAYER
  9
$CECOLOR
 62
   256
  9
$DIMSCALE
 40
1.0
  9
$DIMASZ
 40
3.5
  9
$DIMEXO
 40
1.0
  9
$DIMDLI
 40
7.0
  9
$DIMRND
 40
0.0
  9
$DIMDLE
 40
0.0
  9
$DIMEXE
 40
1.5
  9
$DIMTP
 40
0.0
  9
$DIMTM
 40
0.0
  9
$DIMTXT
 40
3.5
  9
$DIMCEN
 40
0.0
  9
$DIMTSZ
 40
0.0
  9
$DIMTOL
 70
     0
  9
$DIMLIM
 70
     0
  9
$DIMTIH
 70
     0
  9
$DIMTOH
 70
     0
  9
$DIMSE1
 70
     0
  9
$DIMSE2
 70
     0
  9
$DIMTAD
 70
     1
  9
$DIMZIN
 70
     8
  9
$DIMBLK
  1

  9
$DIMASO
 70
     1
  9
$DIMSHO
 70
     1
  9
$DIMPOST
  1

  9
$DIMAPOST
  1

  9
$DIMALT
 70
     0
  9
$DIMALTD
 70
     2
  9
$DIMALTF
 40
25.399999999999999
  9
$DIMLFAC
 40
1.0
  9
$DIMTOFL
 70
     1
  9
$DIMTVP
 40
0.0
  9
$DIMTIX
 70
     0
  9
$DIMSOXD
 70
     0
  9
$DIMSAH
 70
     0
  9
$DIMBLK1
  1

  9
$DIMBLK2
  1

  9
$DIMSTYLE
  2
STANDARD
  9
$DIMCLRD
 70
     1
  9
$DIMCLRE
 70
     1
  9
$DIMCLRT
 70
     3
  9
$DIMTFAC
 40
1.0
  9
$DIMGAP
 40
0.09
  9
$LUNITS
 70
     2
  9
$LUPREC
 70
     2
  9
$SKETCHINC
 40
1.0
  9
$FILLETRAD
 40
0.0
  9
$AUNITS
 70
     0
  9
$AUPREC
 70
     1
  9
$MENU
  1
caesar
  9
$ELEVATION
 40
0.0
  9
$PELEVATION
 40
0.0
  9
$THICKNESS
 40
0.0
  9
$LIMCHECK
 70
     0
  9
$BLIPMODE
 70
     0
  9
$CHAMFERA
 40
5.0
  9
$CHAMFERB
 40
5.0
  9
$SKPOLY
 70
     1
  9
$TDCREATE
 40
2448769.5639028931
  9
$TDUPDATE
 40
2453620.4642901742
  9
$TDINDWG
 40
0.1832955208
  9
$TDUSRTIMER
 40
0.1832955208
  9
$USRTIMER
 70
     1
  9
$ANGBASE
 50
0.0
  9
$ANGDIR
 70
     0
  9
$PDMODE
 70
     0
  9
$PDSIZE
 40
2.0
  9
$PLINEWID
 40
0.0
  9
$COORDS
 70
     2
  9
$SPLFRAME
 70
     0
  9
$SPLINETYPE
 70
     6
  9
$SPLINESEGS
 70
     8
  9
$ATTDIA
 70
     0
  9
$ATTREQ
 70
     1
  9
$HANDLING
 70
-16383
  9
$HANDSEED
  5
253
  9
$SURFTAB1
 70
     6
  9
$SURFTAB2
 70
     6
  9
$SURFTYPE
 70
     6
  9
$SURFU
 70
     6
  9
$SURFV
 70
     6
  9
$UCSNAME
  2

  9
$UCSORG
 10
0.0
 20
0.0
 30
0.0
  9
$UCSXDIR
 10
1.0
 20
0.0
 30
0.0
  9
$UCSYDIR
 10
0.0
 20
1.0
 30
0.0
  9
$PUCSNAME
  2

  9
$PUCSORG
 10
0.0
 20
0.0
 30
0.0
  9
$PUCSXDIR
 10
1.0
 20
0.0
 30
0.0
  9
$PUCSYDIR
 10
0.0
 20
1.0
 30
0.0
  9
$USERI1
 70
     1
  9
$USERI2
 70
     0
  9
$USERI3
 70
     0
  9
$USERI4
 70
     0
  9
$USERI5
 70
     0
  9
$USERR1
 40
1.0
  9
$USERR2
 40
0.0
  9
$USERR3
 40
3.5
  9
$USERR4
 40
0.0
  9
$USERR5
 40
0.0
  9
$WORLDVIEW
 70
     1
  9
$SHADEDGE
 70
     3
  9
$SHADEDIF
 70
    70
  9
$TILEMODE
 70
     1
  9
$MAXACTVP
 70
    16
  9
$PLIMCHECK
 70
     0
  9
$PEXTMIN
 10
1.0000000000000000E+020
 20
1.0000000000000000E+020
 30
1.0000000000000000E+020
  9
$PEXTMAX
 10
-1.0000000000000000E+020
 20
-1.0000000000000000E+020
 30
-1.0000000000000000E+020
  9
$PLIMMIN
 10
0.0
 20
0.0
  9
$PLIMMAX
 10
12.0
 20
9.0
  9
$UNITMODE
 70
     0
  9
$VISRETAIN
 70
     0
  9
$PLINEGEN
 70
     0
  9
$PSLTSCALE
 70
     0
  0
ENDSEC
  0
SECTION
  2
TABLES
  0
TABLE
  2
VPORT
 70
     2
  0
VPORT
  2
*ACTIVE
 70
     0
 10
0.0
 20
0.0
 11
1.0
 21
1.0
 12
290.59669299405141
 22
597.48783109523856
 13
0.0
 23
0.0
 14
6.0
 24
6.0
 15
0.0
 25
0.0
 16
0.0
 26
0.0
 36
1.0
 17
0.0
 27
0.0
 37
0.0
 40
343.24288313217818
 41
1.5552208835341359
 42
50.0
 43
0.0
 44
0.0
 50
0.0
 51
0.0
 71
     0
 72
  2000
 73
     1
 74
     0
 75
     0
 76
     0
 77
     0
 78
     0
  0
ENDTAB
  0
TABLE
  2
LTYPE
 70
     3
  0
LTYPE
  2
CONTINUOUS
 70
     0
  3
Solid line
 72
    65
 73
     0
 40
0.0
  0
LTYPE
  2
CENTER
 70
     0
  3
------  -  -----  -  -----  -  -----  -  ------
 72
    65
 73
     4
 40
1.8
 49
1.25
 49
-0.25
 49
0.05
 49
-0.25
  0
LTYPE
  2
DASHED
 70
     0
  3
__ __ __ __ __ __ __ __ __ __ __ __ __ __ __
 72
    65
 73
     2
 40
0.75
 49
0.5
 49
-0.25
  0
ENDTAB
  0
TABLE
  2
LAYER
 70
    19
  0
LAYER
  2
0
 70
     0
 62
     7
  6
CONTINUOUS
  0
LAYER
  2
L6
 70
     0
 62
     1
  6
CENTER
  0
LAYER
  2
DEFPOINTS
 70
     0
 62
     7
  6
CONTINUOUS
  0
LAYER
  2
L20
 70
     0
 62
     3
  6
CONTINUOUS
  0
LAYER
  2
1
 70
     0
 62
     7
  6
CONTINUOUS
  0
LAYER
  2
11
 70
     0
 62
     7
  6
CONTINUOUS
  0
LAYER
  2
13
 70
     0
 62
     1
  6
CENTER
  0
LAYER
  2
21
 70
     0
 62
     7
  6
CONTINUOUS
  0
LAYER
  2
23
 70
     0
 62
     1
  6
CENTER
  0
LAYER
  2
31
 70
     0
 62
     7
  6
CONTINUOUS
  0
LAYER
  2
33
 70
     0
 62
     1
  6
CENTER
  0
LAYER
  2
41
 70
     0
 62
     7
  6
CONTINUOUS
  0
LAYER
  2
43
 70
     0
 62
     1
  6
CENTER
  0
LAYER
  2
51
 70
     0
 62
     7
  6
CONTINUOUS
  0
LAYER
  2
52
 70
     0
 62
     1
  6
CONTINUOUS
  0
LAYER
  2
53
 70
     0
 62
     1
  6
CENTER
  0
LAYER
  2
61
 70
     0
 62
     7
  6
CONTINUOUS
  0
LAYER
  2
62
 70
     0
 62
     1
  6
CONTINUOUS
  0
LAYER
  2
63
 70
     0
 62
     1
  6
CENTER
  0
ENDTAB
  0
TABLE
  2
STYLE
 70
     3
  0
STYLE
  2
STANDARD
 70
     0
 40
0.0
 41
1.0
 50
0.0
 71
     0
 42
0.2
  3
caeiso
  4

  0
STYLE
  2
ISO
 70
     0
 40
0.0
 41
1.0
 50
0.0
 71
     0
 42
3.5
  3
SIMPLEX
  4

  0
STYLE
  2
TKKISO
 70
     0
 40
0.0
 41
1.0
 50
0.0
 71
     0
 42
3.5
  3
caeiso
  4

  0
ENDTAB
  0
TABLE
  2
VIEW
 70
     0
  0
ENDTAB
  0
TABLE
  2
UCS
 70
     0
  0
ENDTAB
  0
TABLE
  2
APPID
 70
     2
  0
APPID
  2
ACAD
 70
     0
  0
APPID
  2
DCO15
 70
     0
  0
ENDTAB
  0
TABLE
  2
DIMSTYLE
 70
     1
  0
DIMSTYLE
  2
STANDARD
 70
     0
  3

  4

  5

  6

  7

 40
1.0
 41
0.18
 42
0.0625
 43
0.38
 44
0.18
 45
0.0
 46
0.0
 47
0.0
 48
0.0
140
0.18
141
0.09
142
0.0
143
25.399999999999999
144
1.0
145
0.0
146
1.0
147
0.09
 71
     0
 72
     0
 73
     1
 74
     1
 75
     0
 76
     0
 77
     0
 78
     0
170
     0
171
     2
172
     0
173
     0
174
     0
175
     0
176
     0
177
     0
178
     0
  0
ENDTAB
  0
ENDSEC
  0
SECTION
  2
BLOCKS
  0
BLOCK
  8
0
  2
$MODEL_SPACE
 70
     0
 10
0.0
 20
0.0
 30
0.0
  3
$MODEL_SPACE
  1

  0
ENDBLK
  5
88
  8
0
  0
BLOCK
 67
     1
  8
0
  2
$PAPER_SPACE
 70
     0
 10
0.0
 20
0.0
 30
0.0
  3
$PAPER_SPACE
  1

  0
ENDBLK
  5
86
 67
     1
  8
0
  0
BLOCK
  8
0
  2
ACAD
 70
     0
 10
0.0
 20
0.0
 30
0.0
  3
ACAD
  1

  0
ENDBLK
  5
8A
  8
0
  0
ENDSEC
  0
SECTION
  2
ENTITIES
  0
LINE
  5
8B
  8
13
  6
DASHED
 10
460.08793141328368
 20
491.98330602002869
 30
0.0
 11
459.85313297652033
 21
463.07807009872988
 31
0.0
  0
ARC
  5
8C
  8
52
 10
29.567673731246249
 20
555.88201438883436
 30
0.0
 40
0.3
 50
50.362285609326783
 51
180.0
  0
ARC
  5
8D
  8
52
 10
33.267673731246241
 20
560.34855667565876
 30
0.0
 40
5.5
 50
230.36228560932631
 51
270.0
  0
LINE
  5
8E
  8
52
 10
35.417673731246218
 20
554.84855667565876
 30
0.0
 11
33.267673731246241
 21
554.84855667565876
 31
0.0
  0
ARC
  5
8F
  8
52
 10
35.417673731246168
 20
553.84855667565876
 30
0.0
 40
1.0
 50
0.0000000000003197
 51
90.0
  0
ARC
  5
90
  8
51
 10
33.267673731246241
 20
560.34855667565876
 30
0.0
 40
1.000000000000056
 50
180.0
 51
270.0
  0
ARC
  5
91
  8
51
 10
35.417673731246168
 20
553.84855667565876
 30
0.0
 40
5.4999999999999432
 50
0.0000000000003197
 51
90.0
  0
ARC
  5
92
  8
51
 10
41.917673731246218
 20
541.69855667565855
 30
0.0
 40
1.000000000000056
 50
180.0
 51
270.0
  0
ARC
  5
93
  8
52
 10
33.267673731246241
 20
560.34855667565876
 30
0.0
 40
1.98300000000006
 50
180.0
 51
270.0
  0
ARC
  5
94
  8
52
 10
35.417673731246168
 20
553.84855667565876
 30
0.0
 40
4.5169999999999391
 50
0.0000000000003197
 51
90.0
  0
ARC
  5
95
  8
52
 10
41.917673731246218
 20
541.69855667565855
 30
0.0
 40
1.98300000000006
 50
180.0
 51
270.0
  0
ARC
  5
96
  8
52
 10
33.267673731246241
 20
560.34855667565876
 30
0.0
 40
4.5000000000001128
 50
180.0
 51
270.0
  0
ARC
  5
97
  8
52
 10
35.417673731246168
 20
553.84855667565876
 30
0.0
 40
1.9999999999998861
 50
0.0000000000003197
 51
90.0
  0
ARC
  5
98
  8
52
 10
41.917673731246218
 20
541.69855667565855
 30
0.0
 40
4.5000000000001128
 50
180.0
 51
270.0
  0
LINE
  5
99
  8
51
 10
40.917673731246168
 20
541.69855667565855
 30
0.0
 11
40.917673731246168
 21
553.84855667565876
 31
0.0
  0
LINE
  5
9A
  8
52
 10
39.934673731246157
 20
541.69855667565855
 30
0.0
 11
39.934673731246157
 21
553.84855667565876
 31
0.0
  0
LINE
  5
9B
  8
52
 10
37.417673731246111
 20
541.69855667565855
 30
0.0
 11
37.417673731246111
 21
553.84855667565876
 31
0.0
  0
ARC
  5
9C
  8
61
 10
467.24052662702439
 20
542.19855667565855
 30
0.0
 40
4.8341891796831069
 50
270.0
 51
0.0
  0
LINE
  5
9D
  8
61
 10
472.0747158067075
 20
542.19855667565855
 30
0.0
 11
472.0747158067075
 21
650.19855667565855
 31
0.0
  0
ARC
  5
9E
  8
61
 10
467.24052662702439
 20
650.19855667565855
 30
0.0
 40
4.8341891796831069
 50
0.0
 51
90.0
  0
LINE
  5
9F
  8
61
 10
467.24052662702439
 20
655.03274585534166
 30
0.0
 11
319.24052662702439
 21
655.03274585534166
 31
0.0
  0
ARC
  5
A0
  8
61
 10
319.24052662702439
 20
650.19855667565855
 30
0.0
 40
4.8341891796831069
 50
90.0
 51
180.0
  0
ARC
  5
A1
  8
61
 10
319.24052662702451
 20
542.19855667565855
 30
0.0
 40
4.8341891796831069
 50
180.0
 51
270.0
  0
LINE
  5
A2
  8
61
 10
467.24052662702439
 20
537.36436749597556
 30
0.0
 11
319.24052662702451
 21
537.36436749597556
 31
0.0
  0
LINE
  5
A3
  8
61
 10
314.4063374473414
 20
542.19855667565855
 30
0.0
 11
314.40633744734129
 21
650.19855667565855
 31
0.0
  0
ARC
  5
A4
  8
62
 10
319.24052662702451
 20
542.19855667565855
 30
0.0
 40
5.8341891796831069
 50
180.0
 51
270.0
  0
LINE
  5
A5
  8
62
 10
313.4063374473414
 20
542.19855667565855
 30
0.0
 11
313.40633744734129
 21
650.19855667565855
 31
0.0
  0
ARC
  5
A6
  8
62
 10
319.24052662702439
 20
650.19855667565855
 30
0.0
 40
5.8341891796831069
 50
90.0
 51
180.0
  0
LINE
  5
A7
  8
62
 10
467.24052662702439
 20
656.03274585534166
 30
0.0
 11
319.24052662702439
 21
656.03274585534166
 31
0.0
  0
ARC
  5
A8
  8
62
 10
467.24052662702439
 20
650.19855667565855
 30
0.0
 40
5.8341891796831069
 50
0.0
 51
90.0
  0
LINE
  5
A9
  8
62
 10
473.0747158067075
 20
542.19855667565855
 30
0.0
 11
473.0747158067075
 21
650.19855667565855
 31
0.0
  0
ARC
  5
AA
  8
62
 10
467.24052662702439
 20
542.19855667565855
 30
0.0
 40
5.8341891796831069
 50
270.0
 51
0.0
  0
LINE
  5
AB
  8
62
 10
467.24052662702439
 20
536.36436749597544
 30
0.0
 11
319.24052662702451
 21
536.36436749597544
 31
0.0
  0
LINE
  5
AC
  8
11
 10
469.74052662702451
 20
489.28068805937937
 30
0.0
 11
473.24052662702451
 21
489.28068805937937
 31
0.0
  0
LINE
  5
AD
  8
11
 10
473.24052662702439
 20
489.28068805937937
 30
0.0
 11
472.98744712880023
 21
460.28064998244361
 31
0.0
  0
LINE
  5
AE
  8
11
 10
469.7282166917085
 20
491.98592378131048
 30
0.0
 11
469.76100923024632
 21
489.28068805937932
 31
0.0
  0
ARC
  5
AF
  8
11
 10
469.4282623831615
 20
491.98068805937942
 30
0.0
 40
0.3
 50
1.0000000000000759
 51
90.0
  0
LINE
  5
B0
  8
31
 10
235.8941095635935
 20
537.46036270938146
 30
0.0
 11
235.8941095635935
 21
654.93675064193587
 31
0.0
  0
LINE
  5
B1
  8
31
 10
268.8941095635937
 20
540.01082091952173
 30
0.0
 11
268.8941095635937
 21
652.38629243179571
 31
0.0
  0
LINE
  5
B2
  8
33
  6
DASHED
 10
239.39410956359339
 20
558.88593890308221
 30
0.0
 11
239.3941095635935
 21
596.19855667565855
 31
0.0
  0
ARC
  5
B3
  8
31
 10
268.59410956359352
 20
540.01082091952173
 30
0.0
 40
0.3
 50
271.0
 51
0.0
  0
LINE
  5
B4
  8
31
 10
268.59934528552481
 20
539.71086661097479
 30
0.0
 11
265.89410956359359
 21
539.67807407243708
 31
0.0
  0
LINE
  5
B5
  8
31
 10
265.89410956359359
 20
536.19855667565878
 30
0.0
 11
236.89407148665771
 21
536.451636173883
 31
0.0
  0
LINE
  5
B6
  8
31
 10
265.89410956359359
 20
539.69855667565878
 30
0.0
 11
265.89410956359359
 21
536.19855667565878
 31
0.0
  0
LINE
  5
B7
  8
51
 10
27.767673731246241
 20
542.19855667565855
 30
0.0
 11
27.767673731246191
 21
650.19855667565855
 31
0.0
  0
LINE
  5
B8
  8
51
 10
187.76767373124611
 20
542.19855667565855
 30
0.0
 11
187.76767373124611
 21
650.19855667565855
 31
0.0
  0
LINE
  5
B9
  8
51
 10
181.76767373124611
 20
656.19855667565855
 30
0.0
 11
33.767673731246191
 21
656.19855667565855
 31
0.0
  0
LINE
  5
BA
  8
51
 10
181.76767373124611
 20
536.19855667565855
 30
0.0
 11
33.767673731246248
 21
536.19855667565855
 31
0.0
  0
ARC
  5
BB
  8
51
 10
33.767673731246248
 20
542.19855667565855
 30
0.0
 40
6.0
 50
180.0
 51
270.0
  0
LINE
  5
BC
  8
52
 10
28.767673731246191
 20
560.34855667565876
 30
0.0
 11
28.767673731246191
 21
632.04855667565869
 31
0.0
  0
LINE
  5
BD
  8
52
 10
35.417673731246218
 20
555.84855667565876
 30
0.0
 11
33.267673731246241
 21
555.84855667565876
 31
0.0
  0
LINE
  5
BE
  8
52
 10
186.76767373124611
 20
560.34855667565876
 30
0.0
 11
186.76767373124611
 21
632.04855667565869
 31
0.0
  0
LINE
  5
BF
  8
52
 10
31.28467373124618
 20
560.34855667565876
 30
0.0
 11
31.28467373124618
 21
632.04855667565869
 31
0.0
  0
LINE
  5
C0
  8
52
 10
35.417673731246168
 20
558.36555667565881
 30
0.0
 11
33.267673731246241
 21
558.36555667565881
 31
0.0
  0
LINE
  5
C1
  8
52
 10
184.25067373124611
 20
560.34855667565876
 30
0.0
 11
184.250673731246
 21
632.04855667565869
 31
0.0
  0
LINE
  5
C2
  8
13
  6
DASHED
 10
459.55314439960091
 20
462.78068805937932
 30
0.0
 11
326.92790885444782
 21
462.78068805937932
 31
0.0
  0
LINE
  5
C3
  8
11
 10
469.42826238316138
 20
492.28068805937937
 30
0.0
 11
317.05279087088741
 21
492.28068805937937
 31
0.0
  0
LINE
  5
C4
  8
11
 10
471.97872059330172
 20
459.28068805937937
 30
0.0
 11
314.50233266074702
 21
459.28068805937937
 31
0.0
  0
LINE
  5
C5
  8
51
 10
32.267673731246248
 20
560.34855667565876
 30
0.0
 11
32.267673731246248
 21
632.04855667565869
 31
0.0
  0
LINE
  5
C6
  8
51
 10
183.26767373124599
 20
560.34855667565876
 30
0.0
 11
183.26767373124599
 21
632.04855667565869
 31
0.0
  0
LINE
  5
C7
  8
51
 10
35.417673731246168
 20
559.34855667565876
 30
0.0
 11
33.267673731246241
 21
559.34855667565876
 31
0.0
  0
LINE
  5
C8
  8
51
 10
173.6176737312463
 20
540.69855667565866
 30
0.0
 11
41.917673731246218
 21
540.69855667565866
 31
0.0
  0
LINE
  5
C9
  8
52
 10
173.6176737312463
 20
539.71555667565872
 30
0.0
 11
41.917673731246218
 21
539.71555667565872
 31
0.0
  0
LINE
  5
CA
  8
52
 10
173.6176737312463
 20
537.19855667565866
 30
0.0
 11
41.917673731246218
 21
537.19855667565866
 31
0.0
  0
LINE
  5
CB
  8
52
 10
173.6176737312463
 20
655.19855667565855
 30
0.0
 11
41.917673731246218
 21
655.19855667565855
 31
0.0
  0
LINE
  5
CC
  8
52
 10
173.6176737312463
 20
652.68155667565861
 30
0.0
 11
41.917673731246218
 21
652.68155667565861
 31
0.0
  0
LINE
  5
CD
  8
51
 10
173.6176737312463
 20
651.69855667565844
 30
0.0
 11
41.917673731246218
 21
651.69855667565855
 31
0.0
  0
ARC
  5
CE
  8
52
 10
33.767673731246248
 20
542.19855667565855
 30
0.0
 40
2.0
 50
15.572995999461
 51
44.427004000537259
  0
LINE
  5
CF
  8
52
 10
35.19595941696457
 20
543.59855667565512
 30
0.0
 11
32.339388045527869
 21
543.59855667565512
 31
0.0
  0
LINE
  5
D0
  8
52
 10
31.84109532309202
 20
542.73548836335408
 30
0.0
 11
33.017673731246241
 21
540.69759478134256
 31
0.0
  0
LINE
  5
D1
  8
52
 10
34.517673731246241
 20
540.69759478134256
 30
0.0
 11
35.694252139400533
 21
542.73548836335431
 31
0.0
  0
ARC
  5
D2
  8
52
 10
33.767673731246248
 20
542.19855667565855
 30
0.0
 40
2.0
 50
135.57299599946381
 51
164.42700400054591
  0
LINE
  5
D3
  8
52
 10
29.267673731246241
 20
542.19855667565855
 30
0.0
 11
29.267673731246241
 21
555.88201438883436
 31
0.0
  0
ARC
  5
D4
  8
52
 10
33.767673731246248
 20
542.19855667565855
 30
0.0
 40
5.5
 50
66.098068074038252
 51
136.3971810273006
  0
LINE
  5
D5
  8
52
 10
36.417673731246218
 20
541.69855667565855
 30
0.0
 11
36.417673731246218
 21
553.84855667565876
 31
0.0
  0
ARC
  5
D6
  8
52
 10
29.567673731246199
 20
546.19855667565821
 30
0.0
 40
0.3
 50
180.0
 51
316.39718102730018
  0
ARC
  5
D7
  8
31
 10
268.59410956359358
 20
558.05116331248007
 30
0.0
 40
0.3
 50
0.0
 51
89.500000000002004
  0
LINE
  5
D8
  8
33
  6
DASHED
 10
268.59672958282073
 20
558.35115187143435
 30
0.0
 11
239.69149160294401
 21
558.58595032616279
 31
0.0
  0
ARC
  5
D9
  8
61
 10
467.24052662702439
 20
650.19855667565855
 30
0.0
 40
6.0
 50
0.0
 51
90.0
  0
ARC
  5
DA
  8
61
 10
467.24052662702439
 20
542.19855667565855
 30
0.0
 40
6.0
 50
270.0
 51
0.0
  0
ARC
  5
DB
  8
61
 10
319.24052662702451
 20
542.19855667565855
 30
0.0
 40
6.0
 50
180.0
 51
270.0
  0
ARC
  5
DC
  8
61
 10
319.24052662702439
 20
650.19855667565855
 30
0.0
 40
6.0
 50
90.0
 51
180.0
  0
LINE
  5
DD
  8
61
 10
467.24052662702439
 20
536.19855667565855
 30
0.0
 11
319.24052662702451
 21
536.19855667565855
 31
0.0
  0
LINE
  5
DE
  8
61
 10
467.24052662702439
 20
656.19855667565855
 30
0.0
 11
319.24052662702439
 21
656.19855667565855
 31
0.0
  0
LINE
  5
DF
  8
61
 10
473.24052662702439
 20
542.19855667565855
 30
0.0
 11
473.24052662702439
 21
650.19855667565855
 31
0.0
  0
LINE
  5
E0
  8
61
 10
313.24052662702451
 20
542.19855667565855
 30
0.0
 11
313.24052662702439
 21
650.19855667565855
 31
0.0
  0
CIRCLE
  5
E1
  8
61
 10
467.24052662702439
 20
542.19855667565855
 30
0.0
 40
4.3665284472104977
  0
CIRCLE
  5
E2
  8
62
 10
467.24052662702439
 20
542.19855667565855
 30
0.0
 40
4.0
  0
ARC
  5
E3
  8
61
 10
467.24052662702439
 20
542.19855667565855
 30
0.0
 40
2.1000000000000001
 50
290.92483242751553
 51
249.07516757248581
  0
ARC
  5
E4
  8
61
 10
467.24052662702439
 20
650.19855667565855
 30
0.0
 40
2.0
 50
15.57299599945412
 51
44.427004000536151
  0
LINE
  5
E5
  8
61
 10
466.49052662702451
 20
648.69759478134256
 30
0.0
 11
465.31394821887
 21
650.73548836335431
 31
0.0
  0
LINE
  5
E6
  8
61
 10
469.16710503517868
 20
650.73548836335397
 30
0.0
 11
467.99052662702439
 21
648.69759478134233
 31
0.0
  0
LINE
  5
E7
  8
61
 10
465.81224094130602
 20
651.59855667565512
 30
0.0
 11
468.66881231274277
 21
651.59855667565512
 31
0.0
  0
ARC
  5
E8
  8
61
 10
467.24052662702439
 20
650.19855667565855
 30
0.0
 40
2.0
 50
135.57299599946271
 51
164.427004000539
  0
ARC
  5
E9
  8
61
 10
467.24052662702439
 20
650.19855667565855
 30
0.0
 40
2.1000000000000001
 50
290.92483242768179
 51
249.0751675723196
  0
CIRCLE
  5
EA
  8
62
 10
467.24052662702439
 20
650.19855667565855
 30
0.0
 40
4.0
  0
CIRCLE
  5
EB
  8
61
 10
467.24052662702439
 20
650.19855667565855
 30
0.0
 40
4.3665284472104977
  0
ARC
  5
EC
  8
61
 10
319.24052662702451
 20
650.19855667565844
 30
0.0
 40
2.0
 50
195.57299599945401
 51
224.4270040005361
  0
LINE
  5
ED
  8
61
 10
319.99052662702439
 20
651.69951856997454
 30
0.0
 11
321.16710503517879
 21
649.6616249879628
 31
0.0
  0
LINE
  5
EE
  8
61
 10
317.31394821887022
 20
649.66162498796302
 30
0.0
 11
318.49052662702439
 21
651.69951856997466
 31
0.0
  0
LINE
  5
EF
  8
61
 10
320.66881231274277
 20
648.79855667566198
 30
0.0
 11
317.81224094130602
 21
648.79855667566198
 31
0.0
  0
ARC
  5
F0
  8
61
 10
319.24052662702451
 20
650.19855667565844
 30
0.0
 40
2.0
 50
315.57299599946259
 51
344.427004000539
  0
ARC
  5
F1
  8
61
 10
319.24052662702451
 20
650.19855667565844
 30
0.0
 40
2.1000000000000001
 50
110.92483242782311
 51
69.075167572179737
  0
CIRCLE
  5
F2
  8
62
 10
319.24052662702451
 20
650.19855667565844
 30
0.0
 40
4.0
  0
CIRCLE
  5
F3
  8
61
 10
319.24052662702451
 20
650.19855667565844
 30
0.0
 40
4.3665284472104977
  0
CIRCLE
  5
F4
  8
61
 10
319.24052662702451
 20
542.19855667565844
 30
0.0
 40
4.3665284472104977
  0
CIRCLE
  5
F5
  8
62
 10
319.24052662702451
 20
542.19855667565844
 30
0.0
 40
4.0
  0
ARC
  5
F6
  8
61
 10
319.24052662702451
 20
542.19855667565844
 30
0.0
 40
2.1000000000000001
 50
110.92483242774119
 51
69.075167572261677
  0
ARC
  5
F7
  8
61
 10
319.24052662702451
 20
542.19855667565844
 30
0.0
 40
2.0
 50
315.57299599946259
 51
344.427004000539
  0
LINE
  5
F8
  8
61
 10
320.66881231274277
 20
540.79855667566198
 30
0.0
 11
317.81224094130602
 21
540.79855667566198
 31
0.0
  0
LINE
  5
F9
  8
61
 10
317.31394821887022
 20
541.66162498796302
 30
0.0
 11
318.49052662702439
 21
543.69951856997466
 31
0.0
  0
LINE
  5
FA
  8
61
 10
319.99052662702439
 20
543.69951856997454
 30
0.0
 11
321.16710503517879
 21
541.6616249879628
 31
0.0
  0
ARC
  5
FB
  8
61
 10
319.24052662702451
 20
542.19855667565844
 30
0.0
 40
2.0
 50
195.57299599945401
 51
224.4270040005361
  0
ARC
  5
FC
  8
52
 10
36.117673731246207
 20
547.50115038062916
 30
0.0
 40
0.3
 50
246.0980680740376
 51
0.0
  0
ARC
  5
FD
  8
52
 10
36.117673731246207
 20
644.89596297068829
 30
0.0
 40
0.3
 50
0.0000000000000799
 51
113.9019319259622
  0
ARC
  5
FE
  8
52
 10
29.567673731246199
 20
646.19855667565935
 30
0.0
 40
0.3
 50
43.602818972699772
 51
180.0
  0
ARC
  5
FF
  8
52
 10
33.767673731246248
 20
650.19855667565866
 30
0.0
 40
5.5
 50
223.60281897269931
 51
293.90193192596178
  0
ARC
  5
100
  8
52
 10
33.767673731246298
 20
650.19855667565878
 30
0.0
 40
2.0
 50
15.57299599945412
 51
44.427004000536151
  0
LINE
  5
101
  8
52
 10
33.017673731246241
 20
648.69759478134267
 30
0.0
 11
31.84109532309202
 21
650.73548836335453
 31
0.0
  0
LINE
  5
102
  8
52
 10
35.694252139400533
 20
650.73548836335431
 30
0.0
 11
34.517673731246241
 21
648.69759478134256
 31
0.0
  0
LINE
  5
103
  8
52
 10
32.339388045527983
 20
651.59855667565535
 30
0.0
 11
35.195959416964683
 21
651.59855667565535
 31
0.0
  0
ARC
  5
104
  8
52
 10
33.767673731246298
 20
650.19855667565878
 30
0.0
 40
2.0
 50
135.57299599946271
 51
164.427004000539
  0
LINE
  5
105
  8
51
 10
35.417673731246168
 20
633.04855667565857
 30
0.0
 11
33.267673731246241
 21
633.04855667565857
 31
0.0
  0
LINE
  5
106
  8
52
 10
35.417673731246168
 20
634.03155667565875
 30
0.0
 11
33.267673731246241
 21
634.03155667565875
 31
0.0
  0
LINE
  5
107
  8
52
 10
35.417673731246218
 20
636.54855667565869
 30
0.0
 11
33.267673731246241
 21
636.54855667565869
 31
0.0
  0
ARC
  5
108
  8
51
 10
33.767673731246248
 20
650.19855667565855
 30
0.0
 40
6.0
 50
90.000000000000028
 51
180.0
  0
LINE
  5
109
  8
52
 10
37.417673731246111
 20
650.69855667565855
 30
0.0
 11
37.417673731246111
 21
638.54855667565846
 31
0.0
  0
LINE
  5
10A
  8
52
 10
39.934673731246157
 20
650.69855667565855
 30
0.0
 11
39.934673731246157
 21
638.54855667565846
 31
0.0
  0
LINE
  5
10B
  8
51
 10
40.917673731246168
 20
650.69855667565855
 30
0.0
 11
40.917673731246168
 21
638.54855667565846
 31
0.0
  0
ARC
  5
10C
  8
52
 10
41.917673731246218
 20
650.69855667565855
 30
0.0
 40
4.5000000000001128
 50
90.000000000000057
 51
180.0
  0
ARC
  5
10D
  8
52
 10
35.417673731246168
 20
638.54855667565857
 30
0.0
 40
1.9999999999998861
 50
270.0
 51
359.99999999999972
  0
ARC
  5
10E
  8
52
 10
33.267673731246241
 20
632.04855667565869
 30
0.0
 40
4.5000000000001128
 50
90.000000000000028
 51
180.0
  0
ARC
  5
10F
  8
52
 10
41.917673731246218
 20
650.69855667565855
 30
0.0
 40
1.98300000000006
 50
90.000000000000057
 51
180.0
  0
ARC
  5
110
  8
52
 10
35.417673731246168
 20
638.54855667565857
 30
0.0
 40
4.5169999999999391
 50
270.0
 51
359.99999999999972
  0
ARC
  5
111
  8
52
 10
33.267673731246241
 20
632.04855667565869
 30
0.0
 40
1.98300000000006
 50
90.000000000000028
 51
180.0
  0
ARC
  5
112
  8
51
 10
41.917673731246218
 20
650.69855667565855
 30
0.0
 40
1.000000000000056
 50
90.000000000000057
 51
180.0
  0
ARC
  5
113
  8
51
 10
35.417673731246168
 20
638.54855667565857
 30
0.0
 40
5.4999999999999432
 50
270.0
 51
359.99999999999972
  0
ARC
  5
114
  8
51
 10
33.267673731246241
 20
632.04855667565869
 30
0.0
 40
1.000000000000056
 50
90.000000000000028
 51
180.0
  0
ARC
  5
115
  8
52
 10
35.417673731246168
 20
638.54855667565857
 30
0.0
 40
1.0
 50
270.0
 51
359.99999999999972
  0
LINE
  5
116
  8
52
 10
35.417673731246218
 20
637.54855667565846
 30
0.0
 11
33.267673731246241
 21
637.54855667565846
 31
0.0
  0
ARC
  5
117
  8
52
 10
33.267673731246241
 20
632.04855667565869
 30
0.0
 40
5.5
 50
90.000000000000028
 51
129.63771439067361
  0
ARC
  5
118
  8
52
 10
29.567673731246249
 20
636.51509896248297
 30
0.0
 40
0.3
 50
180.0
 51
309.63771439067318
  0
ARC
  5
119
  8
52
 10
185.96767373124621
 20
636.51509896248297
 30
0.0
 40
0.3
 50
230.36228560932679
 51
0.0
  0
ARC
  5
11A
  8
52
 10
182.2676737312463
 20
632.04855667565869
 30
0.0
 40
5.5
 50
50.362285609326307
 51
90.000000000000028
  0
LINE
  5
11B
  8
52
 10
180.1176737312463
 20
637.54855667565846
 30
0.0
 11
182.2676737312463
 21
637.54855667565846
 31
0.0
  0
ARC
  5
11C
  8
52
 10
180.1176737312463
 20
638.54855667565857
 30
0.0
 40
1.0
 50
180.0000000000002
 51
270.0
  0
ARC
  5
11D
  8
51
 10
182.2676737312463
 20
632.04855667565869
 30
0.0
 40
1.000000000000056
 50
0.0
 51
90.000000000000028
  0
ARC
  5
11E
  8
51
 10
180.1176737312463
 20
638.54855667565857
 30
0.0
 40
5.4999999999999432
 50
180.0000000000002
 51
270.0
  0
ARC
  5
11F
  8
51
 10
173.6176737312463
 20
650.69855667565855
 30
0.0
 40
1.000000000000056
 50
0.0
 51
90.0
  0
ARC
  5
120
  8
52
 10
182.2676737312463
 20
632.04855667565869
 30
0.0
 40
1.98300000000006
 50
0.0
 51
90.000000000000028
  0
ARC
  5
121
  8
52
 10
180.1176737312463
 20
638.54855667565857
 30
0.0
 40
4.5169999999999391
 50
180.0000000000002
 51
270.0
  0
ARC
  5
122
  8
52
 10
173.6176737312463
 20
650.69855667565855
 30
0.0
 40
1.98300000000006
 50
0.0
 51
90.0
  0
ARC
  5
123
  8
52
 10
182.2676737312463
 20
632.04855667565869
 30
0.0
 40
4.5000000000001128
 50
0.0
 51
90.000000000000028
  0
ARC
  5
124
  8
52
 10
180.1176737312463
 20
638.54855667565857
 30
0.0
 40
1.9999999999998861
 50
180.0000000000002
 51
270.0
  0
ARC
  5
125
  8
52
 10
173.6176737312463
 20
650.69855667565855
 30
0.0
 40
4.5000000000001128
 50
0.0
 51
90.0
  0
LINE
  5
126
  8
51
 10
174.6176737312463
 20
650.69855667565855
 30
0.0
 11
174.6176737312463
 21
638.54855667565846
 31
0.0
  0
LINE
  5
127
  8
52
 10
175.6006737312463
 20
650.69855667565855
 30
0.0
 11
175.6006737312463
 21
638.54855667565846
 31
0.0
  0
LINE
  5
128
  8
52
 10
178.11767373124641
 20
650.69855667565855
 30
0.0
 11
178.11767373124641
 21
638.54855667565846
 31
0.0
  0
ARC
  5
129
  8
51
 10
181.7676737312463
 20
650.19855667565855
 30
0.0
 40
6.0
 50
0.0000000000000799
 51
90.000000000000028
  0
LINE
  5
12A
  8
52
 10
180.1176737312463
 20
636.54855667565869
 30
0.0
 11
182.2676737312463
 21
636.54855667565869
 31
0.0
  0
LINE
  5
12B
  8
52
 10
180.1176737312463
 20
634.03155667565875
 30
0.0
 11
182.2676737312463
 21
634.03155667565875
 31
0.0
  0
LINE
  5
12C
  8
51
 10
180.1176737312463
 20
633.04855667565857
 30
0.0
 11
182.2676737312463
 21
633.04855667565857
 31
0.0
  0
ARC
  5
12D
  8
52
 10
181.7676737312463
 20
650.19855667565855
 30
0.0
 40
2.0
 50
195.57299599946089
 51
224.42700400053721
  0
LINE
  5
12E
  8
52
 10
180.3393880455279
 20
648.79855667566221
 30
0.0
 11
183.1959594169646
 21
648.79855667566221
 31
0.0
  0
LINE
  5
12F
  8
52
 10
183.6942521394005
 20
649.66162498796325
 30
0.0
 11
182.51767373124619
 21
651.699518569975
 31
0.0
  0
LINE
  5
130
  8
52
 10
181.0176737312463
 20
651.69951856997466
 30
0.0
 11
179.84109532309199
 21
649.66162498796302
 31
0.0
  0
ARC
  5
131
  8
52
 10
181.7676737312463
 20
650.19855667565855
 30
0.0
 40
2.0
 50
315.57299599946379
 51
344.42700400054588
  0
ARC
  5
132
  8
52
 10
181.7676737312463
 20
650.19855667565866
 30
0.0
 40
5.5
 50
246.09806807403811
 51
316.39718102730069
  0
ARC
  5
133
  8
52
 10
185.96767373124629
 20
646.19855667565935
 30
0.0
 40
0.3
 50
0.0
 51
136.39718102730021
  0
ARC
  5
134
  8
52
 10
179.41767373124631
 20
644.89596297068829
 30
0.0
 40
0.3
 50
66.098068074037698
 51
179.99999999999989
  0
ARC
  5
135
  8
52
 10
179.41767373124631
 20
547.50115038062916
 30
0.0
 40
0.3
 50
180.0
 51
293.90193192596229
  0
ARC
  5
136
  8
52
 10
185.96767373124629
 20
546.19855667565821
 30
0.0
 40
0.3
 50
223.60281897269971
 51
0.0
  0
ARC
  5
137
  8
52
 10
181.7676737312463
 20
542.19855667565855
 30
0.0
 40
5.5
 50
43.602818972699367
 51
113.9019319259617
  0
ARC
  5
138
  8
52
 10
181.7676737312463
 20
542.19855667565855
 30
0.0
 40
2.0
 50
195.57299599945401
 51
224.4270040005361
  0
LINE
  5
139
  8
52
 10
182.51767373124619
 20
543.69951856997466
 30
0.0
 11
183.6942521394005
 21
541.66162498796302
 31
0.0
  0
LINE
  5
13A
  8
52
 10
179.84109532309199
 20
541.66162498796302
 30
0.0
 11
181.0176737312463
 21
543.69951856997466
 31
0.0
  0
LINE
  5
13B
  8
52
 10
183.19595941696451
 20
540.79855667566221
 30
0.0
 11
180.3393880455279
 21
540.79855667566221
 31
0.0
  0
ARC
  5
13C
  8
52
 10
181.7676737312463
 20
542.19855667565855
 30
0.0
 40
2.0
 50
315.57299599946259
 51
344.427004000539
  0
LINE
  5
13D
  8
51
 10
180.1176737312463
 20
559.34855667565876
 30
0.0
 11
182.2676737312463
 21
559.34855667565876
 31
0.0
  0
LINE
  5
13E
  8
52
 10
180.1176737312463
 20
558.36555667565881
 30
0.0
 11
182.2676737312463
 21
558.36555667565881
 31
0.0
  0
LINE
  5
13F
  8
52
 10
180.1176737312463
 20
555.84855667565876
 30
0.0
 11
182.2676737312463
 21
555.84855667565876
 31
0.0
  0
ARC
  5
140
  8
51
 10
181.7676737312463
 20
542.19855667565855
 30
0.0
 40
6.0
 50
270.0
 51
0.0
  0
LINE
  5
141
  8
52
 10
178.11767373124641
 20
541.69855667565855
 30
0.0
 11
178.11767373124641
 21
553.84855667565876
 31
0.0
  0
LINE
  5
142
  8
52
 10
175.6006737312463
 20
541.69855667565855
 30
0.0
 11
175.6006737312463
 21
553.84855667565876
 31
0.0
  0
LINE
  5
143
  8
51
 10
174.6176737312463
 20
541.69855667565855
 30
0.0
 11
174.6176737312463
 21
553.84855667565876
 31
0.0
  0
ARC
  5
144
  8
52
 10
173.6176737312463
 20
541.69855667565855
 30
0.0
 40
4.5000000000001128
 50
270.0
 51
0.0
  0
ARC
  5
145
  8
52
 10
180.1176737312463
 20
553.84855667565876
 30
0.0
 40
1.9999999999998861
 50
90.0
 51
179.9999999999996
  0
ARC
  5
146
  8
52
 10
182.2676737312463
 20
560.34855667565876
 30
0.0
 40
4.5000000000001128
 50
270.0
 51
0.0
  0
ARC
  5
147
  8
52
 10
173.6176737312463
 20
541.69855667565855
 30
0.0
 40
1.98300000000006
 50
270.0
 51
0.0
  0
ARC
  5
148
  8
52
 10
180.1176737312463
 20
553.84855667565876
 30
0.0
 40
4.5169999999999391
 50
90.0
 51
179.9999999999996
  0
ARC
  5
149
  8
52
 10
182.2676737312463
 20
560.34855667565876
 30
0.0
 40
1.98300000000006
 50
270.0
 51
0.0
  0
ARC
  5
14A
  8
51
 10
173.6176737312463
 20
541.69855667565855
 30
0.0
 40
1.000000000000056
 50
270.0
 51
0.0
  0
ARC
  5
14B
  8
51
 10
180.1176737312463
 20
553.84855667565876
 30
0.0
 40
5.4999999999999432
 50
90.0
 51
179.9999999999996
  0
ARC
  5
14C
  8
51
 10
182.2676737312463
 20
560.34855667565876
 30
0.0
 40
1.000000000000056
 50
270.0
 51
0.0
  0
ARC
  5
14D
  8
52
 10
180.1176737312463
 20
553.84855667565876
 30
0.0
 40
1.0
 50
90.0
 51
179.9999999999996
  0
LINE
  5
14E
  8
52
 10
180.1176737312463
 20
554.84855667565876
 30
0.0
 11
182.2676737312463
 21
554.84855667565876
 31
0.0
  0
ARC
  5
14F
  8
52
 10
182.2676737312463
 20
560.34855667565876
 30
0.0
 40
5.5
 50
270.0
 51
309.63771439067369
  0
ARC
  5
150
  8
52
 10
185.96767373124621
 20
555.88201438883436
 30
0.0
 40
0.3
 50
0.0
 51
129.6377143906731
  0
ARC
  5
151
  8
33
  6
DASHED
 10
239.69410956359351
 20
558.88593890308221
 30
0.0
 40
0.3
 50
179.99999999999989
 51
269.50000000000188
  0
LINE
  5
152
  8
31
 10
235.8941095635935
 20
537.46036270938146
 30
0.0
 11
236.89407148665771
 21
536.451636173883
 31
0.0
  0
ARC
  5
153
  8
13
  6
DASHED
 10
459.55314439960091
 20
463.08068805937938
 30
0.0
 40
0.3
 50
270.0
 51
359.50000000000188
  0
LINE
  5
154
  8
11
 10
472.98744712880023
 20
460.28064998244361
 30
0.0
 11
471.97872059330172
 21
459.28068805937937
 31
0.0
  0
INSERT
  5
155
  8
L6
  2
ACAD
 10
0.0
 20
0.0
 30
0.0
  0
LINE
  5
156
  8
33
 10
269.0013834134333
 20
596.19855667565855
 30
0.0
 11
232.18580656228389
 21
596.19855667565855
 31
0.0
  0
LINE
  5
157
  8
13
 10
393.24052662702439
 20
457.25345876138442
 30
0.0
 11
393.24052662702439
 21
492.69838641030918
 31
0.0
  0
LINE
  5
158
  8
63
 10
393.24052662702439
 20
530.06859419970056
 30
0.0
 11
393.24052662702439
 21
663.24747983020438
 31
0.0
  0
LINE
  5
159
  8
63
 10
476.3100918852665
 20
596.19855667565855
 30
0.0
 11
308.77355882018861
 21
596.19855667565855
 31
0.0
  0
ARC
  5
15A
  8
52
 10
41.917673731246218
 20
541.69855667565855
 30
0.0
 40
5.5000000000001128
 50
180.0
 51
219.63771439066741
  0
ARC
  5
15B
  8
52
 10
33.767673731246248
 20
542.19855667565855
 30
0.0
 40
4.5
 50
180.0
 51
270.0
  0
LINE
  5
15C
  8
52
 10
37.451131444420923
 20
537.69855667565855
 30
0.0
 11
33.767673731246191
 21
537.69855667565855
 31
0.0
  0
ARC
  5
15D
  8
52
 10
37.451131444420923
 20
537.99855667565873
 30
0.0
 40
0.3
 50
270.0
 51
39.637714390668663
  0
LINE
  5
15E
  8
52
 10
29.267673731246241
 20
650.19855667565878
 30
0.0
 11
29.267673731246241
 21
636.51509896248297
 31
0.0
  0
LINE
  5
15F
  8
52
 10
36.417673731246218
 20
650.69855667565855
 30
0.0
 11
36.417673731246218
 21
638.5485566756588
 31
0.0
  0
ARC
  5
160
  8
52
 10
33.767673731246248
 20
650.19855667565855
 30
0.0
 40
4.5
 50
90.000000000000028
 51
180.0
  0
LINE
  5
161
  8
52
 10
37.451131444420923
 20
654.69855667565855
 30
0.0
 11
33.767673731246191
 21
654.69855667565855
 31
0.0
  0
ARC
  5
162
  8
52
 10
41.917673731246218
 20
650.69855667565855
 30
0.0
 40
5.5000000000001128
 50
140.3622856093325
 51
180.0
  0
ARC
  5
163
  8
52
 10
37.451131444420923
 20
654.39855667565871
 30
0.0
 40
0.3
 50
320.36228560933131
 51
90.000000000000028
  0
LINE
  5
164
  8
52
 10
186.26767373124639
 20
542.19855667565855
 30
0.0
 11
186.26767373124639
 21
555.88201438883436
 31
0.0
  0
LINE
  5
165
  8
52
 10
179.11767373124641
 20
541.69855667565855
 30
0.0
 11
179.11767373124641
 21
553.84855667565876
 31
0.0
  0
ARC
  5
166
  8
52
 10
181.76767373124639
 20
542.19855667565855
 30
0.0
 40
4.5
 50
270.0
 51
0.0
  0
LINE
  5
167
  8
52
 10
178.08421601807169
 20
537.69855667565855
 30
0.0
 11
181.7676737312465
 21
537.69855667565855
 31
0.0
  0
ARC
  5
168
  8
52
 10
173.61767373124641
 20
541.69855667565855
 30
0.0
 40
5.5000000000001128
 50
320.3622856093325
 51
0.0
  0
ARC
  5
169
  8
52
 10
178.08421601807169
 20
537.99855667565873
 30
0.0
 40
0.3
 50
140.36228560933131
 51
270.0
  0
LINE
  5
16A
  8
52
 10
186.26767373124639
 20
650.19855667565878
 30
0.0
 11
186.26767373124639
 21
636.51509896248297
 31
0.0
  0
LINE
  5
16B
  8
52
 10
179.11767373124641
 20
650.69855667565855
 30
0.0
 11
179.11767373124641
 21
638.5485566756588
 31
0.0
  0
ARC
  5
16C
  8
52
 10
181.76767373124639
 20
650.19855667565855
 30
0.0
 40
4.5
 50
0.0000000000000799
 51
90.000000000000028
  0
LINE
  5
16D
  8
52
 10
178.08421601807169
 20
654.69855667565855
 30
0.0
 11
181.7676737312465
 21
654.69855667565855
 31
0.0
  0
ARC
  5
16E
  8
52
 10
173.61767373124641
 20
650.69855667565855
 30
0.0
 40
5.5000000000001128
 50
0.0
 51
39.637714390667448
  0
ARC
  5
16F
  8
52
 10
178.08421601807169
 20
654.39855667565871
 30
0.0
 40
0.3
 50
90.000000000000028
 51
219.63771439066869
  0
LINE
  5
170
  8
52
 10
33.017673731246241
 20
538.37135142900649
 30
0.0
 11
33.017673731246241
 21
540.69759478134245
 31
0.0
  0
ARC
  5
171
  8
52
 10
33.767673731246127
 20
542.19855667565855
 30
0.0
 40
3.8999999999999999
 50
258.9125107890315
 51
281.08748921097231
  0
LINE
  5
172
  8
52
 10
34.517673731246241
 20
538.37135142900672
 30
0.0
 11
34.517673731246241
 21
540.69759478134256
 31
0.0
  0
LINE
  5
173
  8
52
 10
33.017673731246241
 20
646.37135142900649
 30
0.0
 11
33.017673731246241
 21
648.69759478134256
 31
0.0
  0
LINE
  5
174
  8
52
 10
34.517673731246241
 20
646.37135142900684
 30
0.0
 11
34.517673731246241
 21
648.69759478134256
 31
0.0
  0
ARC
  5
175
  8
52
 10
33.767673731246127
 20
650.19855667565855
 30
0.0
 40
3.8999999999999999
 50
258.9125107890315
 51
281.08748921097231
  0
LINE
  5
176
  8
52
 10
182.51767373124619
 20
654.02576192231095
 30
0.0
 11
182.51767373124619
 21
651.699518569975
 31
0.0
  0
LINE
  5
177
  8
52
 10
181.0176737312463
 20
654.02576192231061
 30
0.0
 11
181.0176737312463
 21
651.699518569975
 31
0.0
  0
ARC
  5
178
  8
52
 10
181.76767373124639
 20
650.19855667565866
 30
0.0
 40
3.8999999999999999
 50
78.912510789031487
 51
101.08748921097229
  0
LINE
  5
179
  8
52
 10
182.51767373124619
 20
546.02576192231061
 30
0.0
 11
182.51767373124619
 21
543.69951856997466
 31
0.0
  0
LINE
  5
17A
  8
52
 10
181.0176737312463
 20
546.02576192231049
 30
0.0
 11
181.0176737312463
 21
543.69951856997466
 31
0.0
  0
ARC
  5
17B
  8
52
 10
181.76767373124639
 20
542.19855667565855
 30
0.0
 40
3.8999999999999999
 50
78.912510789031487
 51
101.08748921097229
  0
ARC
  5
17C
  8
61
 10
467.24052662702428
 20
542.19855667565855
 30
0.0
 40
3.8999999999999999
 50
258.9125107890315
 51
281.08748921097231
  0
LINE
  5
17D
  8
61
 10
467.99052662702439
 20
538.37135142900649
 30
0.0
 11
467.99052662702439
 21
540.69759478134233
 31
0.0
  0
LINE
  5
17E
  8
61
 10
466.49052662702451
 20
538.37135142900638
 30
0.0
 11
466.49052662702451
 21
540.69759478134233
 31
0.0
  0
ARC
  5
17F
  8
61
 10
467.24052662702439
 20
542.19855667565855
 30
0.0
 40
2.0
 50
135.57299599946271
 51
164.427004000539
  0
LINE
  5
180
  8
61
 10
465.81224094130619
 20
543.59855667565512
 30
0.0
 11
468.66881231274277
 21
543.59855667565512
 31
0.0
  0
LINE
  5
181
  8
61
 10
469.16710503517868
 20
542.73548836335397
 30
0.0
 11
467.99052662702439
 21
540.69759478134233
 31
0.0
  0
LINE
  5
182
  8
61
 10
466.49052662702451
 20
540.69759478134256
 30
0.0
 11
465.31394821887022
 21
542.73548836335431
 31
0.0
  0
ARC
  5
183
  8
61
 10
467.24052662702439
 20
542.19855667565855
 30
0.0
 40
2.0
 50
15.57299599945412
 51
44.427004000536151
  0
LINE
  5
184
  8
61
 10
466.49052662702451
 20
646.37135142900638
 30
0.0
 11
466.49052662702451
 21
648.69759478134233
 31
0.0
  0
ARC
  5
185
  8
61
 10
467.24052662702428
 20
650.19855667565855
 30
0.0
 40
3.8999999999999999
 50
258.9125107890315
 51
281.08748921097231
  0
LINE
  5
186
  8
61
 10
467.99052662702439
 20
646.37135142900649
 30
0.0
 11
467.99052662702439
 21
648.69759478134233
 31
0.0
  0
LINE
  5
187
  8
61
 10
319.99052662702439
 20
654.02576192231061
 30
0.0
 11
319.99052662702439
 21
651.69951856997466
 31
0.0
  0
ARC
  5
188
  8
61
 10
319.24052662702451
 20
650.19855667565844
 30
0.0
 40
3.8999999999999999
 50
78.912510789031487
 51
101.08748921097229
  0
LINE
  5
189
  8
61
 10
318.49052662702439
 20
654.02576192231049
 30
0.0
 11
318.49052662702439
 21
651.69951856997466
 31
0.0
  0
LINE
  5
18A
  8
61
 10
318.49052662702439
 20
546.02576192231049
 30
0.0
 11
318.49052662702439
 21
543.69951856997466
 31
0.0
  0
LINE
  5
18B
  8
61
 10
319.99052662702439
 20
546.02576192231061
 30
0.0
 11
319.99052662702439
 21
543.69951856997466
 31
0.0
  0
ARC
  5
18C
  8
61
 10
319.24052662702451
 20
542.19855667565844
 30
0.0
 40
3.8999999999999999
 50
78.912510789031487
 51
101.08748921097229
  0
LINE
  5
18D
  8
11
 10
469.76100923024632
 20
489.28068805937932
 30
0.0
 11
393.24052662702439
 21
489.28068805937932
 31
0.0
  0
LINE
  5
18E
  8
11
 10
472.98744712880023
 20
460.28064998244361
 30
0.0
 11
393.24052662702439
 21
460.28064998244361
 31
0.0
  0
LINE
  5
18F
  8
11
 10
313.49360612524862
 20
460.28064998244361
 30
0.0
 11
314.50233266074707
 21
459.28068805937937
 31
0.0
  0
ARC
  5
190
  8
13
  6
DASHED
 10
326.92790885444782
 20
463.08068805937938
 30
0.0
 40
0.3
 50
180.4999999999981
 51
270.0
  0
ARC
  5
191
  8
11
 10
317.05279087088718
 20
491.98068805937942
 30
0.0
 40
0.3
 50
90.0
 51
178.99999999999989
  0
LINE
  5
192
  8
11
 10
316.75283656234029
 20
491.98592378131048
 30
0.0
 11
316.72004402380247
 21
489.28068805937932
 31
0.0
  0
LINE
  5
193
  8
11
 10
313.24052662702439
 20
489.28068805937937
 30
0.0
 11
313.49360612524862
 21
460.28064998244361
 31
0.0
  0
LINE
  5
194
  8
11
 10
316.74052662702428
 20
489.28068805937937
 30
0.0
 11
313.24052662702428
 21
489.28068805937937
 31
0.0
  0
LINE
  5
195
  8
13
  6
DASHED
 10
326.3931218407651
 20
491.98330602002869
 30
0.0
 11
326.62792027752852
 21
463.07807009872988
 31
0.0
  0
LINE
  5
196
  8
11
 10
316.72004402380247
 20
489.28068805937932
 30
0.0
 11
393.24052662702439
 21
489.28068805937932
 31
0.0
  0
LINE
  5
197
  8
11
 10
313.49360612524862
 20
460.28064998244361
 30
0.0
 11
393.24052662702439
 21
460.28064998244361
 31
0.0
  0
LINE
  5
198
  8
31
 10
236.89407148665771
 20
536.451636173883
 30
0.0
 11
236.89407148665771
 21
596.19855667565855
 31
0.0
  0
LINE
  5
199
  8
31
 10
265.89410956359359
 20
539.67807407243708
 30
0.0
 11
265.89410956359359
 21
596.19855667565855
 31
0.0
  0
LINE
  5
19A
  8
31
 10
265.89410956359359
 20
652.71903927888047
 30
0.0
 11
265.89410956359359
 21
596.19855667565855
 31
0.0
  0
LINE
  5
19B
  8
31
 10
236.89407148665771
 20
655.9454771774341
 30
0.0
 11
236.89407148665771
 21
596.19855667565855
 31
0.0
  0
LINE
  5
19C
  8
31
 10
235.8941095635935
 20
654.93675064193587
 30
0.0
 11
236.89407148665771
 21
655.9454771774341
 31
0.0
  0
ARC
  5
19D
  8
33
  6
DASHED
 10
239.69410956359351
 20
633.51117444823535
 30
0.0
 40
0.3
 50
90.499999999997982
 51
180.0
  0
LINE
  5
19E
  8
33
  6
DASHED
 10
268.59672958282073
 20
634.04596147988275
 30
0.0
 11
239.69149160294401
 21
633.81116302515466
 31
0.0
  0
ARC
  5
19F
  8
31
 10
268.59410956359358
 20
634.34595003883715
 30
0.0
 40
0.3
 50
270.49999999999801
 51
0.0
  0
LINE
  5
1A0
  8
31
 10
265.89410956359359
 20
652.69855667565855
 30
0.0
 11
265.89410956359359
 21
656.19855667565855
 31
0.0
  0
LINE
  5
1A1
  8
31
 10
265.89410956359359
 20
656.19855667565855
 30
0.0
 11
236.89407148665771
 21
655.9454771774341
 31
0.0
  0
LINE
  5
1A2
  8
31
 10
268.59934528552481
 20
652.68624674034265
 30
0.0
 11
265.89410956359359
 21
652.71903927888047
 31
0.0
  0
ARC
  5
1A3
  8
31
 10
268.59410956359352
 20
652.38629243179571
 30
0.0
 40
0.3
 50
0.0
 51
88.999999999999929
  0
LINE
  5
1A4
  8
33
  6
DASHED
 10
239.39410956359339
 20
633.51117444823535
 30
0.0
 11
239.3941095635935
 21
596.19855667565855
 31
0.0
  0
TEXT
  5
1A5
  8
L20
 10
78.637668221193536
 20
709.21812206589323
 30
0.0
 40
7.6081698575364953
  1
FIBOX EURONORD II
  7
ISO
  0
LINE
  5
1A7
  8
43
  6
DASHED
 10
549.22700095914195
 20
633.51117444823535
 30
0.0
 11
549.22700095914195
 21
596.19855667565855
 31
0.0
  0
ARC
  5
1A8
  8
41
 10
520.0270009591419
 20
652.38629243179571
 30
0.0
 40
0.3
 50
91.000000000000085
 51
180.0
  0
LINE
  5
1A9
  8
41
 10
520.02176523721073
 20
652.68624674034265
 30
0.0
 11
522.72700095914195
 21
652.71903927888047
 31
0.0
  0
LINE
  5
1AA
  8
41
 10
522.72700095914195
 20
656.19855667565855
 30
0.0
 11
551.72703903607783
 21
655.9454771774341
 31
0.0
  0
LINE
  5
1AB
  8
41
 10
522.72700095914195
 20
652.69855667565855
 30
0.0
 11
522.72700095914195
 21
656.19855667565855
 31
0.0
  0
ARC
  5
1AC
  8
41
 10
520.02700095914179
 20
634.34595003883715
 30
0.0
 40
0.3
 50
180.0
 51
269.50000000000188
  0
LINE
  5
1AD
  8
43
  6
DASHED
 10
520.02438093991475
 20
634.04596147988275
 30
0.0
 11
548.92961891979144
 21
633.81116302515466
 31
0.0
  0
ARC
  5
1AE
  8
43
  6
DASHED
 10
548.92700095914199
 20
633.51117444823535
 30
0.0
 40
0.3
 50
359.99999999999989
 51
89.500000000002004
  0
LINE
  5
1AF
  8
41
 10
552.72700095914195
 20
654.93675064193587
 30
0.0
 11
551.72703903607783
 21
655.9454771774341
 31
0.0
  0
LINE
  5
1B0
  8
41
 10
551.72703903607783
 20
655.9454771774341
 30
0.0
 11
551.72703903607783
 21
596.19855667565855
 31
0.0
  0
LINE
  5
1B1
  8
41
 10
522.72700095914195
 20
652.71903927888047
 30
0.0
 11
522.72700095914195
 21
596.19855667565855
 31
0.0
  0
LINE
  5
1B2
  8
41
 10
522.72700095914195
 20
539.67807407243708
 30
0.0
 11
522.72700095914195
 21
596.19855667565855
 31
0.0
  0
LINE
  5
1B3
  8
41
 10
551.72703903607783
 20
536.451636173883
 30
0.0
 11
551.72703903607783
 21
596.19855667565855
 31
0.0
  0
LINE
  5
1B4
  8
43
 10
519.61972710930206
 20
596.19855667565855
 30
0.0
 11
556.43530396045162
 21
596.19855667565855
 31
0.0
  0
LINE
  5
1B5
  8
41
 10
552.72700095914195
 20
537.46036270938146
 30
0.0
 11
551.72703903607783
 21
536.451636173883
 31
0.0
  0
ARC
  5
1B6
  8
43
  6
DASHED
 10
548.92700095914199
 20
558.88593890308221
 30
0.0
 40
0.3
 50
270.49999999999801
 51
0.0000000000000254
  0
LINE
  5
1B7
  8
43
  6
DASHED
 10
520.02438093991475
 20
558.35115187143435
 30
0.0
 11
548.92961891979144
 21
558.58595032616279
 31
0.0
  0
ARC
  5
1B8
  8
41
 10
520.02700095914179
 20
558.05116331248007
 30
0.0
 40
0.3
 50
90.499999999997982
 51
180.0
  0
LINE
  5
1B9
  8
41
 10
522.72700095914195
 20
539.69855667565878
 30
0.0
 11
522.72700095914195
 21
536.19855667565878
 31
0.0
  0
LINE
  5
1BA
  8
41
 10
522.72700095914195
 20
536.19855667565878
 30
0.0
 11
551.72703903607783
 21
536.451636173883
 31
0.0
  0
LINE
  5
1BB
  8
41
 10
520.02176523721073
 20
539.71086661097479
 30
0.0
 11
522.72700095914195
 21
539.67807407243708
 31
0.0
  0
ARC
  5
1BC
  8
41
 10
520.0270009591419
 20
540.01082091952173
 30
0.0
 40
0.3
 50
180.0
 51
268.99999999999989
  0
LINE
  5
1BD
  8
43
  6
DASHED
 10
549.22700095914195
 20
558.88593890308221
 30
0.0
 11
549.22700095914195
 21
596.19855667565855
 31
0.0
  0
LINE
  5
1BE
  8
41
 10
519.72700095914183
 20
540.01082091952173
 30
0.0
 11
519.72700095914183
 21
652.38629243179571
 31
0.0
  0
LINE
  5
1BF
  8
41
 10
552.72700095914195
 20
537.46036270938146
 30
0.0
 11
552.72700095914195
 21
654.93675064193587
 31
0.0
  0
LINE
  5
1C0
  8
21
 10
313.49360612524862
 20
734.67519655335036
 30
0.0
 11
393.24052662702439
 21
734.67519655335036
 31
0.0
  0
LINE
  5
1C1
  8
21
 10
316.72004402380247
 20
705.67515847641471
 30
0.0
 11
393.24052662702439
 21
705.67515847641471
 31
0.0
  0
LINE
  5
1C2
  8
23
  6
DASHED
 10
326.3931218407651
 20
702.97254051576533
 30
0.0
 11
326.62792027752852
 21
731.87777643706409
 31
0.0
  0
LINE
  5
1C3
  8
21
 10
316.74052662702428
 20
705.67515847641471
 30
0.0
 11
313.24052662702428
 21
705.67515847641471
 31
0.0
  0
LINE
  5
1C4
  8
21
 10
313.24052662702439
 20
705.67515847641471
 30
0.0
 11
313.49360612524862
 21
734.67519655335036
 31
0.0
  0
LINE
  5
1C5
  8
21
 10
316.75283656234029
 20
702.96992275448349
 30
0.0
 11
316.72004402380247
 21
705.67515847641471
 31
0.0
  0
ARC
  5
1C6
  8
21
 10
317.05279087088718
 20
702.97515847641455
 30
0.0
 40
0.3
 50
181.0
 51
270.0
  0
ARC
  5
1C7
  8
23
  6
DASHED
 10
326.92790885444782
 20
731.87515847641464
 30
0.0
 40
0.3
 50
90.0
 51
179.5000000000019
  0
LINE
  5
1C8
  8
21
 10
313.49360612524862
 20
734.67519655335036
 30
0.0
 11
314.50233266074707
 21
735.67515847641471
 31
0.0
  0
LINE
  5
1C9
  8
21
 10
472.98744712880023
 20
734.67519655335036
 30
0.0
 11
393.24052662702439
 21
734.67519655335036
 31
0.0
  0
LINE
  5
1CA
  8
21
 10
469.76100923024632
 20
705.67515847641471
 30
0.0
 11
393.24052662702439
 21
705.67515847641471
 31
0.0
  0
LINE
  5
1CB
  8
23
 10
393.24052662702439
 20
737.70238777440954
 30
0.0
 11
393.24052662702439
 21
702.25746012548484
 31
0.0
  0
LINE
  5
1CC
  8
21
 10
472.98744712880023
 20
734.67519655335036
 30
0.0
 11
471.97872059330172
 21
735.67515847641471
 31
0.0
  0
ARC
  5
1CD
  8
23
  6
DASHED
 10
459.55314439960091
 20
731.87515847641464
 30
0.0
 40
0.3
 50
0.4999999999980861
 51
90.0
  0
LINE
  5
1CE
  8
21
 10
471.97872059330172
 20
735.67515847641471
 30
0.0
 11
314.50233266074702
 21
735.67515847641459
 31
0.0
  0
LINE
  5
1CF
  8
21
 10
469.42826238316138
 20
702.67515847641459
 30
0.0
 11
317.05279087088741
 21
702.67515847641471
 31
0.0
  0
LINE
  5
1D0
  8
23
  6
DASHED
 10
459.55314439960091
 20
732.17515847641471
 30
0.0
 11
326.92790885444782
 21
732.17515847641471
 31
0.0
  0
ARC
  5
1D1
  8
21
 10
469.4282623831615
 20
702.97515847641455
 30
0.0
 40
0.3
 50
270.0
 51
358.99999999999977
  0
LINE
  5
1D2
  8
21
 10
469.7282166917085
 20
702.96992275448349
 30
0.0
 11
469.76100923024632
 21
705.67515847641471
 31
0.0
  0
LINE
  5
1D3
  8
21
 10
473.24052662702439
 20
705.67515847641471
 30
0.0
 11
472.98744712880023
 21
734.67519655335036
 31
0.0
  0
LINE
  5
1D4
  8
21
 10
469.74052662702451
 20
705.67515847641471
 30
0.0
 11
473.24052662702451
 21
705.67515847641471
 31
0.0
  0
LINE
  5
1D5
  8
23
  6
DASHED
 10
460.08793141328368
 20
702.97254051576533
 30
0.0
 11
459.85313297652033
 21
731.87777643706409
 31
0.0
  0
LINE
  5
1D6
  8
53
 10
107.76767373124611
 20
659.19855667565855
 30
0.0
 11
107.76767373124611
 21
533.19855667565855
 31
0.0
  0
LINE
  5
1D7
  8
53
 10
24.767673731246219
 20
596.19855667565855
 30
0.0
 11
190.76767373124611
 21
596.19855667565855
 31
0.0
  0
TEXT
  5
1DD
  8
L20
 10
78.637668221193536
 20
695.7824255605085
 30
0.0
 40
7.6081698575364953
  1
120x160x30 COVER
  7
ISO
  0
ENDSEC
  0
EOF
