  0
SECTION
  2
HEADER
  9
$ACADVER
  1
AC1009
  9
$INSBASE
 10
0.0
 20
0.0
 30
0.0
  9
$EXTMIN
 10
8.5526319173084744
 20
124.1758336406189
 30
0.0
  9
$EXTMAX
 10
581.42483230034156
 20
524.57556083160603
 30
0.0
  9
$LIMMIN
 10
0.0
 20
0.0
  9
$LIMMAX
 10
594.0
 20
420.0
  9
$ORTHOMODE
 70
     1
  9
$REGENMODE
 70
     1
  9
$FILLMODE
 70
     1
  9
$QTEXTMODE
 70
     0
  9
$MIRRTEXT
 70
     1
  9
$DRAGMODE
 70
     2
  9
$LTSCALE
 40
7.0
  9
$OSMODE
 70
    37
  9
$ATTMODE
 70
     1
  9
$TEXTSIZE
 40
3.5
  9
$TRACEWID
 40
0.5
  9
$TEXTSTYLE
  7
TKKISO
  9
$CLAYER
  8
13
  9
$CELTYPE
  6
BYLAYER
  9
$CECOLOR
 62
   256
  9
$DIMSCALE
 40
1.0
  9
$DIMASZ
 40
3.5
  9
$DIMEXO
 40
1.0
  9
$DIMDLI
 40
7.0
  9
$DIMRND
 40
0.0
  9
$DIMDLE
 40
0.0
  9
$DIMEXE
 40
1.5
  9
$DIMTP
 40
0.0
  9
$DIMTM
 40
0.0
  9
$DIMTXT
 40
3.5
  9
$DIMCEN
 40
0.0
  9
$DIMTSZ
 40
0.0
  9
$DIMTOL
 70
     0
  9
$DIMLIM
 70
     0
  9
$DIMTIH
 70
     0
  9
$DIMTOH
 70
     0
  9
$DIMSE1
 70
     0
  9
$DIMSE2
 70
     0
  9
$DIMTAD
 70
     1
  9
$DIMZIN
 70
     8
  9
$DIMBLK
  1

  9
$DIMASO
 70
     1
  9
$DIMSHO
 70
     1
  9
$DIMPOST
  1

  9
$DIMAPOST
  1

  9
$DIMALT
 70
     0
  9
$DIMALTD
 70
     2
  9
$DIMALTF
 40
25.399999999999999
  9
$DIMLFAC
 40
1.0
  9
$DIMTOFL
 70
     1
  9
$DIMTVP
 40
0.0
  9
$DIMTIX
 70
     0
  9
$DIMSOXD
 70
     0
  9
$DIMSAH
 70
     0
  9
$DIMBLK1
  1

  9
$DIMBLK2
  1

  9
$DIMSTYLE
  2
STANDARD
  9
$DIMCLRD
 70
     1
  9
$DIMCLRE
 70
     1
  9
$DIMCLRT
 70
     3
  9
$DIMTFAC
 40
1.0
  9
$DIMGAP
 40
0.09
  9
$LUNITS
 70
     2
  9
$LUPREC
 70
     1
  9
$SKETCHINC
 40
1.0
  9
$FILLETRAD
 40
0.0
  9
$AUNITS
 70
     0
  9
$AUPREC
 70
     1
  9
$MENU
  1
caesar
  9
$ELEVATION
 40
0.0
  9
$PELEVATION
 40
0.0
  9
$THICKNESS
 40
0.0
  9
$LIMCHECK
 70
     0
  9
$BLIPMODE
 70
     0
  9
$CHAMFERA
 40
5.0
  9
$CHAMFERB
 40
5.0
  9
$SKPOLY
 70
     1
  9
$TDCREATE
 40
2448749.557679282
  9
$TDUPDATE
 40
2453620.4644299769
  9
$TDINDWG
 40
0.2655063194
  9
$TDUSRTIMER
 40
0.0514373843
  9
$USRTIMER
 70
     0
  9
$ANGBASE
 50
0.0
  9
$ANGDIR
 70
     0
  9
$PDMODE
 70
     0
  9
$PDSIZE
 40
2.0
  9
$PLINEWID
 40
0.0
  9
$COORDS
 70
     2
  9
$SPLFRAME
 70
     0
  9
$SPLINETYPE
 70
     6
  9
$SPLINESEGS
 70
     8
  9
$ATTDIA
 70
     0
  9
$ATTREQ
 70
     1
  9
$HANDLING
 70
-16383
  9
$HANDSEED
  5
2F1
  9
$SURFTAB1
 70
     6
  9
$SURFTAB2
 70
     6
  9
$SURFTYPE
 70
     6
  9
$SURFU
 70
     6
  9
$SURFV
 70
     6
  9
$UCSNAME
  2

  9
$UCSORG
 10
0.0
 20
0.0
 30
0.0
  9
$UCSXDIR
 10
1.0
 20
0.0
 30
0.0
  9
$UCSYDIR
 10
0.0
 20
1.0
 30
0.0
  9
$PUCSNAME
  2

  9
$PUCSORG
 10
0.0
 20
0.0
 30
0.0
  9
$PUCSXDIR
 10
1.0
 20
0.0
 30
0.0
  9
$PUCSYDIR
 10
0.0
 20
1.0
 30
0.0
  9
$USERI1
 70
     2
  9
$USERI2
 70
     0
  9
$USERI3
 70
     0
  9
$USERI4
 70
     0
  9
$USERI5
 70
     0
  9
$USERR1
 40
1.0
  9
$USERR2
 40
0.0
  9
$USERR3
 40
3.5
  9
$USERR4
 40
0.0
  9
$USERR5
 40
0.0
  9
$WORLDVIEW
 70
     1
  9
$SHADEDGE
 70
     3
  9
$SHADEDIF
 70
    70
  9
$TILEMODE
 70
     1
  9
$MAXACTVP
 70
    16
  9
$PLIMCHECK
 70
     0
  9
$PEXTMIN
 10
1.0000000000000000E+020
 20
1.0000000000000000E+020
 30
1.0000000000000000E+020
  9
$PEXTMAX
 10
-1.0000000000000000E+020
 20
-1.0000000000000000E+020
 30
-1.0000000000000000E+020
  9
$PLIMMIN
 10
0.0
 20
0.0
  9
$PLIMMAX
 10
12.0
 20
9.0
  9
$UNITMODE
 70
     0
  9
$VISRETAIN
 70
     0
  9
$PLINEGEN
 70
     0
  9
$PSLTSCALE
 70
     0
  0
ENDSEC
  0
SECTION
  2
TABLES
  0
TABLE
  2
VPORT
 70
     2
  0
VPORT
  2
*ACTIVE
 70
     0
 10
0.0
 20
0.0
 11
1.0
 21
1.0
 12
294.97585841641518
 22
324.38182030124699
 13
0.0
 23
0.0
 14
6.0
 24
6.0
 15
0.0
 25
0.0
 16
0.0
 26
0.0
 36
1.0
 17
0.0
 27
0.0
 37
0.0
 40
402.84609881130302
 41
1.5552208835341359
 42
50.0
 43
0.0
 44
0.0
 50
0.0
 51
0.0
 71
     0
 72
  1000
 73
     1
 74
     0
 75
     0
 76
     0
 77
     0
 78
     0
  0
ENDTAB
  0
TABLE
  2
LTYPE
 70
     3
  0
LTYPE
  2
CONTINUOUS
 70
     0
  3
Solid line
 72
    65
 73
     0
 40
0.0
  0
LTYPE
  2
DASHED
 70
     0
  3
__ __ __ __ __ __ __ __ __ __ __ __ __ __ __
 72
    65
 73
     2
 40
0.75
 49
0.5
 49
-0.25
  0
LTYPE
  2
CENTER
 70
     0
  3
------  -  -----  -  -----  -  -----  -  ------
 72
    65
 73
     4
 40
1.8
 49
1.25
 49
-0.25
 49
0.05
 49
-0.25
  0
ENDTAB
  0
TABLE
  2
LAYER
 70
    13
  0
LAYER
  2
0
 70
     0
 62
     7
  6
CONTINUOUS
  0
LAYER
  2
DEFPOINTS
 70
     0
 62
     7
  6
CONTINUOUS
  0
LAYER
  2
L20
 70
     0
 62
     3
  6
CONTINUOUS
  0
LAYER
  2
CAM-D3
 70
     0
 62
     1
  6
CENTER
  0
LAYER
  2
13
 70
     0
 62
     1
  6
CENTER
  0
LAYER
  2
23
 70
     0
 62
     1
  6
CENTER
  0
LAYER
  2
33
 70
     0
 62
     1
  6
CENTER
  0
LAYER
  2
43
 70
     0
 62
     1
  6
CENTER
  0
LAYER
  2
51
 70
     0
 62
     7
  6
CONTINUOUS
  0
LAYER
  2
53
 70
     0
 62
     1
  6
CENTER
  0
LAYER
  2
61
 70
     0
 62
     7
  6
CONTINUOUS
  0
LAYER
  2
62
 70
     0
 62
     1
  6
CONTINUOUS
  0
LAYER
  2
63
 70
     0
 62
     1
  6
CENTER
  0
ENDTAB
  0
TABLE
  2
STYLE
 70
     3
  0
STYLE
  2
STANDARD
 70
     0
 40
0.0
 41
1.0
 50
0.0
 71
     0
 42
0.2
  3
caeiso
  4

  0
STYLE
  2
ROMANS
 70
     0
 40
0.0
 41
1.0
 50
0.0
 71
     0
 42
3.5
  3
ISO
  4

  0
STYLE
  2
TKKISO
 70
     0
 40
0.0
 41
1.0
 50
0.0
 71
     0
 42
3.5
  3
caeiso
  4

  0
ENDTAB
  0
TABLE
  2
VIEW
 70
     0
  0
ENDTAB
  0
TABLE
  2
UCS
 70
     0
  0
ENDTAB
  0
TABLE
  2
APPID
 70
     2
  0
APPID
  2
ACAD
 70
     0
  0
APPID
  2
DCO15
 70
     0
  0
ENDTAB
  0
TABLE
  2
DIMSTYLE
 70
     1
  0
DIMSTYLE
  2
STANDARD
 70
     0
  3

  4

  5

  6

  7

 40
1.0
 41
0.18
 42
0.0625
 43
0.38
 44
0.18
 45
0.0
 46
0.0
 47
0.0
 48
0.0
140
0.18
141
0.09
142
0.0
143
25.399999999999999
144
1.0
145
0.0
146
1.0
147
0.09
 71
     0
 72
     0
 73
     1
 74
     1
 75
     0
 76
     0
 77
     0
 78
     0
170
     0
171
     2
172
     0
173
     0
174
     0
175
     0
176
     0
177
     0
178
     0
  0
ENDTAB
  0
ENDSEC
  0
SECTION
  2
BLOCKS
  0
BLOCK
  8
0
  2
$MODEL_SPACE
 70
     0
 10
0.0
 20
0.0
 30
0.0
  3
$MODEL_SPACE
  1

  0
ENDBLK
  5
87
  8
0
  0
BLOCK
 67
     1
  8
0
  2
$PAPER_SPACE
 70
     0
 10
0.0
 20
0.0
 30
0.0
  3
$PAPER_SPACE
  1

  0
ENDBLK
  5
85
 67
     1
  8
0
  0
BLOCK
  8
0
  2
KAN
 70
     0
 10
0.0
 20
0.0
 30
0.0
  3
KAN
  1

  0
ARC
  5
89
  8
CAM-D3
  6
DASHED
 10
-0.5
 20
4.5821149691852829
 30
0.0
 40
0.5
 50
271.00000000000819
 51
0.0
  0
LINE
  5
8A
  8
CAM-D3
  6
DASHED
 10
-5.2000000000000446
 20
4.0
 30
0.0
 11
-0.4912737967813428
 21
4.0821911216070808
 31
0.0
  0
LINE
  5
8B
  8
CAM-D3
  6
DASHED
 10
-5.2000000000000446
 20
4.0
 30
0.0
 11
-5.2000000000000446
 21
2.25
 31
0.0
  0
LINE
  5
8C
  8
CAM-D3
  6
DASHED
 10
-5.2000000000000446
 20
2.25
 30
0.0
 11
-5.2000000000000446
 21
-2.25
 31
0.0
  0
LINE
  5
8D
  8
CAM-D3
  6
DASHED
 10
-5.2000000000000446
 20
-2.25
 30
0.0
 11
-5.2000000000000446
 21
-4.0
 31
0.0
  0
LINE
  5
8E
  8
CAM-D3
  6
DASHED
 10
-5.2000000000000446
 20
-4.0
 30
0.0
 11
-0.4912737967812291
 21
-4.0821911216070239
 31
0.0
  0
ARC
  5
8F
  8
CAM-D3
  6
DASHED
 10
-0.5
 20
-4.5821149691852261
 30
0.0
 40
0.5
 50
0.0
 51
88.999999999991815
  0
ENDBLK
  5
90
  8
0
  0
ENDSEC
  0
SECTION
  2
ENTITIES
  0
ARC
  5
91
  8
13
  6
DASHED
 10
339.81200924723902
 20
200.14177220770969
 30
0.0
 40
0.5
 50
89.999999999999986
 51
179.5
  0
ARC
  5
92
  8
13
  6
DASHED
 10
436.86862601036353
 20
200.14177220770969
 30
0.0
 40
0.5
 50
0.5000000000000452
 51
90.0
  0
ARC
  5
93
  8
13
  6
DASHED
 10
506.8926438679992
 20
362.90400561767478
 30
0.0
 40
0.5
 50
90.499999999999815
 51
179.9999999999998
  0
ARC
  5
94
  8
13
  6
DASHED
 10
506.89264386799908
 20
285.84738885455022
 30
0.0
 40
0.5
 50
180.0
 51
269.50000000000011
  0
ARC
  5
95
  8
13
  6
DASHED
 10
506.89264386799908
 20
319.79358226692722
 30
0.0
 40
0.5
 50
91.0000000000082
 51
180.0
  0
ARC
  5
96
  8
13
  6
DASHED
 10
506.89264386799908
 20
328.95781220529778
 30
0.0
 40
0.5
 50
180.0
 51
268.99999999999181
  0
ARC
  5
97
  8
51
 10
328.68070355102651
 20
202.64177220770989
 30
0.0
 40
1.0
 50
89.999999999999915
 51
179.50000000000011
  0
ARC
  5
98
  8
51
 10
447.99993170657592
 20
202.64177220770981
 30
0.0
 40
1.0
 50
0.4999999999998163
 51
89.999999999999915
  0
ARC
  5
99
  8
51
 10
504.3926438679992
 20
265.71608315833788
 30
0.0
 40
1.0
 50
180.0
 51
269.50000000000023
  0
ARC
  5
9A
  8
51
 10
504.39264386799908
 20
383.03531131388718
 30
0.0
 40
1.0
 50
90.499999999999986
 51
180.0
  0
ARC
  5
9B
  8
62
 10
437.99813596418198
 20
377.26151039454771
 30
0.0
 40
0.3
 50
15.01745021050152
 51
180.0
  0
ARC
  5
9C
  8
62
 10
446.35127786906401
 20
377.45374279038032
 30
0.0
 40
0.3
 50
0.0
 51
167.61920108281529
  0
ARC
  5
9D
  8
62
 10
442.15127786906407
 20
378.3756972361125
 30
0.0
 40
4.0
 50
195.0174502105022
 51
347.61920108281868
  0
ARC
  5
9E
  8
62
 10
437.99813596418181
 20
373.68657798146518
 30
0.0
 40
0.3
 50
90.000000000000028
 51
179.99999999999969
  0
ARC
  5
9F
  8
62
 10
446.35127786906401
 20
373.68657798146518
 30
0.0
 40
0.3
 50
0.0000000000003053
 51
90.0
  0
ARC
  5
A0
  8
62
 10
438.34371431415809
 20
373.34099963148918
 30
0.0
 40
0.3
 50
90.000000000000213
 51
179.9999999999992
  0
ARC
  5
A1
  8
62
 10
446.0056995190879
 20
373.34099963148918
 30
0.0
 40
0.3
 50
0.0000000000003562
 51
90.0
  0
ARC
  5
A2
  8
51
 10
13.85263191730837
 20
273.57569723611238
 30
0.0
 40
0.3
 50
90.000000000000952
 51
180.0
  0
ARC
  5
A3
  8
51
 10
20.654093790815232
 20
273.57569723611272
 30
0.0
 40
0.3
 50
359.9999999999992
 51
90.0
  0
ARC
  5
A4
  8
62
 10
14.37624398475395
 20
273.05208516866691
 30
0.0
 40
0.3
 50
89.999999999998877
 51
180.0
  0
ARC
  5
A5
  8
62
 10
20.130481723369709
 20
273.05208516866691
 30
0.0
 40
0.3
 50
359.99999999999818
 51
90.0
  0
ARC
  5
A6
  8
51
 10
20.654093790815232
 20
375.17569723611251
 30
0.0
 40
0.3
 50
270.0
 51
0.0000000000007633
  0
ARC
  5
A7
  8
51
 10
13.85263191730837
 20
375.17569723611251
 30
0.0
 40
0.3
 50
180.0
 51
270.0
  0
ARC
  5
A8
  8
62
 10
14.37624398475395
 20
375.6993093035581
 30
0.0
 40
0.3
 50
180.0
 51
270.0
  0
ARC
  5
A9
  8
62
 10
20.130481723369709
 20
375.6993093035581
 30
0.0
 40
0.3
 50
270.0
 51
0.0000000000017811
  0
ARC
  5
AA
  8
51
 10
131.25263191730841
 20
273.57569723611238
 30
0.0
 40
0.3
 50
0.0
 51
90.0
  0
ARC
  5
AB
  8
51
 10
124.4511700438016
 20
273.57569723611238
 30
0.0
 40
0.3
 50
90.0
 51
180.00000000000091
  0
ARC
  5
AC
  8
62
 10
124.97478211124709
 20
273.05208516866691
 30
0.0
 40
0.3
 50
90.0
 51
180.00000000000179
  0
ARC
  5
AD
  8
62
 10
130.72901984986279
 20
273.05208516866691
 30
0.0
 40
0.3
 50
0.0
 51
90.0
  0
ARC
  5
AE
  8
51
 10
131.25263191730841
 20
375.17569723611251
 30
0.0
 40
0.3
 50
270.0
 51
0.0
  0
ARC
  5
AF
  8
51
 10
124.4511700438016
 20
375.17569723611251
 30
0.0
 40
0.3
 50
179.9999999999992
 51
270.0
  0
ARC
  5
B0
  8
62
 10
124.97478211124709
 20
375.6993093035581
 30
0.0
 40
0.3
 50
179.99999999999821
 51
270.0
  0
ARC
  5
B1
  8
62
 10
130.72901984986279
 20
375.6993093035581
 30
0.0
 40
0.3
 50
270.0
 51
0.0
  0
ARC
  5
B2
  8
62
 10
20.893519478712111
 20
267.19930930355792
 30
0.0
 40
0.3
 50
270.0
 51
31.825684299833782
  0
LINE
  5
B3
  8
62
 10
20.430481723369599
 20
269.87569723611261
 30
0.0
 11
20.43048172336966
 21
273.05208516866691
 31
0.0
  0
ARC
  5
B4
  8
62
 10
25.20577382219069
 20
269.87569723611261
 30
0.0
 40
4.7752920988211374
 50
179.9999999999998
 51
211.82568429982629
  0
LINE
  5
B5
  8
62
 10
20.893519478712111
 20
266.89930930355803
 30
0.0
 11
17.55263191730841
 21
266.89930930355803
 31
0.0
  0
ARC
  5
B6
  8
62
 10
17.55263191730841
 20
270.37569723611239
 30
0.0
 40
3.4763879325534952
 50
180.0
 51
270.0
  0
LINE
  5
B7
  8
62
 10
14.076243984754001
 20
270.37569723611239
 30
0.0
 11
14.07624398475394
 21
273.05208516866691
 31
0.0
  0
LINE
  5
B8
  8
62
 10
20.130481723369709
 20
273.35208516866658
 30
0.0
 11
14.37624398475395
 21
273.3520851686668
 31
0.0
  0
ARC
  5
B9
  8
51
 10
21.968832193419239
 20
266.67569723611228
 30
0.0
 40
0.3
 50
270.0
 51
44.671182946517973
  0
ARC
  5
BA
  8
51
 10
25.20577382219069
 20
269.87569723611261
 30
0.0
 40
4.2516800313755541
 50
179.9999999999998
 51
224.67118294651311
  0
LINE
  5
BB
  8
51
 10
20.95409379081519
 20
269.87569723611261
 30
0.0
 11
20.95409379081519
 21
273.57569723611272
 31
0.0
  0
ARC
  5
BC
  8
62
 10
17.55263191730841
 20
270.37569723611239
 30
0.0
 40
2.0499999999999989
 50
259.32079537942678
 51
193.3771992105406
  0
CIRCLE
  5
BD
  8
51
 10
17.55263191730841
 20
270.37569723611239
 30
0.0
 40
1.5
  0
ARC
  5
BE
  8
51
 10
17.552631917308531
 20
270.37569723611239
 30
0.0
 40
6.0
 50
180.0
 51
270.0
  0
LINE
  5
BF
  8
51
 10
13.55263191730841
 20
270.37569723611239
 30
0.0
 11
13.55263191730841
 21
273.57569723611238
 31
0.0
  0
LINE
  5
C0
  8
51
 10
20.654093790815232
 20
273.87569723611239
 30
0.0
 11
13.85263191730837
 21
273.87569723611239
 31
0.0
  0
LINE
  5
C1
  8
51
 10
21.968832193419239
 20
266.37569723611239
 30
0.0
 11
17.55263191730841
 21
266.37569723611239
 31
0.0
  0
ARC
  5
C2
  8
51
 10
17.55263191730841
 20
270.37569723611239
 30
0.0
 40
3.9999999999990781
 50
180.0
 51
270.0
  0
ARC
  5
C3
  8
62
 10
17.552631917308531
 20
270.37569723611239
 30
0.0
 40
4.338359623145652
 50
180.0
 51
270.0
  0
ARC
  5
C4
  8
62
 10
17.552631917308531
 20
378.3756972361125
 30
0.0
 40
4.338359623145652
 50
90.000000000000028
 51
180.0
  0
ARC
  5
C5
  8
51
 10
17.55263191730841
 20
378.3756972361125
 30
0.0
 40
3.9999999999990781
 50
90.000000000000028
 51
180.0
  0
LINE
  5
C6
  8
51
 10
21.968832193419239
 20
382.3756972361125
 30
0.0
 11
17.55263191730841
 21
382.3756972361125
 31
0.0
  0
LINE
  5
C7
  8
51
 10
20.654093790815232
 20
374.8756972361125
 30
0.0
 11
13.85263191730837
 21
374.8756972361125
 31
0.0
  0
LINE
  5
C8
  8
51
 10
13.55263191730841
 20
378.3756972361125
 30
0.0
 11
13.55263191730841
 21
375.17569723611251
 31
0.0
  0
ARC
  5
C9
  8
51
 10
17.552631917308531
 20
378.3756972361125
 30
0.0
 40
6.0
 50
90.000000000000028
 51
180.0
  0
CIRCLE
  5
CA
  8
51
 10
17.55263191730841
 20
378.3756972361125
 30
0.0
 40
1.5
  0
ARC
  5
CB
  8
62
 10
17.55263191730841
 20
378.3756972361125
 30
0.0
 40
2.0499999999999989
 50
166.62280078945929
 51
100.6792046205732
  0
LINE
  5
CC
  8
51
 10
20.95409379081519
 20
378.87569723611227
 30
0.0
 11
20.95409379081519
 21
375.17569723611251
 31
0.0
  0
ARC
  5
CD
  8
51
 10
25.20577382219069
 20
378.87569723611227
 30
0.0
 40
4.2516800313755541
 50
135.32881705348689
 51
180.0000000000002
  0
ARC
  5
CE
  8
51
 10
21.968832193419239
 20
382.0756972361126
 30
0.0
 40
0.3
 50
315.328817053482
 51
90.000000000000028
  0
LINE
  5
CF
  8
62
 10
20.130481723369709
 20
375.39930930355808
 30
0.0
 11
14.37624398475395
 21
375.39930930355808
 31
0.0
  0
LINE
  5
D0
  8
62
 10
14.076243984754001
 20
378.3756972361125
 30
0.0
 11
14.07624398475394
 21
375.6993093035581
 31
0.0
  0
ARC
  5
D1
  8
62
 10
17.55263191730841
 20
378.3756972361125
 30
0.0
 40
3.4763879325534952
 50
90.000000000000028
 51
180.0
  0
LINE
  5
D2
  8
62
 10
20.893519478712111
 20
381.85208516866692
 30
0.0
 11
17.55263191730841
 21
381.85208516866692
 31
0.0
  0
ARC
  5
D3
  8
62
 10
25.20577382219069
 20
378.87569723611227
 30
0.0
 40
4.7752920988211374
 50
148.17431570017351
 51
180.0000000000002
  0
LINE
  5
D4
  8
62
 10
20.430481723369599
 20
378.87569723611227
 30
0.0
 11
20.43048172336966
 21
375.6993093035581
 31
0.0
  0
ARC
  5
D5
  8
62
 10
20.893519478712111
 20
381.55208516866702
 30
0.0
 40
0.3
 50
328.17431570016618
 51
90.000000000000028
  0
ARC
  5
D6
  8
62
 10
127.5526319173083
 20
270.37569723611239
 30
0.0
 40
4.338359623145652
 50
270.0
 51
0.0
  0
ARC
  5
D7
  8
51
 10
127.5526319173085
 20
270.37569723611239
 30
0.0
 40
3.9999999999990781
 50
270.0
 51
0.0
  0
LINE
  5
D8
  8
51
 10
123.1364316411976
 20
266.37569723611239
 30
0.0
 11
127.5526319173085
 21
266.37569723611239
 31
0.0
  0
LINE
  5
D9
  8
51
 10
124.4511700438016
 20
273.87569723611239
 30
0.0
 11
131.25263191730841
 21
273.87569723611239
 31
0.0
  0
LINE
  5
DA
  8
51
 10
131.55263191730839
 20
270.37569723611239
 30
0.0
 11
131.55263191730839
 21
273.57569723611238
 31
0.0
  0
ARC
  5
DB
  8
51
 10
127.5526319173083
 20
270.37569723611239
 30
0.0
 40
6.0
 50
270.0
 51
0.0
  0
CIRCLE
  5
DC
  8
51
 10
127.5526319173085
 20
270.37569723611239
 30
0.0
 40
1.5
  0
ARC
  5
DD
  8
62
 10
127.5526319173085
 20
270.37569723611239
 30
0.0
 40
2.0499999999999989
 50
346.62280078945929
 51
280.67920462057322
  0
LINE
  5
DE
  8
51
 10
124.1511700438016
 20
269.87569723611261
 30
0.0
 11
124.1511700438016
 21
273.57569723611238
 31
0.0
  0
ARC
  5
DF
  8
51
 10
119.8994900124261
 20
269.87569723611261
 30
0.0
 40
4.2516800313755541
 50
315.32881705348689
 51
0.0000000000001654
  0
ARC
  5
E0
  8
51
 10
123.1364316411976
 20
266.67569723611228
 30
0.0
 40
0.3
 50
135.328817053482
 51
270.0
  0
LINE
  5
E1
  8
62
 10
124.97478211124709
 20
273.3520851686668
 30
0.0
 11
130.72901984986279
 21
273.3520851686668
 31
0.0
  0
LINE
  5
E2
  8
62
 10
131.02901984986289
 20
270.37569723611239
 30
0.0
 11
131.02901984986289
 21
273.05208516866691
 31
0.0
  0
ARC
  5
E3
  8
62
 10
127.5526319173085
 20
270.37569723611239
 30
0.0
 40
3.4763879325534952
 50
270.0
 51
0.0
  0
LINE
  5
E4
  8
62
 10
124.2117443559047
 20
266.89930930355803
 30
0.0
 11
127.5526319173085
 21
266.89930930355803
 31
0.0
  0
ARC
  5
E5
  8
62
 10
119.8994900124261
 20
269.87569723611261
 30
0.0
 40
4.7752920988211374
 50
328.17431570017362
 51
0.0000000000001654
  0
LINE
  5
E6
  8
62
 10
124.6747821112472
 20
269.87569723611261
 30
0.0
 11
124.6747821112472
 21
273.05208516866691
 31
0.0
  0
ARC
  5
E7
  8
62
 10
124.2117443559047
 20
267.19930930355792
 30
0.0
 40
0.3
 50
148.1743157001662
 51
270.0
  0
ARC
  5
E8
  8
62
 10
124.2117443559047
 20
381.55208516866702
 30
0.0
 40
0.3
 50
90.0
 51
211.82568429983371
  0
LINE
  5
E9
  8
62
 10
124.6747821112472
 20
378.87569723611227
 30
0.0
 11
124.6747821112471
 21
375.6993093035581
 31
0.0
  0
ARC
  5
EA
  8
62
 10
119.8994900124261
 20
378.87569723611227
 30
0.0
 40
4.7752920988211374
 50
359.99999999999977
 51
31.825684299826399
  0
LINE
  5
EB
  8
62
 10
124.2117443559047
 20
381.85208516866692
 30
0.0
 11
127.5526319173085
 21
381.85208516866692
 31
0.0
  0
ARC
  5
EC
  8
62
 10
127.5526319173085
 20
378.3756972361125
 30
0.0
 40
3.4763879325534952
 50
0.0
 51
90.0
  0
LINE
  5
ED
  8
62
 10
131.02901984986289
 20
378.3756972361125
 30
0.0
 11
131.02901984986289
 21
375.6993093035581
 31
0.0
  0
LINE
  5
EE
  8
62
 10
124.97478211124709
 20
375.39930930355808
 30
0.0
 11
130.72901984986279
 21
375.39930930355808
 31
0.0
  0
ARC
  5
EF
  8
51
 10
123.1364316411976
 20
382.0756972361126
 30
0.0
 40
0.3
 50
90.0
 51
224.67118294651789
  0
ARC
  5
F0
  8
51
 10
119.8994900124261
 20
378.87569723611227
 30
0.0
 40
4.2516800313755541
 50
359.99999999999977
 51
44.671182946513063
  0
LINE
  5
F1
  8
51
 10
124.1511700438016
 20
378.87569723611227
 30
0.0
 11
124.1511700438016
 21
375.17569723611251
 31
0.0
  0
ARC
  5
F2
  8
62
 10
446.00569951908801
 20
363.98514588895767
 30
0.0
 40
0.3
 50
219.47373888470901
 51
0.0
  0
LINE
  5
F3
  8
62
 10
440.49813596418193
 20
365.26813368120628
 30
0.0
 11
442.65127786906402
 21
365.26813368120628
 31
0.0
  0
LINE
  5
F4
  8
62
 10
438.04371431415808
 20
373.34099963148918
 30
0.0
 11
438.04371431415802
 21
367.72255533123013
 31
0.0
  0
ARC
  5
F5
  8
62
 10
442.65127786906402
 20
361.22255533123001
 30
0.0
 40
4.0455783499761653
 50
39.473738884708439
 51
90.0
  0
LINE
  5
F6
  8
62
 10
446.30569951908791
 20
373.34099963148918
 30
0.0
 11
446.30569951908802
 21
363.98514588895767
 31
0.0
  0
LINE
  5
F7
  8
62
 10
438.34371431415809
 20
373.64099963148919
 30
0.0
 11
446.0056995190879
 21
373.64099963148919
 31
0.0
  0
LINE
  5
F8
  8
13
  6
DASHED
 10
339.3120282857069
 20
200.14613547545881
 30
0.0
 11
338.97600579810188
 21
131.64177220770981
 31
0.0
  0
ARC
  5
F9
  8
51
 10
574.99264386799928
 20
266.86399105000049
 30
0.0
 40
0.4
 50
280.0
 51
0.0
  0
LINE
  5
FA
  8
13
  6
DASHED
 10
506.88828060024991
 20
285.3474078930181
 30
0.0
 11
575.39264386799914
 21
285.01138540541319
 31
0.0
  0
ARC
  5
FB
  8
61
 10
433.99813596418198
 20
378.87569723611222
 30
0.0
 40
1.9196632919130929
 50
359.99999999999972
 51
90.0
  0
LINE
  5
FC
  8
61
 10
435.91779925609501
 20
378.87569723611222
 30
0.0
 11
435.91779925609501
 21
367.72255533123013
 31
0.0
  0
LINE
  5
FD
  8
61
 10
440.49813596418193
 20
363.14221862314321
 30
0.0
 11
442.65127786906407
 21
363.14221862314321
 31
0.0
  0
ARC
  5
FE
  8
61
 10
442.65127786906402
 20
361.22255533123001
 30
0.0
 40
1.9196632919130929
 50
0.0
 51
90.0
  0
ARC
  5
FF
  8
62
 10
433.99813596418198
 20
378.87569723611222
 30
0.0
 40
2.5174537355816371
 50
359.99999999999972
 51
90.0
  0
ARC
  5
100
  8
62
 10
442.65127786906402
 20
361.22255533123001
 30
0.0
 40
2.5174537355816371
 50
0.0
 51
90.0
  0
ARC
  5
101
  8
62
 10
433.99813596418198
 20
378.87569723611222
 30
0.0
 40
3.3473460385831229
 50
359.99999999999972
 51
90.0
  0
ARC
  5
102
  8
62
 10
442.65127786906402
 20
361.22255533123001
 30
0.0
 40
3.3473460385831229
 50
0.0
 51
90.0
  0
ARC
  5
103
  8
62
 10
446.35127786906412
 20
362.7424237465911
 30
0.0
 40
0.3
 50
202.33164500926989
 51
0.0
  0
ARC
  5
104
  8
62
 10
433.99813596418198
 20
378.87569723611222
 30
0.0
 40
3.7000000000000002
 50
359.99999999999972
 51
90.0
  0
ARC
  5
105
  8
62
 10
442.65127786906402
 20
361.22255533123001
 30
0.0
 40
3.7000000000000002
 50
0.0
 51
90.0
  0
LINE
  5
106
  8
62
 10
437.69813596418197
 20
378.87569723611222
 30
0.0
 11
437.69813596418192
 21
367.72255533123013
 31
0.0
  0
LINE
  5
107
  8
62
 10
437.34548200276498
 20
378.87569723611222
 30
0.0
 11
437.34548200276498
 21
367.72255533123013
 31
0.0
  0
LINE
  5
108
  8
62
 10
436.5155896997635
 20
378.87569723611222
 30
0.0
 11
436.5155896997635
 21
367.72255533123013
 31
0.0
  0
LINE
  5
109
  8
62
 10
440.49813596418193
 20
364.92255533123011
 30
0.0
 11
442.65127786906402
 21
364.92255533123011
 31
0.0
  0
LINE
  5
10A
  8
62
 10
440.49813596418193
 20
364.56990136981329
 30
0.0
 11
442.65127786906407
 21
364.56990136981329
 31
0.0
  0
LINE
  5
10B
  8
62
 10
440.49813596418193
 20
363.74000906681181
 30
0.0
 11
442.65127786906407
 21
363.74000906681181
 31
0.0
  0
ARC
  5
10C
  8
61
 10
442.15127786906407
 20
378.3756972361125
 30
0.0
 40
6.0
 50
0.0000000000000254
 51
90.0
  0
LINE
  5
10D
  8
61
 10
332.15127786906419
 20
384.37569723611239
 30
0.0
 11
442.15127786906407
 21
384.37569723611239
 31
0.0
  0
LINE
  5
10E
  8
61
 10
332.15127786906419
 20
264.3756972361125
 30
0.0
 11
442.15127786906419
 21
264.3756972361125
 31
0.0
  0
LINE
  5
10F
  8
61
 10
326.1512778690643
 20
378.3756972361125
 30
0.0
 11
326.1512778690643
 21
270.3756972361125
 31
0.0
  0
LINE
  5
110
  8
61
 10
448.15127786906419
 20
378.3756972361125
 30
0.0
 11
448.15127786906419
 21
270.3756972361125
 31
0.0
  0
LINE
  5
111
  8
62
 10
445.99862390764719
 20
361.2225553312303
 30
0.0
 11
445.99862390764719
 21
287.52883914099471
 31
0.0
  0
LINE
  5
112
  8
62
 10
340.30441977394651
 20
382.2230432746955
 30
0.0
 11
433.99813596418198
 21
382.2230432746955
 31
0.0
  0
LINE
  5
113
  8
62
 10
328.30393183048119
 20
361.22255533123001
 30
0.0
 11
328.30393183048119
 21
287.52883914099471
 31
0.0
  0
LINE
  5
114
  8
62
 10
340.30441977394651
 20
266.52835119752939
 30
0.0
 11
433.99813596418198
 21
266.52835119752939
 31
0.0
  0
LINE
  5
115
  8
62
 10
446.35127786906401
 20
361.22255533123001
 30
0.0
 11
446.35127786906412
 21
287.52883914099471
 31
0.0
  0
LINE
  5
116
  8
62
 10
340.30441977394651
 20
382.57569723611232
 30
0.0
 11
433.99813596418198
 21
382.57569723611232
 31
0.0
  0
LINE
  5
117
  8
62
 10
327.95127786906431
 20
361.22255533123001
 30
0.0
 11
327.95127786906431
 21
287.52883914099471
 31
0.0
  0
LINE
  5
118
  8
62
 10
340.30441977394651
 20
266.1756972361124
 30
0.0
 11
433.99813596418198
 21
266.1756972361124
 31
0.0
  0
LINE
  5
119
  8
62
 10
445.1687316046457
 20
361.2225553312303
 30
0.0
 11
445.16873160464581
 21
287.52883914099471
 31
0.0
  0
LINE
  5
11A
  8
62
 10
340.30441977394651
 20
381.39315097169401
 30
0.0
 11
433.99813596418198
 21
381.39315097169401
 31
0.0
  0
LINE
  5
11B
  8
62
 10
329.13382413348268
 20
361.22255533123001
 30
0.0
 11
329.13382413348268
 21
287.52883914099471
 31
0.0
  0
LINE
  5
11C
  8
62
 10
340.30441977394651
 20
267.35824350053099
 30
0.0
 11
433.99813596418198
 21
267.35824350053099
 31
0.0
  0
LINE
  5
11D
  8
61
 10
444.5709411609771
 20
361.2225553312303
 30
0.0
 11
444.5709411609771
 21
287.52883914099471
 31
0.0
  0
LINE
  5
11E
  8
61
 10
340.30441977394651
 20
267.95603394419948
 30
0.0
 11
433.99813596418198
 21
267.95603394419948
 31
0.0
  0
LINE
  5
11F
  8
61
 10
340.30441977394651
 20
380.79536052802541
 30
0.0
 11
433.99813596418198
 21
380.79536052802541
 31
0.0
  0
LINE
  5
120
  8
61
 10
329.73161457715128
 20
361.22255533123001
 30
0.0
 11
329.73161457715128
 21
287.52883914099471
 31
0.0
  0
LINE
  5
121
  8
51
 10
327.3403176288013
 20
133.64177220770981
 30
0.0
 11
327.68074162796228
 21
202.6504987432084
 31
0.0
  0
LINE
  5
122
  8
51
 10
329.14031762880131
 20
133.64177220770981
 30
0.0
 11
327.3403176288013
 21
133.64177220770981
 31
0.0
  0
LINE
  5
123
  8
51
 10
329.14031762880131
 20
133.64177220770981
 30
0.0
 11
329.43468834148422
 21
131.97231293664311
 31
0.0
  0
ARC
  5
124
  8
51
 10
329.82861144268918
 20
132.0417722077099
 30
0.0
 40
0.4
 50
189.99999999999849
 51
270.0
  0
ARC
  5
125
  8
51
 10
446.85202381491331
 20
132.0417722077099
 30
0.0
 40
0.4
 50
270.0
 51
350.00000000000142
  0
LINE
  5
126
  8
51
 10
447.54031762880112
 20
133.64177220770981
 30
0.0
 11
447.24594691611821
 21
131.97231293664311
 31
0.0
  0
LINE
  5
127
  8
51
 10
329.82861144268918
 20
131.64177220770981
 30
0.0
 11
330.32286389321968
 21
131.64177220770981
 31
0.0
  0
LINE
  5
128
  8
51
 10
447.54031762880112
 20
133.64177220770981
 30
0.0
 11
449.34031762880107
 21
133.64177220770981
 31
0.0
  0
LINE
  5
129
  8
13
  6
DASHED
 10
339.81200924723902
 20
200.64177220770969
 30
0.0
 11
436.86862601036353
 21
200.64177220770969
 31
0.0
  0
LINE
  5
12A
  8
51
 10
449.34031762880107
 20
133.64177220770981
 30
0.0
 11
448.9998936296401
 21
202.65049874320809
 31
0.0
  0
LINE
  5
12B
  8
51
 10
328.68070355102651
 20
203.64177220770989
 30
0.0
 11
447.99993170657592
 21
203.64177220770981
 31
0.0
  0
LINE
  5
12C
  8
13
  6
DASHED
 10
437.36860697189559
 20
200.14613547545889
 30
0.0
 11
437.7046294595005
 21
131.64177220770981
 31
0.0
  0
CIRCLE
  5
12D
  8
62
 10
442.1512778690643
 20
378.3756972361125
 30
0.0
 40
1.5
  0
CIRCLE
  5
12E
  8
62
 10
442.1512778690643
 20
378.3756972361125
 30
0.0
 40
2.0499999999999989
  0
LINE
  5
12F
  8
62
 10
446.65127786906402
 20
377.45374279038032
 30
0.0
 11
446.65127786906407
 21
362.7424237465911
 31
0.0
  0
LINE
  5
130
  8
51
 10
503.39264386799908
 20
383.03531131388718
 30
0.0
 11
503.3926438679992
 21
265.71608315833788
 31
0.0
  0
LINE
  5
131
  8
51
 10
573.39264386799914
 20
264.37569723611273
 30
0.0
 11
504.38391733250069
 21
264.7161212352737
 31
0.0
  0
LINE
  5
132
  8
13
  6
DASHED
 10
506.3926438679992
 20
362.90400561767478
 30
0.0
 11
506.39264386799908
 21
328.95781220529778
 31
0.0
  0
LINE
  5
133
  8
51
 10
573.39264386799914
 20
266.17569723611263
 30
0.0
 11
573.39264386799914
 21
264.37569723611273
 31
0.0
  0
LINE
  5
134
  8
51
 10
575.39264386799914
 20
382.07303707403929
 30
0.0
 11
575.39264386799914
 21
381.67792056628559
 31
0.0
  0
LINE
  5
135
  8
51
 10
573.39264386799914
 20
266.17569723611263
 30
0.0
 11
575.06210313906604
 21
266.47006794879547
 31
0.0
  0
LINE
  5
136
  8
51
 10
573.39264386799925
 20
382.76133088792722
 30
0.0
 11
573.39264386799914
 21
384.37569723611239
 31
0.0
  0
LINE
  5
137
  8
51
 10
573.39264386799914
 20
384.37569723611239
 30
0.0
 11
504.38391733250057
 21
384.03527323695141
 31
0.0
  0
LINE
  5
138
  8
13
  6
DASHED
 10
506.88828060025003
 20
363.4039865792069
 30
0.0
 11
575.39264386799914
 21
363.74000906681181
 31
0.0
  0
LINE
  5
139
  8
51
 10
573.39264386799925
 20
382.76133088792722
 30
0.0
 11
575.06210313906593
 21
382.46696017524431
 31
0.0
  0
ARC
  5
13A
  8
51
 10
574.99264386799905
 20
382.07303707403929
 30
0.0
 40
0.4
 50
0.0000000000000127
 51
80.000000000001506
  0
LINE
  5
13B
  8
62
 10
437.99813596418181
 20
373.98657798146542
 30
0.0
 11
446.35127786906401
 21
373.98657798146542
 31
0.0
  0
ARC
  5
13C
  8
62
 10
127.5526319173085
 20
378.3756972361125
 30
0.0
 40
2.0499999999999989
 50
79.320795379426826
 51
13.37719921054067
  0
CIRCLE
  5
13D
  8
51
 10
127.5526319173085
 20
378.3756972361125
 30
0.0
 40
1.5
  0
LINE
  5
13E
  8
51
 10
133.5526319173083
 20
378.3756972361125
 30
0.0
 11
133.5526319173083
 21
270.37569723611239
 31
0.0
  0
LINE
  5
13F
  8
51
 10
11.552631917308471
 20
378.3756972361125
 30
0.0
 11
11.552631917308471
 21
270.37569723611239
 31
0.0
  0
LINE
  5
140
  8
51
 10
17.552631917308471
 20
264.37569723611239
 30
0.0
 11
127.5526319173083
 21
264.37569723611239
 31
0.0
  0
LINE
  5
141
  8
51
 10
17.552631917308471
 20
384.3756972361125
 30
0.0
 11
127.5526319173083
 21
384.3756972361125
 31
0.0
  0
ARC
  5
142
  8
51
 10
127.5526319173083
 20
378.3756972361125
 30
0.0
 40
6.0
 50
0.0000000000000254
 51
90.0
  0
LINE
  5
143
  8
51
 10
131.55263191730839
 20
378.3756972361125
 30
0.0
 11
131.55263191730839
 21
375.17569723611251
 31
0.0
  0
LINE
  5
144
  8
51
 10
124.4511700438016
 20
374.8756972361125
 30
0.0
 11
131.25263191730841
 21
374.8756972361125
 31
0.0
  0
LINE
  5
145
  8
51
 10
123.1364316411976
 20
382.3756972361125
 30
0.0
 11
127.5526319173085
 21
382.3756972361125
 31
0.0
  0
ARC
  5
146
  8
51
 10
127.5526319173085
 20
378.3756972361125
 30
0.0
 40
3.9999999999990781
 50
0.0
 51
90.0
  0
LINE
  5
147
  8
62
 10
131.89099154045391
 20
378.3756972361125
 30
0.0
 11
131.890991540454
 21
270.37569723611239
 31
0.0
  0
LINE
  5
148
  8
62
 10
17.552631917308471
 20
382.71405685925811
 30
0.0
 11
127.5526319173083
 21
382.71405685925811
 31
0.0
  0
LINE
  5
149
  8
62
 10
13.214272294162861
 20
378.3756972361125
 30
0.0
 11
13.214272294162861
 21
270.37569723611239
 31
0.0
  0
LINE
  5
14A
  8
62
 10
17.552631917308471
 20
266.03733761296678
 30
0.0
 11
127.5526319173083
 21
266.03733761296678
 31
0.0
  0
ARC
  5
14B
  8
62
 10
127.5526319173083
 20
378.3756972361125
 30
0.0
 40
4.338359623145652
 50
0.0000000000000254
 51
90.0
  0
LINE
  5
14C
  8
13
  6
DASHED
 10
511.59264386799907
 20
328.3756972361125
 30
0.0
 11
511.59264386799907
 21
326.6256972361125
 31
0.0
  0
LINE
  5
14D
  8
13
  6
DASHED
 10
511.59264386799907
 20
328.3756972361125
 30
0.0
 11
506.88391766478048
 21
328.45788835771958
 31
0.0
  0
LINE
  5
14E
  8
13
  6
DASHED
 10
511.59264386799907
 20
320.3756972361125
 30
0.0
 11
506.88391766478031
 21
320.29350611450542
 31
0.0
  0
LINE
  5
14F
  8
13
  6
DASHED
 10
506.39264386799908
 20
319.79358226692722
 30
0.0
 11
506.3926438679992
 21
285.84738885455022
 31
0.0
  0
CIRCLE
  5
150
  8
62
 10
442.1512778690643
 20
369.37569723611239
 30
0.0
 40
2.25
  0
CIRCLE
  5
151
  8
51
 10
127.5526319173085
 20
369.3756972361125
 30
0.0
 40
2.25
  0
CIRCLE
  5
152
  8
51
 10
127.5526319173085
 20
279.37569723611239
 30
0.0
 40
2.25
  0
CIRCLE
  5
153
  8
51
 10
17.552631917308361
 20
369.3756972361125
 30
0.0
 40
2.25
  0
CIRCLE
  5
154
  8
51
 10
17.552631917308361
 20
279.37569723611239
 30
0.0
 40
2.25
  0
CIRCLE
  5
155
  8
61
 10
428.90127786906419
 20
275.3756972361125
 30
0.0
 40
4.0
  0
CIRCLE
  5
156
  8
61
 10
428.90127786906419
 20
275.3756972361125
 30
0.0
 40
2.25
  0
CIRCLE
  5
157
  8
61
 10
428.90127786906419
 20
275.3756972361125
 30
0.0
 40
2.0
  0
CIRCLE
  5
158
  8
61
 10
387.15127786906419
 20
275.3756972361125
 30
0.0
 40
4.0
  0
CIRCLE
  5
159
  8
61
 10
387.15127786906419
 20
275.3756972361125
 30
0.0
 40
2.25
  0
CIRCLE
  5
15A
  8
61
 10
387.15127786906419
 20
275.3756972361125
 30
0.0
 40
2.0
  0
CIRCLE
  5
15B
  8
61
 10
345.40127786906419
 20
275.3756972361125
 30
0.0
 40
4.0
  0
CIRCLE
  5
15C
  8
61
 10
345.40127786906419
 20
275.3756972361125
 30
0.0
 40
2.25
  0
CIRCLE
  5
15D
  8
61
 10
345.40127786906419
 20
275.3756972361125
 30
0.0
 40
2.0
  0
CIRCLE
  5
15E
  8
61
 10
337.15127786906419
 20
304.3756972361125
 30
0.0
 40
4.0
  0
CIRCLE
  5
15F
  8
61
 10
337.15127786906419
 20
304.3756972361125
 30
0.0
 40
2.25
  0
CIRCLE
  5
160
  8
61
 10
337.15127786906419
 20
304.3756972361125
 30
0.0
 40
2.0
  0
CIRCLE
  5
161
  8
61
 10
337.15127786906419
 20
324.3756972361125
 30
0.0
 40
4.0
  0
CIRCLE
  5
162
  8
61
 10
337.15127786906419
 20
324.3756972361125
 30
0.0
 40
2.25
  0
CIRCLE
  5
163
  8
61
 10
337.15127786906419
 20
324.3756972361125
 30
0.0
 40
2.0
  0
CIRCLE
  5
164
  8
61
 10
337.15127786906419
 20
344.37569723611239
 30
0.0
 40
4.0
  0
CIRCLE
  5
165
  8
61
 10
337.15127786906419
 20
344.37569723611239
 30
0.0
 40
2.25
  0
CIRCLE
  5
166
  8
61
 10
337.15127786906419
 20
344.37569723611239
 30
0.0
 40
2.0
  0
CIRCLE
  5
167
  8
61
 10
345.40127786906419
 20
373.3756972361125
 30
0.0
 40
4.0
  0
CIRCLE
  5
168
  8
61
 10
345.40127786906419
 20
373.3756972361125
 30
0.0
 40
2.25
  0
CIRCLE
  5
169
  8
61
 10
345.40127786906419
 20
373.3756972361125
 30
0.0
 40
2.0
  0
LINE
  5
16A
  8
63
 10
387.15127786906419
 20
379.3756972361125
 30
0.0
 11
387.15127786906419
 21
269.23229784153853
 31
0.0
  0
CIRCLE
  5
16B
  8
61
 10
387.15127786906419
 20
373.3756972361125
 30
0.0
 40
4.0
  0
CIRCLE
  5
16C
  8
61
 10
387.15127786906419
 20
373.3756972361125
 30
0.0
 40
2.25
  0
CIRCLE
  5
16D
  8
61
 10
387.15127786906419
 20
373.3756972361125
 30
0.0
 40
2.0
  0
CIRCLE
  5
16E
  8
61
 10
428.90127786906419
 20
373.3756972361125
 30
0.0
 40
4.0
  0
CIRCLE
  5
16F
  8
61
 10
428.90127786906419
 20
373.3756972361125
 30
0.0
 40
2.25
  0
CIRCLE
  5
170
  8
61
 10
428.90127786906419
 20
373.3756972361125
 30
0.0
 40
2.0
  0
CIRCLE
  5
171
  8
61
 10
437.15127786906419
 20
304.3756972361125
 30
0.0
 40
4.0
  0
CIRCLE
  5
172
  8
61
 10
437.15127786906419
 20
304.3756972361125
 30
0.0
 40
2.25
  0
CIRCLE
  5
173
  8
61
 10
437.15127786906419
 20
304.3756972361125
 30
0.0
 40
2.0
  0
LINE
  5
174
  8
63
 10
330.68585144081072
 20
324.3756972361125
 30
0.0
 11
443.15127786906419
 21
324.3756972361125
 31
0.0
  0
CIRCLE
  5
175
  8
61
 10
437.15127786906419
 20
324.3756972361125
 30
0.0
 40
4.0
  0
CIRCLE
  5
176
  8
61
 10
437.15127786906419
 20
324.3756972361125
 30
0.0
 40
2.25
  0
CIRCLE
  5
177
  8
61
 10
437.15127786906419
 20
324.3756972361125
 30
0.0
 40
2.0
  0
CIRCLE
  5
178
  8
61
 10
437.15127786906419
 20
344.37569723611239
 30
0.0
 40
4.0
  0
CIRCLE
  5
179
  8
61
 10
437.15127786906419
 20
344.37569723611239
 30
0.0
 40
2.25
  0
CIRCLE
  5
17A
  8
61
 10
437.15127786906419
 20
344.37569723611239
 30
0.0
 40
2.0
  0
ARC
  5
17B
  8
62
 10
440.49813596418193
 20
367.72255533123013
 30
0.0
 40
2.7999999999999989
 50
179.9999999999996
 51
270.0
  0
ARC
  5
17C
  8
62
 10
440.49813596418193
 20
367.72255533123013
 30
0.0
 40
2.4544216500238059
 50
179.9999999999996
 51
270.0
  0
ARC
  5
17D
  8
62
 10
440.49813596418193
 20
367.72255533123013
 30
0.0
 40
3.152653961416819
 50
179.9999999999996
 51
270.0
  0
ARC
  5
17E
  8
62
 10
440.49813596418193
 20
367.72255533123013
 30
0.0
 40
3.9825462644182772
 50
179.9999999999996
 51
270.0
  0
ARC
  5
17F
  8
61
 10
440.49813596418193
 20
367.72255533123013
 30
0.0
 40
4.5803367080868211
 50
179.9999999999996
 51
270.0
  0
ARC
  5
180
  8
61
 10
440.49813596418193
 20
281.02883914099482
 30
0.0
 40
4.5803367080868211
 50
90.0
 51
180.00000000000031
  0
ARC
  5
181
  8
62
 10
440.49813596418193
 20
281.02883914099482
 30
0.0
 40
3.9825462644182772
 50
90.0
 51
180.00000000000031
  0
ARC
  5
182
  8
62
 10
440.49813596418193
 20
281.02883914099482
 30
0.0
 40
3.152653961416819
 50
90.0
 51
180.00000000000031
  0
ARC
  5
183
  8
62
 10
440.49813596418193
 20
281.02883914099482
 30
0.0
 40
2.4544216500238059
 50
90.0
 51
180.00000000000031
  0
ARC
  5
184
  8
62
 10
440.49813596418193
 20
281.02883914099482
 30
0.0
 40
2.7999999999999989
 50
90.0
 51
180.00000000000031
  0
CIRCLE
  5
185
  8
62
 10
442.1512778690643
 20
279.3756972361125
 30
0.0
 40
2.25
  0
LINE
  5
186
  8
62
 10
437.99813596418181
 20
274.76481649075947
 30
0.0
 11
446.35127786906401
 21
274.76481649075947
 31
0.0
  0
LINE
  5
187
  8
62
 10
446.65127786906402
 20
271.29765168184463
 30
0.0
 11
446.65127786906407
 21
286.00897072563379
 31
0.0
  0
CIRCLE
  5
188
  8
62
 10
442.1512778690643
 20
270.3756972361125
 30
0.0
 40
2.0499999999999989
  0
CIRCLE
  5
189
  8
62
 10
442.1512778690643
 20
270.3756972361125
 30
0.0
 40
1.5
  0
ARC
  5
18A
  8
61
 10
442.15127786906407
 20
270.3756972361125
 30
0.0
 40
6.0
 50
270.0
 51
0.0
  0
LINE
  5
18B
  8
62
 10
440.49813596418193
 20
285.01138540541319
 30
0.0
 11
442.65127786906407
 21
285.01138540541319
 31
0.0
  0
LINE
  5
18C
  8
62
 10
440.49813596418193
 20
284.18149310241159
 30
0.0
 11
442.65127786906407
 21
284.18149310241159
 31
0.0
  0
LINE
  5
18D
  8
62
 10
440.49813596418193
 20
283.82883914099477
 30
0.0
 11
442.65127786906402
 21
283.82883914099477
 31
0.0
  0
LINE
  5
18E
  8
62
 10
436.5155896997635
 20
269.87569723611273
 30
0.0
 11
436.5155896997635
 21
281.02883914099482
 31
0.0
  0
LINE
  5
18F
  8
62
 10
437.34548200276498
 20
269.87569723611273
 30
0.0
 11
437.34548200276498
 21
281.02883914099482
 31
0.0
  0
LINE
  5
190
  8
62
 10
437.69813596418197
 20
269.87569723611273
 30
0.0
 11
437.69813596418192
 21
281.02883914099482
 31
0.0
  0
ARC
  5
191
  8
62
 10
442.65127786906402
 20
287.52883914099488
 30
0.0
 40
3.7000000000000002
 50
270.0
 51
0.0
  0
ARC
  5
192
  8
62
 10
433.99813596418198
 20
269.87569723611273
 30
0.0
 40
3.7000000000000002
 50
270.0
 51
0.0000000000001781
  0
ARC
  5
193
  8
62
 10
446.35127786906412
 20
286.00897072563379
 30
0.0
 40
0.3
 50
0.0
 51
157.66835499072999
  0
ARC
  5
194
  8
62
 10
442.65127786906402
 20
287.52883914099488
 30
0.0
 40
3.3473460385831229
 50
270.0
 51
0.0
  0
ARC
  5
195
  8
62
 10
433.99813596418198
 20
269.87569723611273
 30
0.0
 40
3.3473460385831229
 50
270.0
 51
0.0000000000001781
  0
ARC
  5
196
  8
62
 10
442.65127786906402
 20
287.52883914099488
 30
0.0
 40
2.5174537355816371
 50
270.0
 51
0.0
  0
ARC
  5
197
  8
62
 10
433.99813596418198
 20
269.87569723611273
 30
0.0
 40
2.5174537355816371
 50
270.0
 51
0.0000000000001781
  0
ARC
  5
198
  8
61
 10
442.65127786906402
 20
287.52883914099488
 30
0.0
 40
1.9196632919130929
 50
270.0
 51
0.0
  0
LINE
  5
199
  8
61
 10
440.49813596418193
 20
285.60917584908168
 30
0.0
 11
442.65127786906407
 21
285.60917584908168
 31
0.0
  0
LINE
  5
19A
  8
61
 10
435.91779925609501
 20
269.87569723611273
 30
0.0
 11
435.91779925609501
 21
281.02883914099482
 31
0.0
  0
ARC
  5
19B
  8
61
 10
433.99813596418198
 20
269.87569723611273
 30
0.0
 40
1.9196632919130929
 50
270.0
 51
0.0000000000001781
  0
LINE
  5
19C
  8
62
 10
438.34371431415809
 20
275.11039484073581
 30
0.0
 11
446.0056995190879
 21
275.11039484073581
 31
0.0
  0
LINE
  5
19D
  8
62
 10
446.30569951908791
 20
275.41039484073571
 30
0.0
 11
446.30569951908802
 21
284.76624858326721
 31
0.0
  0
ARC
  5
19E
  8
62
 10
442.65127786906402
 20
287.52883914099488
 30
0.0
 40
4.0455783499761653
 50
270.0
 51
320.5262611152915
  0
LINE
  5
19F
  8
62
 10
438.04371431415808
 20
275.41039484073571
 30
0.0
 11
438.04371431415802
 21
281.02883914099482
 31
0.0
  0
LINE
  5
1A0
  8
62
 10
440.49813596418193
 20
283.48326079101861
 30
0.0
 11
442.65127786906402
 21
283.48326079101861
 31
0.0
  0
ARC
  5
1A1
  8
62
 10
446.00569951908801
 20
284.76624858326721
 30
0.0
 40
0.3
 50
0.0
 51
140.52626111529091
  0
ARC
  5
1A2
  8
62
 10
446.0056995190879
 20
275.41039484073571
 30
0.0
 40
0.3
 50
270.0
 51
359.9999999999996
  0
ARC
  5
1A3
  8
62
 10
438.34371431415809
 20
275.41039484073571
 30
0.0
 40
0.3
 50
180.00000000000071
 51
269.99999999999972
  0
ARC
  5
1A4
  8
62
 10
446.35127786906401
 20
275.06481649075971
 30
0.0
 40
0.3
 50
270.0
 51
359.99999999999972
  0
ARC
  5
1A5
  8
62
 10
437.99813596418181
 20
275.06481649075971
 30
0.0
 40
0.3
 50
180.00000000000031
 51
270.0
  0
ARC
  5
1A6
  8
62
 10
442.15127786906407
 20
270.3756972361125
 30
0.0
 40
4.0
 50
12.38079891718129
 51
164.9825497894978
  0
ARC
  5
1A7
  8
62
 10
446.35127786906401
 20
271.29765168184463
 30
0.0
 40
0.3
 50
192.38079891718459
 51
0.0
  0
ARC
  5
1A8
  8
62
 10
437.99813596418198
 20
271.48988407767717
 30
0.0
 40
0.3
 50
180.0
 51
344.98254978949842
  0
ARC
  5
1A9
  8
61
 10
333.80441977394662
 20
367.72255533123013
 30
0.0
 40
4.5803367080868211
 50
270.0
 51
0.0000000000003181
  0
ARC
  5
1AA
  8
62
 10
333.80441977394662
 20
367.72255533123013
 30
0.0
 40
3.9825462644182772
 50
270.0
 51
0.0000000000003181
  0
ARC
  5
1AB
  8
62
 10
333.80441977394662
 20
367.72255533123013
 30
0.0
 40
3.152653961416819
 50
270.0
 51
0.0000000000003181
  0
ARC
  5
1AC
  8
62
 10
333.80441977394662
 20
367.72255533123013
 30
0.0
 40
2.4544216500238059
 50
270.0
 51
0.0000000000003181
  0
ARC
  5
1AD
  8
62
 10
333.80441977394662
 20
367.72255533123013
 30
0.0
 40
2.7999999999999989
 50
270.0
 51
0.0000000000003181
  0
CIRCLE
  5
1AE
  8
62
 10
332.15127786906407
 20
369.37569723611239
 30
0.0
 40
2.25
  0
LINE
  5
1AF
  8
62
 10
336.30441977394662
 20
373.98657798146542
 30
0.0
 11
327.95127786906443
 21
373.98657798146542
 31
0.0
  0
LINE
  5
1B0
  8
62
 10
327.65127786906442
 20
377.45374279038032
 30
0.0
 11
327.65127786906419
 21
362.7424237465911
 31
0.0
  0
CIRCLE
  5
1B1
  8
62
 10
332.15127786906407
 20
378.3756972361125
 30
0.0
 40
2.0499999999999989
  0
CIRCLE
  5
1B2
  8
62
 10
332.15127786906407
 20
378.3756972361125
 30
0.0
 40
1.5
  0
ARC
  5
1B3
  8
61
 10
332.15127786906419
 20
378.3756972361125
 30
0.0
 40
6.0
 50
90.000000000000028
 51
180.0
  0
LINE
  5
1B4
  8
62
 10
333.80441977394662
 20
363.74000906681181
 30
0.0
 11
331.6512778690643
 21
363.74000906681181
 31
0.0
  0
LINE
  5
1B5
  8
62
 10
333.80441977394662
 20
364.56990136981329
 30
0.0
 11
331.6512778690643
 21
364.56990136981329
 31
0.0
  0
LINE
  5
1B6
  8
62
 10
333.80441977394662
 20
364.92255533123011
 30
0.0
 11
331.65127786906442
 21
364.92255533123011
 31
0.0
  0
LINE
  5
1B7
  8
62
 10
337.78696603836482
 20
378.87569723611222
 30
0.0
 11
337.78696603836482
 21
367.72255533123013
 31
0.0
  0
LINE
  5
1B8
  8
62
 10
336.95707373536339
 20
378.87569723611222
 30
0.0
 11
336.95707373536339
 21
367.72255533123013
 31
0.0
  0
LINE
  5
1B9
  8
62
 10
336.60441977394652
 20
378.87569723611222
 30
0.0
 11
336.60441977394657
 21
367.72255533123013
 31
0.0
  0
ARC
  5
1BA
  8
62
 10
331.65127786906442
 20
361.22255533123001
 30
0.0
 40
3.7000000000000002
 50
90.000000000000028
 51
180.0
  0
ARC
  5
1BB
  8
62
 10
340.30441977394651
 20
378.87569723611222
 30
0.0
 40
3.7000000000000002
 50
90.000000000000028
 51
180.0000000000002
  0
ARC
  5
1BC
  8
62
 10
327.95127786906431
 20
362.7424237465911
 30
0.0
 40
0.3
 50
180.0
 51
337.66835499072999
  0
ARC
  5
1BD
  8
62
 10
331.65127786906442
 20
361.22255533123001
 30
0.0
 40
3.3473460385831229
 50
90.000000000000028
 51
180.0
  0
ARC
  5
1BE
  8
62
 10
340.30441977394651
 20
378.87569723611222
 30
0.0
 40
3.3473460385831229
 50
90.000000000000028
 51
180.0000000000002
  0
ARC
  5
1BF
  8
62
 10
331.65127786906442
 20
361.22255533123001
 30
0.0
 40
2.5174537355816371
 50
90.000000000000028
 51
180.0
  0
ARC
  5
1C0
  8
62
 10
340.30441977394651
 20
378.87569723611222
 30
0.0
 40
2.5174537355816371
 50
90.000000000000028
 51
180.0000000000002
  0
ARC
  5
1C1
  8
61
 10
331.65127786906442
 20
361.22255533123001
 30
0.0
 40
1.9196632919130929
 50
90.000000000000028
 51
180.0
  0
LINE
  5
1C2
  8
61
 10
333.80441977394662
 20
363.14221862314321
 30
0.0
 11
331.6512778690643
 21
363.14221862314321
 31
0.0
  0
LINE
  5
1C3
  8
61
 10
338.38475648203342
 20
378.87569723611222
 30
0.0
 11
338.38475648203342
 21
367.72255533123013
 31
0.0
  0
ARC
  5
1C4
  8
61
 10
340.30441977394651
 20
378.87569723611222
 30
0.0
 40
1.9196632919130929
 50
90.000000000000028
 51
180.0000000000002
  0
LINE
  5
1C5
  8
62
 10
335.95884142397028
 20
373.64099963148919
 30
0.0
 11
328.29685621904048
 21
373.64099963148919
 31
0.0
  0
LINE
  5
1C6
  8
62
 10
327.99685621904052
 20
373.34099963148918
 30
0.0
 11
327.99685621904041
 21
363.98514588895767
 31
0.0
  0
ARC
  5
1C7
  8
62
 10
331.65127786906442
 20
361.22255533123001
 30
0.0
 40
4.0455783499761653
 50
90.000000000000028
 51
140.5262611152915
  0
LINE
  5
1C8
  8
62
 10
336.2588414239703
 20
373.34099963148918
 30
0.0
 11
336.25884142397041
 21
367.72255533123013
 31
0.0
  0
LINE
  5
1C9
  8
62
 10
333.80441977394662
 20
365.26813368120628
 30
0.0
 11
331.65127786906442
 21
365.26813368120628
 31
0.0
  0
ARC
  5
1CA
  8
62
 10
328.29685621904042
 20
363.98514588895767
 30
0.0
 40
0.3
 50
180.0
 51
320.52626111529088
  0
ARC
  5
1CB
  8
62
 10
328.29685621904048
 20
373.34099963148918
 30
0.0
 40
0.3
 50
90.000000000000028
 51
179.9999999999996
  0
ARC
  5
1CC
  8
62
 10
335.95884142397028
 20
373.34099963148918
 30
0.0
 40
0.3
 50
0.0000000000007252
 51
89.999999999999758
  0
ARC
  5
1CD
  8
62
 10
327.95127786906443
 20
373.68657798146518
 30
0.0
 40
0.3
 50
90.000000000000028
 51
179.99999999999969
  0
ARC
  5
1CE
  8
62
 10
336.30441977394662
 20
373.68657798146518
 30
0.0
 40
0.3
 50
0.0000000000002672
 51
89.999999999999986
  0
ARC
  5
1CF
  8
62
 10
332.15127786906419
 20
378.3756972361125
 30
0.0
 40
4.0
 50
192.38079891718129
 51
344.98254978949768
  0
ARC
  5
1D0
  8
62
 10
327.95127786906443
 20
377.45374279038032
 30
0.0
 40
0.3
 50
12.38079891718465
 51
180.0
  0
ARC
  5
1D1
  8
62
 10
336.30441977394651
 20
377.26151039454771
 30
0.0
 40
0.3
 50
0.0000000000000127
 51
164.98254978949851
  0
ARC
  5
1D2
  8
62
 10
336.30441977394651
 20
271.48988407767717
 30
0.0
 40
0.3
 50
195.01745021050149
 51
359.99999999999989
  0
ARC
  5
1D3
  8
62
 10
327.95127786906443
 20
271.29765168184463
 30
0.0
 40
0.3
 50
180.0
 51
347.61920108281532
  0
ARC
  5
1D4
  8
62
 10
332.15127786906419
 20
270.3756972361125
 30
0.0
 40
4.0
 50
15.01745021050221
 51
167.61920108281871
  0
ARC
  5
1D5
  8
62
 10
336.30441977394662
 20
275.06481649075971
 30
0.0
 40
0.3
 50
270.0
 51
359.99999999999972
  0
ARC
  5
1D6
  8
62
 10
327.95127786906443
 20
275.06481649075971
 30
0.0
 40
0.3
 50
180.00000000000031
 51
270.0
  0
ARC
  5
1D7
  8
62
 10
335.95884142397028
 20
275.41039484073571
 30
0.0
 40
0.3
 50
270.00000000000023
 51
359.9999999999992
  0
ARC
  5
1D8
  8
62
 10
328.29685621904048
 20
275.41039484073571
 30
0.0
 40
0.3
 50
180.00000000000031
 51
270.0
  0
ARC
  5
1D9
  8
62
 10
328.29685621904042
 20
284.76624858326721
 30
0.0
 40
0.3
 50
39.4737388847091
 51
180.0
  0
LINE
  5
1DA
  8
62
 10
333.80441977394662
 20
283.48326079101861
 30
0.0
 11
331.65127786906442
 21
283.48326079101861
 31
0.0
  0
LINE
  5
1DB
  8
62
 10
336.2588414239703
 20
275.41039484073571
 30
0.0
 11
336.25884142397041
 21
281.02883914099482
 31
0.0
  0
ARC
  5
1DC
  8
62
 10
331.65127786906442
 20
287.52883914099488
 30
0.0
 40
4.0455783499761653
 50
219.47373888470841
 51
270.0
  0
LINE
  5
1DD
  8
62
 10
327.99685621904052
 20
275.41039484073571
 30
0.0
 11
327.99685621904041
 21
284.76624858326721
 31
0.0
  0
LINE
  5
1DE
  8
62
 10
335.95884142397028
 20
275.11039484073581
 30
0.0
 11
328.29685621904048
 21
275.11039484073581
 31
0.0
  0
ARC
  5
1DF
  8
61
 10
340.30441977394651
 20
269.87569723611273
 30
0.0
 40
1.9196632919130929
 50
179.9999999999998
 51
270.0
  0
LINE
  5
1E0
  8
61
 10
338.38475648203342
 20
269.87569723611273
 30
0.0
 11
338.38475648203342
 21
281.02883914099482
 31
0.0
  0
LINE
  5
1E1
  8
61
 10
333.80441977394662
 20
285.60917584908168
 30
0.0
 11
331.6512778690643
 21
285.60917584908168
 31
0.0
  0
ARC
  5
1E2
  8
61
 10
331.65127786906442
 20
287.52883914099488
 30
0.0
 40
1.9196632919130929
 50
180.0
 51
270.0
  0
ARC
  5
1E3
  8
62
 10
340.30441977394651
 20
269.87569723611273
 30
0.0
 40
2.5174537355816371
 50
179.9999999999998
 51
270.0
  0
ARC
  5
1E4
  8
62
 10
331.65127786906442
 20
287.52883914099488
 30
0.0
 40
2.5174537355816371
 50
180.0
 51
270.0
  0
ARC
  5
1E5
  8
62
 10
340.30441977394651
 20
269.87569723611273
 30
0.0
 40
3.3473460385831229
 50
179.9999999999998
 51
270.0
  0
ARC
  5
1E6
  8
62
 10
331.65127786906442
 20
287.52883914099488
 30
0.0
 40
3.3473460385831229
 50
180.0
 51
270.0
  0
ARC
  5
1E7
  8
62
 10
327.95127786906431
 20
286.00897072563379
 30
0.0
 40
0.3
 50
22.33164500926997
 51
180.0
  0
ARC
  5
1E8
  8
62
 10
340.30441977394651
 20
269.87569723611273
 30
0.0
 40
3.7000000000000002
 50
179.9999999999998
 51
270.0
  0
ARC
  5
1E9
  8
62
 10
331.65127786906442
 20
287.52883914099488
 30
0.0
 40
3.7000000000000002
 50
180.0
 51
270.0
  0
LINE
  5
1EA
  8
62
 10
336.60441977394652
 20
269.87569723611273
 30
0.0
 11
336.60441977394657
 21
281.02883914099482
 31
0.0
  0
LINE
  5
1EB
  8
62
 10
336.95707373536339
 20
269.87569723611273
 30
0.0
 11
336.95707373536339
 21
281.02883914099482
 31
0.0
  0
LINE
  5
1EC
  8
62
 10
337.78696603836482
 20
269.87569723611273
 30
0.0
 11
337.78696603836482
 21
281.02883914099482
 31
0.0
  0
LINE
  5
1ED
  8
62
 10
333.80441977394662
 20
283.82883914099477
 30
0.0
 11
331.65127786906442
 21
283.82883914099477
 31
0.0
  0
LINE
  5
1EE
  8
62
 10
333.80441977394662
 20
284.18149310241159
 30
0.0
 11
331.6512778690643
 21
284.18149310241159
 31
0.0
  0
LINE
  5
1EF
  8
62
 10
333.80441977394662
 20
285.01138540541319
 30
0.0
 11
331.6512778690643
 21
285.01138540541319
 31
0.0
  0
ARC
  5
1F0
  8
61
 10
332.15127786906419
 20
270.3756972361125
 30
0.0
 40
6.0
 50
180.0
 51
270.0
  0
CIRCLE
  5
1F1
  8
62
 10
332.15127786906407
 20
270.3756972361125
 30
0.0
 40
1.5
  0
CIRCLE
  5
1F2
  8
62
 10
332.15127786906407
 20
270.3756972361125
 30
0.0
 40
2.0499999999999989
  0
LINE
  5
1F3
  8
62
 10
327.65127786906442
 20
271.29765168184463
 30
0.0
 11
327.65127786906419
 21
286.00897072563379
 31
0.0
  0
LINE
  5
1F4
  8
62
 10
336.30441977394662
 20
274.76481649075947
 30
0.0
 11
327.95127786906443
 21
274.76481649075947
 31
0.0
  0
CIRCLE
  5
1F5
  8
62
 10
332.15127786906407
 20
279.3756972361125
 30
0.0
 40
2.25
  0
ARC
  5
1F6
  8
62
 10
333.80441977394662
 20
281.02883914099482
 30
0.0
 40
2.7999999999999989
 50
359.9999999999996
 51
90.000000000000028
  0
ARC
  5
1F7
  8
62
 10
333.80441977394662
 20
281.02883914099482
 30
0.0
 40
2.4544216500238059
 50
359.9999999999996
 51
90.000000000000028
  0
ARC
  5
1F8
  8
62
 10
333.80441977394662
 20
281.02883914099482
 30
0.0
 40
3.152653961416819
 50
359.9999999999996
 51
90.000000000000028
  0
ARC
  5
1F9
  8
62
 10
333.80441977394662
 20
281.02883914099482
 30
0.0
 40
3.9825462644182772
 50
359.9999999999996
 51
90.000000000000028
  0
ARC
  5
1FA
  8
61
 10
333.80441977394662
 20
281.02883914099482
 30
0.0
 40
4.5803367080868211
 50
359.9999999999996
 51
90.000000000000028
  0
LINE
  5
1FB
  8
51
 10
575.39264386799914
 20
267.35824350053122
 30
0.0
 11
575.39264386799914
 21
266.86399105000049
 31
0.0
  0
LINE
  5
1FC
  8
51
 10
575.39264386799914
 20
381.67792056628559
 30
0.0
 11
575.39264386799914
 21
267.35824350053122
 31
0.0
  0
LINE
  5
1FD
  8
13
  6
DASHED
 10
511.59264386799907
 20
326.6256972361125
 30
0.0
 11
511.59264386799907
 21
322.1256972361125
 31
0.0
  0
LINE
  5
1FE
  8
13
  6
DASHED
 10
511.59264386799907
 20
322.1256972361125
 30
0.0
 11
511.59264386799907
 21
320.3756972361125
 31
0.0
  0
LINE
  5
1FF
  8
51
 10
330.32286389321968
 20
131.64177220770981
 30
0.0
 11
446.85202381491331
 21
131.64177220770981
 31
0.0
  0
CIRCLE
  5
200
  8
62
 10
442.15127786906407
 20
270.3756972361125
 30
0.0
 40
3.0
  0
CIRCLE
  5
201
  8
62
 10
442.15127786906407
 20
378.3756972361125
 30
0.0
 40
3.0
  0
CIRCLE
  5
202
  8
62
 10
332.15127786906419
 20
270.3756972361125
 30
0.0
 40
3.0
  0
CIRCLE
  5
203
  8
62
 10
332.15127786906419
 20
378.3756972361125
 30
0.0
 40
3.0
  0
LINE
  5
204
  8
51
 10
329.14031762880131
 20
133.64177220770981
 30
0.0
 11
447.54031762880112
 21
133.64177220770981
 31
0.0
  0
LINE
  5
205
  8
51
 10
573.39264386799925
 20
382.7613308879271
 30
0.0
 11
573.39264386799914
 21
266.17569723611263
 31
0.0
  0
LINE
  5
206
  8
51
 10
200.90991187012921
 20
382.7613308879271
 30
0.0
 11
200.90991187012929
 21
266.17569723611263
 31
0.0
  0
LINE
  5
207
  8
13
  6
DASHED
 10
262.7099118701293
 20
322.1256972361125
 30
0.0
 11
262.7099118701293
 21
320.3756972361125
 31
0.0
  0
LINE
  5
208
  8
13
  6
DASHED
 10
262.7099118701293
 20
326.6256972361125
 30
0.0
 11
262.7099118701293
 21
322.1256972361125
 31
0.0
  0
LINE
  5
209
  8
51
 10
198.90991187012929
 20
381.67792056628559
 30
0.0
 11
198.90991187012929
 21
267.35824350053122
 31
0.0
  0
LINE
  5
20A
  8
51
 10
198.90991187012929
 20
267.35824350053122
 30
0.0
 11
198.90991187012929
 21
266.86399105000049
 31
0.0
  0
LINE
  5
20B
  8
13
  6
DASHED
 10
262.7099118701293
 20
320.3756972361125
 30
0.0
 11
267.41863807334812
 21
320.29350611450542
 31
0.0
  0
LINE
  5
20C
  8
13
  6
DASHED
 10
262.7099118701293
 20
328.3756972361125
 30
0.0
 11
267.41863807334801
 21
328.45788835771958
 31
0.0
  0
LINE
  5
20D
  8
13
  6
DASHED
 10
262.7099118701293
 20
328.3756972361125
 30
0.0
 11
262.7099118701293
 21
326.6256972361125
 31
0.0
  0
ARC
  5
20E
  8
51
 10
199.3099118701293
 20
382.07303707403929
 30
0.0
 40
0.4
 50
99.999999999998494
 51
180.0
  0
LINE
  5
20F
  8
51
 10
200.90991187012921
 20
382.76133088792722
 30
0.0
 11
199.24045259906251
 21
382.46696017524431
 31
0.0
  0
LINE
  5
210
  8
13
  6
DASHED
 10
267.41427513787841
 20
363.4039865792069
 30
0.0
 11
198.90991187012929
 21
363.74000906681181
 31
0.0
  0
LINE
  5
211
  8
51
 10
200.90991187012929
 20
384.37569723611239
 30
0.0
 11
269.91863840562769
 21
384.03527323695141
 31
0.0
  0
LINE
  5
212
  8
51
 10
200.90991187012921
 20
382.76133088792722
 30
0.0
 11
200.90991187012929
 21
384.37569723611239
 31
0.0
  0
LINE
  5
213
  8
51
 10
200.90991187012929
 20
266.17569723611263
 30
0.0
 11
199.24045259906239
 21
266.47006794879547
 31
0.0
  0
LINE
  5
214
  8
51
 10
198.90991187012929
 20
382.07303707403929
 30
0.0
 11
198.90991187012929
 21
381.67792056628559
 31
0.0
  0
LINE
  5
215
  8
51
 10
200.90991187012929
 20
266.17569723611263
 30
0.0
 11
200.90991187012929
 21
264.37569723611273
 31
0.0
  0
LINE
  5
216
  8
51
 10
200.90991187012929
 20
264.37569723611273
 30
0.0
 11
269.91863840562769
 21
264.7161212352737
 31
0.0
  0
LINE
  5
217
  8
51
 10
270.90991187012929
 20
383.03531131388718
 30
0.0
 11
270.90991187012918
 21
265.71608315833788
 31
0.0
  0
LINE
  5
218
  8
13
  6
DASHED
 10
267.41427513787852
 20
285.3474078930181
 30
0.0
 11
198.90991187012929
 21
285.01138540541319
 31
0.0
  0
ARC
  5
219
  8
51
 10
199.30991187012921
 20
266.86399105000049
 30
0.0
 40
0.4
 50
180.0
 51
259.99999999999989
  0
ARC
  5
21A
  8
51
 10
269.90991187012929
 20
383.03531131388718
 30
0.0
 40
1.0
 50
359.99999999999989
 51
89.500000000000014
  0
ARC
  5
21B
  8
51
 10
269.90991187012918
 20
265.71608315833788
 30
0.0
 40
1.0
 50
270.49999999999972
 51
359.99999999999989
  0
ARC
  5
21C
  8
13
  6
DASHED
 10
267.40991187012929
 20
328.95781220529778
 30
0.0
 40
0.5
 50
271.00000000000819
 51
0.0
  0
ARC
  5
21D
  8
13
  6
DASHED
 10
267.40991187012929
 20
319.79358226692722
 30
0.0
 40
0.5
 50
0.0
 51
88.999999999991815
  0
ARC
  5
21E
  8
13
  6
DASHED
 10
267.40991187012929
 20
285.84738885455022
 30
0.0
 40
0.5
 50
270.49999999999977
 51
0.0
  0
ARC
  5
21F
  8
13
  6
DASHED
 10
267.40991187012918
 20
362.90400561767478
 30
0.0
 40
0.5
 50
0.0000000000001018
 51
89.500000000000185
  0
LINE
  5
220
  8
51
 10
329.14031762880131
 20
515.10962226451511
 30
0.0
 11
447.54031762880112
 21
515.10962226451511
 31
0.0
  0
LINE
  5
221
  8
51
 10
330.32286389321968
 20
517.10962226451511
 30
0.0
 11
446.85202381491331
 21
517.10962226451511
 31
0.0
  0
LINE
  5
222
  8
13
  6
DASHED
 10
437.36860697189559
 20
448.605258996766
 30
0.0
 11
437.7046294595005
 21
517.10962226451511
 31
0.0
  0
LINE
  5
223
  8
51
 10
328.68070355102651
 20
445.109622264515
 30
0.0
 11
447.99993170657592
 21
445.109622264515
 31
0.0
  0
LINE
  5
224
  8
51
 10
449.34031762880107
 20
515.10962226451511
 30
0.0
 11
448.9998936296401
 21
446.10089572901671
 31
0.0
  0
LINE
  5
225
  8
13
  6
DASHED
 10
339.81200924723902
 20
448.10962226451522
 30
0.0
 11
436.86862601036353
 21
448.10962226451522
 31
0.0
  0
LINE
  5
226
  8
51
 10
447.54031762880112
 20
515.10962226451511
 30
0.0
 11
449.34031762880107
 21
515.10962226451511
 31
0.0
  0
LINE
  5
227
  8
51
 10
329.82861144268918
 20
517.10962226451511
 30
0.0
 11
330.32286389321968
 21
517.10962226451511
 31
0.0
  0
LINE
  5
228
  8
51
 10
447.54031762880112
 20
515.10962226451511
 30
0.0
 11
447.24594691611821
 21
516.77908153558167
 31
0.0
  0
ARC
  5
229
  8
51
 10
446.85202381491331
 20
516.70962226451502
 30
0.0
 40
0.4
 50
9.9999999999985114
 51
90.0
  0
ARC
  5
22A
  8
51
 10
329.82861144268918
 20
516.70962226451502
 30
0.0
 40
0.4
 50
90.0
 51
170.00000000000139
  0
LINE
  5
22B
  8
51
 10
329.14031762880131
 20
515.10962226451511
 30
0.0
 11
329.43468834148422
 21
516.77908153558167
 31
0.0
  0
LINE
  5
22C
  8
51
 10
329.14031762880131
 20
515.10962226451511
 30
0.0
 11
327.3403176288013
 21
515.10962226451511
 31
0.0
  0
LINE
  5
22D
  8
51
 10
327.3403176288013
 20
515.10962226451511
 30
0.0
 11
327.68074162796228
 21
446.10089572901649
 31
0.0
  0
LINE
  5
22E
  8
13
  6
DASHED
 10
339.3120282857069
 20
448.60525899676611
 30
0.0
 11
338.97600579810188
 21
517.10962226451511
 31
0.0
  0
ARC
  5
22F
  8
51
 10
447.99993170657592
 20
446.10962226451511
 30
0.0
 40
1.0
 50
270.00000000000011
 51
359.50000000000011
  0
ARC
  5
230
  8
51
 10
328.68070355102651
 20
446.10962226451488
 30
0.0
 40
1.0
 50
180.4999999999998
 51
270.00000000000011
  0
ARC
  5
231
  8
13
  6
DASHED
 10
436.86862601036353
 20
448.60962226451511
 30
0.0
 40
0.5
 50
270.0
 51
359.49999999999989
  0
ARC
  5
232
  8
13
  6
DASHED
 10
339.81200924723902
 20
448.60962226451511
 30
0.0
 40
0.5
 50
180.49999999999989
 51
270.0
  0
TEXT
  5
233
  8
L20
 10
53.016117642305943
 20
458.8475604879311
 30
0.0
 40
12.41616693796108
  1
FIBOX EURONORD II
  7
ROMANS
  0
LINE
  5
235
  8
53
 10
72.552631917308432
 20
387.3756972361125
 30
0.0
 11
72.552631917308403
 21
261.37569723611239
 31
0.0
  0
LINE
  5
236
  8
53
 10
136.5526319173083
 20
324.3756972361125
 30
0.0
 11
8.5526319173084744
 21
324.3756972361125
 31
0.0
  0
LINE
  5
237
  8
13
 10
387.15127786906419
 20
212.12081072980871
 30
0.0
 11
387.15127786906419
 21
124.1758336406189
 31
0.0
  0
LINE
  5
238
  8
23
 10
387.15127786906419
 20
436.63058374241632
 30
0.0
 11
387.15127786906419
 21
524.57556083160603
 31
0.0
  0
LINE
  5
239
  8
43
 10
276.0447196864028
 20
324.3756972361125
 30
0.0
 11
192.8777234377869
 21
324.3756972361125
 31
0.0
  0
LINE
  5
23A
  8
33
 10
498.25783605172558
 20
324.3756972361125
 30
0.0
 11
581.42483230034156
 21
324.3756972361125
 31
0.0
  0
LINE
  5
23B
  8
13
  6
DASHED
 10
267.90991187012929
 20
362.90400561767478
 30
0.0
 11
267.90991187012929
 21
285.84738885455022
 31
0.0
  0
INSERT
  5
23C
  8
13
  6
DASHED
  2
KAN
 10
387.15127786906419
 20
448.10962226451522
 30
0.0
 50
270.0
  0
INSERT
  5
23D
  8
13
  6
DASHED
  2
KAN
 10
387.15127786906419
 20
200.64177220770969
 30
0.0
 50
90.0
  0
TEXT
  5
244
  8
L20
 10
53.016117642305943
 20
436.79322962571729
 30
0.0
 40
12.41616693796108
  1
120x122x70 BASE
  7
ROMANS
  0
ENDSEC
  0
EOF
