  0
SECTION
  2
HEADER
  9
$ACADVER
  1
AC1009
  9
$INSBASE
 10
0.0
 20
0.0
 30
0.0
  9
$EXTMIN
 10
428.35114746712168
 20
171.49905885238209
 30
-0.0000000349181948
  9
$EXTMAX
 10
841.95415550216819
 20
441.06680001767108
 30
0.0000000814935746
  9
$LIMMIN
 10
0.0
 20
0.0
  9
$LIMMAX
 10
594.0
 20
420.0
  9
$ORTHOMODE
 70
     1
  9
$REGENMODE
 70
     1
  9
$FILLMODE
 70
     1
  9
$QTEXTMODE
 70
     0
  9
$MIRRTEXT
 70
     1
  9
$DRAGMODE
 70
     2
  9
$LTSCALE
 40
7.0
  9
$OSMODE
 70
    37
  9
$ATTMODE
 70
     1
  9
$TEXTSIZE
 40
3.5
  9
$TRACEWID
 40
0.05
  9
$TEXTSTYLE
  7
TKKISO
  9
$CLAYER
  8
1
  9
$CELTYPE
  6
BYLAYER
  9
$CECOLOR
 62
   256
  9
$DIMSCALE
 40
1.0
  9
$DIMASZ
 40
3.5
  9
$DIMEXO
 40
1.0
  9
$DIMDLI
 40
7.0
  9
$DIMRND
 40
0.0
  9
$DIMDLE
 40
0.0
  9
$DIMEXE
 40
1.5
  9
$DIMTP
 40
0.0
  9
$DIMTM
 40
0.0
  9
$DIMTXT
 40
3.5
  9
$DIMCEN
 40
0.0
  9
$DIMTSZ
 40
0.0
  9
$DIMTOL
 70
     0
  9
$DIMLIM
 70
     0
  9
$DIMTIH
 70
     0
  9
$DIMTOH
 70
     0
  9
$DIMSE1
 70
     0
  9
$DIMSE2
 70
     0
  9
$DIMTAD
 70
     1
  9
$DIMZIN
 70
     8
  9
$DIMBLK
  1

  9
$DIMASO
 70
     1
  9
$DIMSHO
 70
     1
  9
$DIMPOST
  1

  9
$DIMAPOST
  1

  9
$DIMALT
 70
     0
  9
$DIMALTD
 70
     2
  9
$DIMALTF
 40
25.399999999999999
  9
$DIMLFAC
 40
1.0
  9
$DIMTOFL
 70
     1
  9
$DIMTVP
 40
0.0
  9
$DIMTIX
 70
     0
  9
$DIMSOXD
 70
     0
  9
$DIMSAH
 70
     0
  9
$DIMBLK1
  1

  9
$DIMBLK2
  1

  9
$DIMSTYLE
  2
STANDARD
  9
$DIMCLRD
 70
     1
  9
$DIMCLRE
 70
     1
  9
$DIMCLRT
 70
     3
  9
$DIMTFAC
 40
1.0
  9
$DIMGAP
 40
0.09
  9
$LUNITS
 70
     2
  9
$LUPREC
 70
     1
  9
$SKETCHINC
 40
1.0
  9
$FILLETRAD
 40
0.0
  9
$AUNITS
 70
     0
  9
$AUPREC
 70
     1
  9
$MENU
  1
caesar
  9
$ELEVATION
 40
0.0
  9
$PELEVATION
 40
0.0
  9
$THICKNESS
 40
0.0
  9
$LIMCHECK
 70
     0
  9
$BLIPMODE
 70
     0
  9
$CHAMFERA
 40
5.0
  9
$CHAMFERB
 40
5.0
  9
$SKPOLY
 70
     1
  9
$TDCREATE
 40
2448769.5498931711
  9
$TDUPDATE
 40
2453620.464671053
  9
$TDINDWG
 40
0.126442037
  9
$TDUSRTIMER
 40
0.126442037
  9
$USRTIMER
 70
     1
  9
$ANGBASE
 50
0.0
  9
$ANGDIR
 70
     0
  9
$PDMODE
 70
     0
  9
$PDSIZE
 40
2.0
  9
$PLINEWID
 40
0.0
  9
$COORDS
 70
     2
  9
$SPLFRAME
 70
     0
  9
$SPLINETYPE
 70
     6
  9
$SPLINESEGS
 70
     8
  9
$ATTDIA
 70
     0
  9
$ATTREQ
 70
     1
  9
$HANDLING
 70
-16383
  9
$HANDSEED
  5
37F
  9
$SURFTAB1
 70
     6
  9
$SURFTAB2
 70
     6
  9
$SURFTYPE
 70
     6
  9
$SURFU
 70
     6
  9
$SURFV
 70
     6
  9
$UCSNAME
  2

  9
$UCSORG
 10
0.0
 20
0.0
 30
0.0
  9
$UCSXDIR
 10
1.0
 20
0.0
 30
0.0
  9
$UCSYDIR
 10
0.0
 20
1.0
 30
0.0
  9
$PUCSNAME
  2

  9
$PUCSORG
 10
0.0
 20
0.0
 30
0.0
  9
$PUCSXDIR
 10
1.0
 20
0.0
 30
0.0
  9
$PUCSYDIR
 10
0.0
 20
1.0
 30
0.0
  9
$USERI1
 70
     2
  9
$USERI2
 70
     0
  9
$USERI3
 70
     0
  9
$USERI4
 70
     0
  9
$USERI5
 70
     0
  9
$USERR1
 40
1.0
  9
$USERR2
 40
0.0
  9
$USERR3
 40
3.5
  9
$USERR4
 40
0.0
  9
$USERR5
 40
0.0
  9
$WORLDVIEW
 70
     1
  9
$SHADEDGE
 70
     3
  9
$SHADEDIF
 70
    70
  9
$TILEMODE
 70
     1
  9
$MAXACTVP
 70
    16
  9
$PLIMCHECK
 70
     0
  9
$PEXTMIN
 10
1.0000000000000000E+020
 20
1.0000000000000000E+020
 30
1.0000000000000000E+020
  9
$PEXTMAX
 10
-1.0000000000000000E+020
 20
-1.0000000000000000E+020
 30
-1.0000000000000000E+020
  9
$PLIMMIN
 10
0.0
 20
0.0
  9
$PLIMMAX
 10
12.0
 20
9.0
  9
$UNITMODE
 70
     0
  9
$VISRETAIN
 70
     0
  9
$PLINEGEN
 70
     0
  9
$PSLTSCALE
 70
     0
  0
ENDSEC
  0
SECTION
  2
TABLES
  0
TABLE
  2
VPORT
 70
     2
  0
VPORT
  2
*ACTIVE
 70
     0
 10
0.0
 20
0.0
 11
1.0
 21
1.0
 12
635.15265148464493
 22
306.28292943502657
 13
0.0
 23
0.0
 14
6.0
 24
6.0
 15
0.0
 25
0.0
 16
0.0
 26
0.0
 36
1.0
 17
0.0
 27
0.0
 37
0.0
 40
271.190014432081
 41
1.5552208835341359
 42
50.0
 43
0.0
 44
0.0
 50
0.0
 51
0.0
 71
     0
 72
  2000
 73
     1
 74
     0
 75
     0
 76
     0
 77
     0
 78
     0
  0
ENDTAB
  0
TABLE
  2
LTYPE
 70
     3
  0
LTYPE
  2
CONTINUOUS
 70
     0
  3
Solid line
 72
    65
 73
     0
 40
0.0
  0
LTYPE
  2
CENTER
 70
     0
  3
------  -  -----  -  -----  -  -----  -  ------
 72
    65
 73
     4
 40
1.8
 49
1.25
 49
-0.25
 49
0.05
 49
-0.25
  0
LTYPE
  2
DASHED
 70
     0
  3
__ __ __ __ __ __ __ __ __ __ __ __ __ __ __
 72
    65
 73
     2
 40
0.75
 49
0.5
 49
-0.25
  0
ENDTAB
  0
TABLE
  2
LAYER
 70
    13
  0
LAYER
  2
0
 70
     0
 62
     7
  6
CONTINUOUS
  0
LAYER
  2
DEFPOINTS
 70
     0
 62
    -7
  6
CONTINUOUS
  0
LAYER
  2
1
 70
     0
 62
     7
  6
CONTINUOUS
  0
LAYER
  2
21
 70
     0
 62
     7
  6
CONTINUOUS
  0
LAYER
  2
23
 70
     0
 62
     1
  6
CENTER
  0
LAYER
  2
41
 70
     0
 62
     7
  6
CONTINUOUS
  0
LAYER
  2
43
 70
     0
 62
     1
  6
CENTER
  0
LAYER
  2
51
 70
     0
 62
     7
  6
CONTINUOUS
  0
LAYER
  2
52
 70
     0
 62
     1
  6
CONTINUOUS
  0
LAYER
  2
53
 70
     0
 62
     1
  6
CENTER
  0
LAYER
  2
61
 70
     0
 62
     7
  6
CONTINUOUS
  0
LAYER
  2
62
 70
     0
 62
     1
  6
CONTINUOUS
  0
LAYER
  2
63
 70
     0
 62
     1
  6
CENTER
  0
ENDTAB
  0
TABLE
  2
STYLE
 70
     3
  0
STYLE
  2
STANDARD
 70
     0
 40
0.0
 41
1.0
 50
0.0
 71
     0
 42
0.2
  3
caeiso
  4

  0
STYLE
  2
ISO
 70
     0
 40
0.0
 41
1.0
 50
0.0
 71
     0
 42
3.5
  3
ISO
  4

  0
STYLE
  2
TKKISO
 70
     0
 40
0.0
 41
1.0
 50
0.0
 71
     0
 42
3.5
  3
caeiso
  4

  0
ENDTAB
  0
TABLE
  2
VIEW
 70
     0
  0
ENDTAB
  0
TABLE
  2
UCS
 70
     0
  0
ENDTAB
  0
TABLE
  2
APPID
 70
     2
  0
APPID
  2
ACAD
 70
     0
  0
APPID
  2
DCO15
 70
     0
  0
ENDTAB
  0
TABLE
  2
DIMSTYLE
 70
     1
  0
DIMSTYLE
  2
STANDARD
 70
     0
  3

  4

  5

  6

  7

 40
1.0
 41
0.18
 42
0.0625
 43
0.38
 44
0.18
 45
0.0
 46
0.0
 47
0.0
 48
0.0
140
0.18
141
0.09
142
0.0
143
25.399999999999999
144
1.0
145
0.0
146
1.0
147
0.09
 71
     0
 72
     0
 73
     1
 74
     1
 75
     0
 76
     0
 77
     0
 78
     0
170
     0
171
     2
172
     0
173
     0
174
     0
175
     0
176
     0
177
     0
178
     0
  0
ENDTAB
  0
ENDSEC
  0
SECTION
  2
BLOCKS
  0
BLOCK
  8
0
  2
$MODEL_SPACE
 70
     0
 10
0.0
 20
0.0
 30
0.0
  3
$MODEL_SPACE
  1

  0
ENDBLK
  5
87
  8
0
  0
BLOCK
 67
     1
  8
0
  2
$PAPER_SPACE
 70
     0
 10
0.0
 20
0.0
 30
0.0
  3
$PAPER_SPACE
  1

  0
ENDBLK
  5
85
 67
     1
  8
0
  0
ENDSEC
  0
SECTION
  2
ENTITIES
  0
LINE
  5
8C
  8
63
 10
712.42796459047315
 20
370.88766151133501
 30
0.0
 11
712.42796459047315
 21
240.24250022100711
 31
0.0
  0
LINE
  5
8D
  8
23
  6
DASHED
 10
664.58055980421386
 20
405.35008375295632
 30
0.0
 11
664.86595122756717
 21
438.05270171360559
 31
0.0
  0
ARC
  5
8F
  8
52
 10
551.60225757721366
 20
347.60503311105759
 30
0.0
 40
0.3
 50
230.36228560932679
 51
0.0
  0
ARC
  5
90
  8
52
 10
547.90225757721385
 20
343.1384908242332
 30
0.0
 40
5.5
 50
50.362285609326307
 51
90.0
  0
LINE
  5
91
  8
52
 10
545.75225757721375
 20
348.6384908242332
 30
0.0
 11
547.90225757721385
 21
348.6384908242332
 31
0.0
  0
ARC
  5
92
  8
52
 10
545.75225757721375
 20
349.6384908242332
 30
0.0
 40
1.0
 50
180.00000000000031
 51
270.0
  0
ARC
  5
93
  8
51
 10
547.90225757721385
 20
343.1384908242332
 30
0.0
 40
1.000000000000056
 50
0.0
 51
90.0
  0
ARC
  5
94
  8
51
 10
545.75225757721375
 20
349.6384908242332
 30
0.0
 40
5.4999999999999432
 50
180.00000000000031
 51
270.0
  0
ARC
  5
95
  8
51
 10
539.25225757721375
 20
360.78849082423329
 30
0.0
 40
1.000000000000056
 50
0.0
 51
89.999999999999986
  0
ARC
  5
96
  8
52
 10
547.90225757721385
 20
343.1384908242332
 30
0.0
 40
1.98300000000006
 50
0.0
 51
90.0
  0
ARC
  5
97
  8
52
 10
545.75225757721375
 20
349.6384908242332
 30
0.0
 40
4.5169999999999391
 50
180.00000000000031
 51
270.0
  0
ARC
  5
98
  8
52
 10
539.25225757721375
 20
360.78849082423329
 30
0.0
 40
1.98300000000006
 50
0.0
 51
89.999999999999986
  0
ARC
  5
99
  8
52
 10
547.90225757721385
 20
343.1384908242332
 30
0.0
 40
4.5000000000001128
 50
0.0
 51
90.0
  0
ARC
  5
9A
  8
52
 10
545.75225757721375
 20
349.6384908242332
 30
0.0
 40
1.9999999999998861
 50
180.00000000000031
 51
270.0
  0
ARC
  5
9B
  8
52
 10
539.25225757721375
 20
360.78849082423329
 30
0.0
 40
4.5000000000001128
 50
0.0
 51
89.999999999999986
  0
LINE
  5
9C
  8
51
 10
540.25225757721375
 20
360.78849082423329
 30
0.0
 11
540.25225757721375
 21
349.6384908242332
 31
0.0
  0
LINE
  5
9D
  8
52
 10
541.23525757721393
 20
360.78849082423329
 30
0.0
 11
541.23525757721393
 21
349.6384908242332
 31
0.0
  0
LINE
  5
9E
  8
52
 10
543.75225757721387
 20
360.78849082423329
 30
0.0
 11
543.75225757721387
 21
349.6384908242332
 31
0.0
  0
LINE
  5
9F
  8
21
 10
654.92796459047315
 20
406.0527017136057
 30
0.0
 11
651.42796459047315
 21
406.0527017136057
 31
0.0
  0
LINE
  5
A0
  8
21
 10
651.42796459047315
 20
406.0527017136057
 30
0.0
 11
651.72467842765138
 21
440.05273979054152
 31
0.0
  0
LINE
  5
A1
  8
21
 10
654.94027452578905
 20
403.34746599167471
 30
0.0
 11
654.89305446061655
 21
406.0527017136057
 31
0.0
  0
ARC
  5
A2
  8
21
 10
655.24022883433611
 20
403.35270171360571
 30
0.0
 40
0.3
 50
181.0
 51
270.0
  0
LINE
  5
AA
  8
51
 10
553.40225757721385
 20
360.28849082423329
 30
0.0
 11
553.40225757721385
 21
252.28849082423329
 31
0.0
  0
LINE
  5
AB
  8
51
 10
431.4022575772139
 20
360.28849082423329
 30
0.0
 11
431.4022575772139
 21
252.28849082423329
 31
0.0
  0
LINE
  5
AC
  8
51
 10
437.4022575772139
 20
246.28849082423329
 30
0.0
 11
547.40225757721385
 21
246.28849082423329
 31
0.0
  0
LINE
  5
AD
  8
51
 10
437.4022575772139
 20
366.28849082423329
 30
0.0
 11
547.40225757721385
 21
366.28849082423329
 31
0.0
  0
ARC
  5
AE
  8
51
 10
547.40225757721385
 20
360.28849082423329
 30
0.0
 40
6.0
 50
0.0000000000000254
 51
90.0
  0
LINE
  5
AF
  8
52
 10
552.40225757721385
 20
343.1384908242332
 30
0.0
 11
552.40225757721385
 21
269.43849082423338
 31
0.0
  0
LINE
  5
B0
  8
52
 10
545.75225757721375
 20
347.6384908242332
 30
0.0
 11
547.90225757721385
 21
347.6384908242332
 31
0.0
  0
LINE
  5
B1
  8
52
 10
432.40225757721379
 20
343.1384908242332
 30
0.0
 11
432.40225757721379
 21
269.43849082423338
 31
0.0
  0
LINE
  5
B2
  8
52
 10
549.88525757721391
 20
343.1384908242332
 30
0.0
 11
549.88525757721391
 21
269.43849082423338
 31
0.0
  0
LINE
  5
B3
  8
52
 10
545.75225757721375
 20
345.12149082423332
 30
0.0
 11
547.90225757721385
 21
345.12149082423332
 31
0.0
  0
LINE
  5
B4
  8
52
 10
434.91925757721378
 20
343.1384908242332
 30
0.0
 11
434.91925757721401
 21
269.43849082423338
 31
0.0
  0
ARC
  5
B5
  8
21
 10
769.61570034661031
 20
403.35270171360571
 30
0.0
 40
0.3
 50
270.0
 51
358.99999999999989
  0
LINE
  5
B6
  8
23
  6
DASHED
 10
664.86595122756717
 20
438.05270171360559
 30
0.0
 11
759.58159102598927
 21
438.05270171360559
 31
0.0
  0
LINE
  5
B7
  8
21
 10
769.91565465515725
 20
403.34746599167471
 30
0.0
 11
769.96287472032964
 21
406.0527017136057
 31
0.0
  0
LINE
  5
B8
  8
21
 10
655.24022883433634
 20
403.0527017136057
 30
0.0
 11
769.61570034661031
 21
403.0527017136057
 31
0.0
  0
LINE
  5
B9
  8
21
 10
773.42796459047315
 20
406.0527017136057
 30
0.0
 11
773.13125075329515
 21
440.05273979054152
 31
0.0
  0
LINE
  5
BA
  8
21
 10
652.73340496314972
 20
441.0527017136057
 30
0.0
 11
772.12252421779669
 21
441.0527017136057
 31
0.0
  0
LINE
  5
BB
  8
21
 10
769.92796459047327
 20
406.0527017136057
 30
0.0
 11
773.42796459047327
 21
406.0527017136057
 31
0.0
  0
LINE
  5
BC
  8
51
 10
548.90225757721385
 20
343.1384908242332
 30
0.0
 11
548.90225757721385
 21
269.43849082423338
 31
0.0
  0
LINE
  5
BD
  8
51
 10
435.9022575772139
 20
343.1384908242332
 30
0.0
 11
435.9022575772139
 21
269.43849082423338
 31
0.0
  0
LINE
  5
BE
  8
51
 10
545.75225757721375
 20
344.1384908242332
 30
0.0
 11
547.90225757721385
 21
344.1384908242332
 31
0.0
  0
LINE
  5
C0
  8
23
  6
DASHED
 10
760.27536937673256
 20
405.35008375295632
 30
0.0
 11
760.08157198752122
 21
427.55706498135481
 31
0.0
  0
LINE
  5
C1
  8
51
 10
445.5522575772136
 20
361.78849082423329
 30
0.0
 11
539.25225757721375
 21
361.78849082423329
 31
0.0
  0
LINE
  5
C2
  8
52
 10
445.5522575772136
 20
362.77149082423341
 30
0.0
 11
539.25225757721375
 21
362.7714908242333
 31
0.0
  0
LINE
  5
C3
  8
52
 10
445.5522575772136
 20
365.28849082423341
 30
0.0
 11
539.25225757721375
 21
365.28849082423329
 31
0.0
  0
LINE
  5
C4
  8
52
 10
445.5522575772136
 20
247.28849082423329
 30
0.0
 11
539.25225757721375
 21
247.28849082423329
 31
0.0
  0
LINE
  5
C5
  8
52
 10
445.5522575772136
 20
249.8054908242334
 30
0.0
 11
539.25225757721375
 21
249.8054908242334
 31
0.0
  0
LINE
  5
C6
  8
51
 10
445.5522575772136
 20
250.78849082423349
 30
0.0
 11
539.25225757721375
 21
250.78849082423329
 31
0.0
  0
LINE
  5
CC
  8
52
 10
551.90225757721385
 20
360.28849082423329
 30
0.0
 11
551.90225757721385
 21
347.60503311105759
 31
0.0
  0
ARC
  5
CD
  8
52
 10
547.40225757721385
 20
360.28849082423329
 30
0.0
 40
5.5
 50
246.0980680740382
 51
316.39718102730058
  0
LINE
  5
CE
  8
52
 10
544.75225757721375
 20
360.78849082423329
 30
0.0
 11
544.75225757721375
 21
349.6384908242332
 31
0.0
  0
ARC
  5
CF
  8
52
 10
551.60225757721378
 20
356.28849082423392
 30
0.0
 40
0.3
 50
0.0
 51
136.39718102730021
  0
ARC
  5
D2
  8
61
 10
657.42796459047338
 20
360.28849082423329
 30
0.0
 40
6.0
 50
90.0
 51
180.0
  0
LINE
  5
D5
  8
61
 10
657.42796459047338
 20
366.28849082423329
 30
0.0
 11
767.42796459047315
 21
366.28849082423329
 31
0.0
  0
LINE
  5
D6
  8
61
 10
657.42796459047338
 20
246.28849082423341
 30
0.0
 11
767.42796459047315
 21
246.28849082423341
 31
0.0
  0
LINE
  5
D7
  8
61
 10
651.42796459047349
 20
360.28849082423329
 30
0.0
 11
651.42796459047349
 21
252.28849082423341
 31
0.0
  0
LINE
  5
D8
  8
61
 10
773.42796459047327
 20
360.28849082423329
 30
0.0
 11
773.42796459047327
 21
252.28849082423341
 31
0.0
  0
ARC
  5
F4
  8
52
 10
545.05225757721382
 20
354.9858971192628
 30
0.0
 40
0.3
 50
66.098068074037698
 51
180.0
  0
ARC
  5
F5
  8
52
 10
545.05225757721382
 20
257.59108452920378
 30
0.0
 40
0.3
 50
180.0
 51
293.90193192596229
  0
ARC
  5
F6
  8
52
 10
551.60225757721378
 20
256.28849082423272
 30
0.0
 40
0.3
 50
223.60281897269971
 51
0.0
  0
ARC
  5
F7
  8
52
 10
547.40225757721385
 20
252.28849082423329
 30
0.0
 40
5.5
 50
43.602818972699318
 51
113.9019319259618
  0
LINE
  5
FD
  8
51
 10
545.75225757721375
 20
268.43849082423338
 30
0.0
 11
547.90225757721385
 21
268.43849082423338
 31
0.0
  0
LINE
  5
FE
  8
52
 10
545.75225757721375
 20
267.45549082423332
 30
0.0
 11
547.90225757721385
 21
267.45549082423332
 31
0.0
  0
LINE
  5
FF
  8
52
 10
545.75225757721375
 20
264.93849082423338
 30
0.0
 11
547.90225757721385
 21
264.93849082423338
 31
0.0
  0
ARC
  5
100
  8
51
 10
547.40225757721385
 20
252.28849082423329
 30
0.0
 40
6.0
 50
270.0
 51
0.0
  0
LINE
  5
101
  8
52
 10
543.75225757721387
 20
251.78849082423329
 30
0.0
 11
543.75225757721387
 21
262.93849082423338
 31
0.0
  0
LINE
  5
102
  8
52
 10
541.23525757721393
 20
251.78849082423329
 30
0.0
 11
541.23525757721393
 21
262.93849082423338
 31
0.0
  0
LINE
  5
103
  8
51
 10
540.25225757721375
 20
251.78849082423329
 30
0.0
 11
540.25225757721375
 21
262.93849082423338
 31
0.0
  0
ARC
  5
104
  8
52
 10
539.25225757721375
 20
251.78849082423329
 30
0.0
 40
4.5000000000001128
 50
270.0
 51
0.0
  0
ARC
  5
105
  8
52
 10
545.75225757721375
 20
262.93849082423338
 30
0.0
 40
1.9999999999998861
 50
90.0
 51
179.99999999999969
  0
ARC
  5
106
  8
52
 10
547.90225757721385
 20
269.43849082423338
 30
0.0
 40
4.5000000000001128
 50
270.0
 51
0.0
  0
ARC
  5
107
  8
52
 10
539.25225757721375
 20
251.78849082423329
 30
0.0
 40
1.98300000000006
 50
270.0
 51
0.0
  0
ARC
  5
108
  8
52
 10
545.75225757721375
 20
262.93849082423338
 30
0.0
 40
4.5169999999999391
 50
90.0
 51
179.99999999999969
  0
ARC
  5
109
  8
52
 10
547.90225757721385
 20
269.43849082423338
 30
0.0
 40
1.98300000000006
 50
270.0
 51
0.0
  0
ARC
  5
10A
  8
51
 10
539.25225757721375
 20
251.78849082423329
 30
0.0
 40
1.000000000000056
 50
270.0
 51
0.0
  0
ARC
  5
10B
  8
51
 10
545.75225757721375
 20
262.93849082423338
 30
0.0
 40
5.4999999999999432
 50
90.0
 51
179.99999999999969
  0
ARC
  5
10C
  8
51
 10
547.90225757721385
 20
269.43849082423338
 30
0.0
 40
1.000000000000056
 50
270.0
 51
0.0
  0
ARC
  5
10D
  8
52
 10
545.75225757721375
 20
262.93849082423338
 30
0.0
 40
1.0
 50
90.0
 51
179.99999999999969
  0
LINE
  5
10E
  8
52
 10
545.75225757721375
 20
263.93849082423338
 30
0.0
 11
547.90225757721385
 21
263.93849082423338
 31
0.0
  0
ARC
  5
10F
  8
52
 10
547.90225757721385
 20
269.43849082423338
 30
0.0
 40
5.5
 50
270.0
 51
309.63771439067369
  0
ARC
  5
110
  8
52
 10
551.60225757721366
 20
264.97194853740899
 30
0.0
 40
0.3
 50
0.0
 51
129.63771439067321
  0
ARC
  5
111
  8
52
 10
433.20225757721369
 20
264.97194853740899
 30
0.0
 40
0.3
 50
50.362285609326818
 51
180.0
  0
ARC
  5
112
  8
52
 10
436.90225757721367
 20
269.43849082423338
 30
0.0
 40
5.5
 50
230.36228560932631
 51
270.0
  0
LINE
  5
113
  8
52
 10
439.05225757721371
 20
263.93849082423338
 30
0.0
 11
436.90225757721367
 21
263.93849082423338
 31
0.0
  0
ARC
  5
114
  8
52
 10
439.05225757721371
 20
262.93849082423338
 30
0.0
 40
1.0
 50
0.0000000000002672
 51
90.000000000000028
  0
ARC
  5
115
  8
51
 10
436.90225757721367
 20
269.43849082423338
 30
0.0
 40
1.000000000000056
 50
180.0
 51
270.0
  0
ARC
  5
116
  8
51
 10
439.05225757721371
 20
262.93849082423338
 30
0.0
 40
5.4999999999999432
 50
0.0000000000002672
 51
90.000000000000028
  0
ARC
  5
117
  8
51
 10
445.5522575772136
 20
251.78849082423329
 30
0.0
 40
1.000000000000056
 50
180.0
 51
270.0
  0
ARC
  5
118
  8
52
 10
436.90225757721367
 20
269.43849082423338
 30
0.0
 40
1.98300000000006
 50
180.0
 51
270.0
  0
ARC
  5
119
  8
52
 10
439.05225757721371
 20
262.93849082423338
 30
0.0
 40
4.5169999999999391
 50
0.0000000000002672
 51
90.000000000000028
  0
ARC
  5
11A
  8
52
 10
445.5522575772136
 20
251.78849082423329
 30
0.0
 40
1.98300000000006
 50
180.0
 51
270.0
  0
ARC
  5
11B
  8
52
 10
436.90225757721367
 20
269.43849082423338
 30
0.0
 40
4.5000000000001128
 50
180.0
 51
270.0
  0
ARC
  5
11C
  8
52
 10
439.05225757721371
 20
262.93849082423338
 30
0.0
 40
1.9999999999998861
 50
0.0000000000002672
 51
90.000000000000028
  0
ARC
  5
11D
  8
52
 10
445.5522575772136
 20
251.78849082423329
 30
0.0
 40
4.5000000000001128
 50
180.0
 51
270.0
  0
LINE
  5
11E
  8
51
 10
444.55225757721371
 20
251.78849082423329
 30
0.0
 11
444.55225757721371
 21
262.93849082423338
 31
0.0
  0
LINE
  5
11F
  8
52
 10
443.56925757721359
 20
251.78849082423329
 30
0.0
 11
443.56925757721359
 21
262.93849082423338
 31
0.0
  0
LINE
  5
120
  8
52
 10
441.0522575772136
 20
251.78849082423329
 30
0.0
 11
441.0522575772136
 21
262.93849082423338
 31
0.0
  0
ARC
  5
121
  8
51
 10
437.40225757721367
 20
252.28849082423329
 30
0.0
 40
6.0
 50
180.0
 51
270.0
  0
LINE
  5
122
  8
52
 10
439.05225757721371
 20
264.93849082423338
 30
0.0
 11
436.90225757721367
 21
264.93849082423338
 31
0.0
  0
LINE
  5
123
  8
52
 10
439.05225757721371
 20
267.45549082423332
 30
0.0
 11
436.90225757721367
 21
267.45549082423332
 31
0.0
  0
LINE
  5
124
  8
51
 10
439.05225757721371
 20
268.43849082423338
 30
0.0
 11
436.90225757721367
 21
268.43849082423338
 31
0.0
  0
ARC
  5
125
  8
52
 10
437.40225757721367
 20
252.28849082423329
 30
0.0
 40
5.5
 50
66.098068074038181
 51
136.3971810273006
  0
ARC
  5
126
  8
52
 10
433.20225757721357
 20
256.28849082423272
 30
0.0
 40
0.3
 50
180.0
 51
316.39718102730018
  0
ARC
  5
127
  8
52
 10
439.7522575772137
 20
257.59108452920378
 30
0.0
 40
0.3
 50
246.09806807403771
 51
359.99999999999989
  0
ARC
  5
128
  8
52
 10
439.7522575772137
 20
354.9858971192628
 30
0.0
 40
0.3
 50
0.0000000000000127
 51
113.9019319259623
  0
ARC
  5
129
  8
52
 10
433.20225757721357
 20
356.28849082423392
 30
0.0
 40
0.3
 50
43.602818972699758
 51
180.0
  0
ARC
  5
12A
  8
52
 10
437.40225757721367
 20
360.28849082423329
 30
0.0
 40
5.5
 50
223.60281897269931
 51
293.90193192596172
  0
LINE
  5
12B
  8
51
 10
439.05225757721371
 20
344.1384908242332
 30
0.0
 11
436.90225757721367
 21
344.1384908242332
 31
0.0
  0
LINE
  5
12C
  8
52
 10
439.05225757721371
 20
345.12149082423332
 30
0.0
 11
436.90225757721367
 21
345.12149082423332
 31
0.0
  0
LINE
  5
12D
  8
52
 10
439.05225757721371
 20
347.6384908242332
 30
0.0
 11
436.90225757721367
 21
347.6384908242332
 31
0.0
  0
ARC
  5
12E
  8
51
 10
437.40225757721367
 20
360.28849082423329
 30
0.0
 40
6.0
 50
90.000000000000028
 51
180.0
  0
LINE
  5
12F
  8
52
 10
441.0522575772136
 20
360.78849082423329
 30
0.0
 11
441.0522575772136
 21
349.6384908242332
 31
0.0
  0
LINE
  5
130
  8
52
 10
443.56925757721359
 20
360.78849082423329
 30
0.0
 11
443.56925757721359
 21
349.6384908242332
 31
0.0
  0
LINE
  5
131
  8
51
 10
444.55225757721371
 20
360.78849082423329
 30
0.0
 11
444.55225757721371
 21
349.6384908242332
 31
0.0
  0
ARC
  5
132
  8
52
 10
445.5522575772136
 20
360.78849082423329
 30
0.0
 40
4.5000000000001128
 50
90.000000000000057
 51
180.0
  0
ARC
  5
133
  8
52
 10
439.05225757721371
 20
349.6384908242332
 30
0.0
 40
1.9999999999998861
 50
270.0
 51
359.99999999999972
  0
ARC
  5
134
  8
52
 10
436.90225757721367
 20
343.1384908242332
 30
0.0
 40
4.5000000000001128
 50
90.000000000000028
 51
180.0
  0
ARC
  5
135
  8
52
 10
445.5522575772136
 20
360.78849082423329
 30
0.0
 40
1.98300000000006
 50
90.000000000000057
 51
180.0
  0
ARC
  5
136
  8
52
 10
439.05225757721371
 20
349.6384908242332
 30
0.0
 40
4.5169999999999391
 50
270.0
 51
359.99999999999972
  0
ARC
  5
137
  8
52
 10
436.90225757721367
 20
343.1384908242332
 30
0.0
 40
1.98300000000006
 50
90.000000000000028
 51
180.0
  0
ARC
  5
138
  8
51
 10
445.5522575772136
 20
360.78849082423329
 30
0.0
 40
1.000000000000056
 50
90.000000000000057
 51
180.0
  0
ARC
  5
139
  8
51
 10
439.05225757721371
 20
349.6384908242332
 30
0.0
 40
5.4999999999999432
 50
270.0
 51
359.99999999999972
  0
ARC
  5
13A
  8
51
 10
436.90225757721367
 20
343.1384908242332
 30
0.0
 40
1.000000000000056
 50
90.000000000000028
 51
180.0
  0
ARC
  5
13B
  8
52
 10
439.05225757721371
 20
349.6384908242332
 30
0.0
 40
1.0
 50
270.0
 51
359.99999999999972
  0
LINE
  5
13C
  8
52
 10
439.05225757721371
 20
348.6384908242332
 30
0.0
 11
436.90225757721367
 21
348.6384908242332
 31
0.0
  0
ARC
  5
13D
  8
52
 10
436.90225757721367
 20
343.1384908242332
 30
0.0
 40
5.5
 50
90.000000000000028
 51
129.63771439067369
  0
ARC
  5
13E
  8
52
 10
433.20225757721369
 20
347.60503311105759
 30
0.0
 40
0.3
 50
180.0
 51
309.63771439067312
  0
LINE
  5
141
  8
21
 10
651.72467842765138
 20
440.05273979054152
 30
0.0
 11
652.73340496314972
 21
441.0527017136057
 31
0.0
  0
LINE
  5
142
  8
61
 10
772.20979289570425
 20
360.28849082423329
 30
0.0
 11
772.20979289570425
 21
252.28849082423341
 31
0.0
  0
LINE
  5
144
  8
61
 10
657.42796459047338
 20
247.5066625190023
 30
0.0
 11
767.42796459047315
 21
247.5066625190023
 31
0.0
  0
LINE
  5
146
  8
61
 10
652.64613628524228
 20
360.28849082423329
 30
0.0
 11
652.64613628524228
 21
252.28849082423341
 31
0.0
  0
ARC
  5
147
  8
61
 10
657.42796459047338
 20
360.28849082423329
 30
0.0
 40
4.7818283052311008
 50
90.0
 51
180.0
  0
LINE
  5
148
  8
61
 10
657.42796459047338
 20
365.07031912946439
 30
0.0
 11
767.42796459047315
 21
365.07031912946439
 31
0.0
  0
LINE
  5
14A
  8
62
 10
773.20979289570437
 20
360.28849082423329
 30
0.0
 11
773.20979289570437
 21
252.28849082423341
 31
0.0
  0
LINE
  5
14C
  8
62
 10
657.42796459047338
 20
366.07031912946439
 30
0.0
 11
767.42796459047315
 21
366.07031912946439
 31
0.0
  0
ARC
  5
14D
  8
62
 10
657.42796459047338
 20
360.28849082423329
 30
0.0
 40
5.7818283052311008
 50
90.0
 51
180.0
  0
LINE
  5
14E
  8
62
 10
651.64613628524239
 20
360.28849082423329
 30
0.0
 11
651.64613628524239
 21
252.28849082423341
 31
0.0
  0
LINE
  5
150
  8
62
 10
657.42796459047338
 20
246.5066625190023
 30
0.0
 11
767.42796459047315
 21
246.5066625190023
 31
0.0
  0
ARC
  5
152
  8
52
 10
547.40225757721385
 20
360.28849082423329
 30
0.0
 40
4.5
 50
0.0000000000000254
 51
90.0
  0
ARC
  5
153
  8
52
 10
539.25225757721375
 20
360.78849082423329
 30
0.0
 40
5.5000000000001128
 50
0.0
 51
39.637714390665693
  0
LINE
  5
154
  8
52
 10
543.71879986403951
 20
364.78849082423329
 30
0.0
 11
547.40225859922054
 21
364.78849082423329
 31
0.0
  0
ARC
  5
155
  8
52
 10
543.71879986403951
 20
364.48849082423328
 30
0.0
 40
0.3
 50
90.0
 51
219.6377143906688
  0
LINE
  5
156
  8
52
 10
544.75225757721375
 20
251.78849082423329
 30
0.0
 11
544.75225757721375
 21
262.93849082423338
 31
0.0
  0
LINE
  5
157
  8
52
 10
551.90225757721385
 20
252.28849082423329
 30
0.0
 11
551.90225757721385
 21
264.97194853740899
 31
0.0
  0
ARC
  5
158
  8
52
 10
547.40225757721385
 20
252.28849082423329
 30
0.0
 40
4.5
 50
270.0
 51
0.0
  0
LINE
  5
159
  8
52
 10
543.71879986403951
 20
247.78849082423329
 30
0.0
 11
547.40225859922054
 21
247.78849082423329
 31
0.0
  0
ARC
  5
15A
  8
52
 10
543.71879986403951
 20
248.0884908242333
 30
0.0
 40
0.3
 50
140.36228560933111
 51
270.0
  0
ARC
  5
15B
  8
52
 10
539.25225757721375
 20
251.78849082423329
 30
0.0
 40
5.5000000000001128
 50
320.36228560933432
 51
0.0
  0
LINE
  5
15C
  8
52
 10
440.05225757721371
 20
360.78849082423329
 30
0.0
 11
440.05225757721371
 21
349.6384908242332
 31
0.0
  0
LINE
  5
15D
  8
52
 10
432.90225757721367
 20
360.28849082423329
 30
0.0
 11
432.90225757721367
 21
347.60503311105759
 31
0.0
  0
ARC
  5
15E
  8
52
 10
437.40225757721367
 20
360.28849082423329
 30
0.0
 40
4.5
 50
90.000000000000028
 51
180.0
  0
LINE
  5
15F
  8
52
 10
441.08571529038812
 20
364.78849082423329
 30
0.0
 11
437.40225655520698
 21
364.78849082423329
 31
0.0
  0
ARC
  5
160
  8
52
 10
441.08571529038812
 20
364.48849082423328
 30
0.0
 40
0.3
 50
320.36228560933108
 51
90.000000000000028
  0
ARC
  5
161
  8
52
 10
445.55225757721371
 20
360.78849082423329
 30
0.0
 40
5.5000000000001128
 50
140.36228560933429
 51
180.0
  0
LINE
  5
162
  8
52
 10
432.90225757721367
 20
252.28849082423329
 30
0.0
 11
432.90225757721367
 21
264.97194853740899
 31
0.0
  0
LINE
  5
163
  8
52
 10
440.05225757721371
 20
251.78849082423329
 30
0.0
 11
440.05225757721371
 21
262.93849082423338
 31
0.0
  0
ARC
  5
164
  8
52
 10
437.40225757721367
 20
252.28849082423329
 30
0.0
 40
4.5
 50
180.0
 51
270.0
  0
LINE
  5
165
  8
52
 10
441.08571529038812
 20
247.78849082423329
 30
0.0
 11
437.40225655520698
 21
247.78849082423329
 31
0.0
  0
ARC
  5
166
  8
52
 10
445.55225757721371
 20
251.78849082423329
 30
0.0
 40
5.5000000000001128
 50
180.0
 51
219.63771439066571
  0
ARC
  5
167
  8
52
 10
441.08571529038812
 20
248.0884908242333
 30
0.0
 40
0.3
 50
270.0
 51
39.637714390668798
  0
LINE
  5
19A
  8
21
 10
654.92796459047315
 20
406.0527017136057
 30
0.0
 11
769.92796459047327
 21
406.0527017136057
 31
0.0
  0
LINE
  5
19B
  8
21
 10
651.72467842765138
 20
440.05273979054152
 30
0.0
 11
773.13125075329515
 21
440.05273979054152
 31
0.0
  0
LINE
  5
19C
  8
41
 10
617.96002464553203
 20
249.78849082423349
 30
0.0
 11
617.96002464553203
 21
306.28849082423341
 31
0.0
  0
LINE
  5
19D
  8
41
 10
583.95998656859615
 20
246.58520466141161
 30
0.0
 11
583.95998656859615
 21
306.28849082423341
 31
0.0
  0
ARC
  5
19F
  8
41
 10
620.66002464553196
 20
250.1007550680963
 30
0.0
 40
0.3
 50
271.0
 51
0.0
  0
LINE
  5
1A0
  8
41
 10
620.66526036746313
 20
249.8008007595495
 30
0.0
 11
617.96002464553203
 21
249.75358069437701
 31
0.0
  0
LINE
  5
1A1
  8
41
 10
617.96002464553203
 20
246.28849082423349
 30
0.0
 11
583.95998656859615
 21
246.58520466141161
 31
0.0
  0
LINE
  5
1A2
  8
41
 10
617.96002464553203
 20
249.78849082423341
 30
0.0
 11
617.96002464553203
 21
246.28849082423341
 31
0.0
  0
LINE
  5
1A3
  8
43
  6
DASHED
 10
618.66264466475923
 20
267.4410860200091
 30
0.0
 11
585.96002464553203
 21
267.72647746132719
 31
0.0
  0
LINE
  5
1A4
  8
41
 10
582.96002464553203
 20
247.59393119691001
 30
0.0
 11
583.95998656859615
 21
246.58520466141161
 31
0.0
  0
LINE
  5
1A5
  8
41
 10
583.95998656859615
 20
365.99177698705512
 30
0.0
 11
583.95998656859615
 21
306.28849082423329
 31
0.0
  0
LINE
  5
1A6
  8
41
 10
617.96002464553203
 20
362.78849082423318
 30
0.0
 11
617.96002464553203
 21
306.28849082423329
 31
0.0
  0
LINE
  5
1A7
  8
41
 10
582.96002464553203
 20
364.98305045155678
 30
0.0
 11
583.95998656859615
 21
365.99177698705512
 31
0.0
  0
LINE
  5
1A8
  8
43
  6
DASHED
 10
618.66264466475923
 20
345.13589562845749
 30
0.0
 11
585.96002464553203
 21
344.85050418713939
 31
0.0
  0
LINE
  5
1A9
  8
41
 10
617.96002464553203
 20
362.78849082423329
 30
0.0
 11
617.96002464553203
 21
366.28849082423329
 31
0.0
  0
LINE
  5
1AA
  8
41
 10
617.96002464553203
 20
366.28849082423318
 30
0.0
 11
583.95998656859615
 21
365.99177698705512
 31
0.0
  0
LINE
  5
1AB
  8
41
 10
620.66526036746313
 20
362.77618088891722
 30
0.0
 11
617.96002464553203
 21
362.82340095408972
 31
0.0
  0
ARC
  5
1AC
  8
41
 10
620.66002464553196
 20
362.47622658037028
 30
0.0
 40
0.3
 50
0.0
 51
88.999999999999957
  0
LINE
  5
1AD
  8
43
  6
DASHED
 10
585.96002464553203
 20
344.85050418713939
 30
0.0
 11
585.96002464553203
 21
267.72647746132719
 31
0.0
  0
LINE
  5
1AE
  8
41
 10
620.96002464553203
 20
362.47622658037028
 30
0.0
 11
620.96002464553203
 21
250.1007550680963
 31
0.0
  0
LINE
  5
1AF
  8
41
 10
582.96002464553203
 20
364.98305045155678
 30
0.0
 11
582.96002464553203
 21
247.59393119691001
 31
0.0
  0
LINE
  5
1B0
  8
43
 10
622.76701440567342
 20
306.28849082423329
 30
0.0
 11
591.53583461056155
 21
306.28849082423329
 31
0.0
  0
TEXT
  5
1B2
  8
63
 62
     3
 10
454.3070656929134
 20
408.80786764383009
 30
0.0
 40
9.1619423485117473
  1
FIBOX EURONORD II
  7
ISO
  0
LINE
  5
1B4
  8
63
 10
776.42796459047315
 20
306.28849082423329
 30
0.0
 11
648.42796459047338
 21
306.28849082423329
 31
0.0
  0
LINE
  5
1B5
  8
23
 10
712.42796459047315
 20
434.0527017136057
 30
0.0
 11
712.42796459047315
 21
402.0527017136057
 31
0.0
  0
LINE
  5
1CC
  8
53
 10
492.4022575772139
 20
369.28849082423329
 30
0.0
 11
492.4022575772139
 21
243.28849082423329
 31
0.0
  0
LINE
  5
1CD
  8
53
 10
428.4022575772139
 20
306.28849082423329
 30
0.0
 11
556.40225757721385
 21
306.28849082423329
 31
0.0
  0
TEXT
  5
1D5
  8
63
 62
     3
 10
454.3070656929134
 20
392.38841927254282
 30
0.0
 40
9.1619423485117473
  1
120x122x35 COVER
  7
ISO
  0
LINE
  5
242
  8
21
 10
773.13125075329515
 20
440.05273979054169
 30
0.0
 11
772.12252421779669
 21
441.0527017136057
 31
0.0
  0
LINE
  5
243
  8
23
  6
DASHED
 10
760.27536937673256
 20
405.35008375295632
 30
0.0
 11
759.98997795337925
 21
438.05270171360559
 31
0.0
  0
LINE
  5
263
  8
0
  6
CONTINUOUS
 62
     7
 10
660.36336329739197
 20
362.93383859962353
 30
0.0
 11
659.09015002667024
 21
360.7285685258625
 31
0.0
  0
ARC
  5
264
  8
0
  6
CONTINUOUS
 62
     7
 10
657.42796459047338
 20
360.28849082423329
 30
0.0
 40
2.9500000000000171
 50
85.070227949341543
 51
214.9297720506566
  0
LINE
  5
265
  8
0
  6
CONTINUOUS
 62
     7
 10
656.97799034162495
 20
361.9480244885948
 30
0.0
 11
658.25120361234679
 21
364.15329456235582
 31
0.0
  0
ARC
  5
266
  8
0
  6
CONTINUOUS
 62
     7
 10
657.42796459047338
 20
360.28849082423318
 30
0.0
 40
4.0974499545946284
 50
79.15976885781113
 51
220.8402311421865
  0
ARC
  5
267
  8
0
  6
CONTINUOUS
 62
     7
 10
657.42796459047361
 20
360.28849082423341
 30
0.0
 40
4.0974499545946284
 50
259.15976885781112
 51
40.84023114218656
  0
ARC
  5
268
  8
0
  6
CONTINUOUS
 62
     7
 10
657.42796459047338
 20
360.28849082423329
 30
0.0
 40
2.9500000000000042
 50
265.07022794934147
 51
34.929772050656688
  0
ARC
  5
269
  8
0
  6
CONTINUOUS
 62
     7
 10
657.42796459047338
 20
360.28849082423329
 30
0.0
 40
1.7194559627323469
 50
1.2838565197763421
 51
14.82929661042618
  0
ARC
  5
26C
  8
0
  6
CONTINUOUS
 62
     7
 10
657.42796459047338
 20
360.28849082423329
 30
0.0
 40
4.16945596273235
 50
226.2538174138277
 51
253.7461825861734
  0
LINE
  5
26D
  8
0
  6
CONTINUOUS
 62
     7
 10
654.49256588355479
 20
357.64314304884311
 30
0.0
 11
655.76577915427663
 21
359.8484131226042
 31
0.0
  0
ARC
  5
26E
  8
0
  6
CONTINUOUS
 62
     7
 10
654.75235971424422
 20
357.4931482037843
 30
0.0
 40
0.2999854796664052
 50
149.99953570610111
 51
226.2542817073969
  0
ARC
  5
26F
  8
0
  6
CONTINUOUS
 62
     7
 10
657.42796459047338
 20
360.28849082423329
 30
0.0
 40
1.719455962732352
 50
105.17070338957519
 51
118.71614348025891
  0
ARC
  5
270
  8
0
  6
CONTINUOUS
 62
     7
 10
657.42796459047338
 20
360.28849082423329
 30
0.0
 40
1.719455962732344
 50
181.28385651975009
 51
194.8292966104261
  0
LINE
  5
271
  8
0
  6
CONTINUOUS
 62
     7
 10
655.70894027660995
 20
360.24996529864029
 30
0.0
 11
656.60181651739947
 21
361.79647231255859
 31
0.0
  0
ARC
  5
273
  8
0
  6
CONTINUOUS
 62
     7
 10
657.42796459047338
 20
360.28849082423329
 30
0.0
 40
1.719455962732354
 50
285.17070338957518
 51
298.71614348025878
  0
LINE
  5
275
  8
0
  6
CONTINUOUS
 62
     7
 10
657.87793883932193
 20
358.62895715987179
 30
0.0
 11
656.6047255686002
 21
356.42368708611082
 31
0.0
  0
ARC
  5
278
  8
0
  6
CONTINUOUS
 62
     7
 10
656.34492930700048
 20
356.57367772069159
 30
0.0
 40
0.2999854796546085
 50
253.74571829139001
 51
330.00046429426999
  0
LINE
  5
279
  8
0
  6
CONTINUOUS
 62
     7
 10
659.14698890433669
 20
360.32701634982629
 30
0.0
 11
658.25411266354752
 21
358.78050933590799
 31
0.0
  0
ARC
  5
27B
  8
0
  6
CONTINUOUS
 62
     7
 10
657.42796459047338
 20
360.28849082423329
 30
0.0
 40
4.16945596273235
 50
46.253817413827718
 51
73.746182586173475
  0
ARC
  5
27C
  8
0
  6
CONTINUOUS
 62
     7
 10
658.51099987395185
 20
364.00330392775919
 30
0.0
 40
0.2999854796682246
 50
73.7457182932297
 51
150.0004642918511
  0
ARC
  5
27D
  8
0
  6
CONTINUOUS
 62
     7
 10
660.10356946668435
 20
363.08383344468137
 30
0.0
 40
0.29998547967963
 50
329.99953570866631
 51
46.254281705012822
  0
ARC
  5
27E
  8
0
  6
CONTINUOUS
 62
     7
 10
767.42796459047293
 20
360.28849082423341
 30
0.0
 40
4.0974499545946284
 50
139.15976885781339
 51
280.84023114218883
  0
ARC
  5
27F
  8
0
  6
CONTINUOUS
 62
     7
 10
767.42796459047304
 20
360.28849082423329
 30
0.0
 40
2.9500000000000042
 50
145.07022794934329
 51
274.92977205065841
  0
LINE
  5
280
  8
0
  6
CONTINUOUS
 62
     7
 10
764.49256588355445
 20
362.93383859962353
 30
0.0
 11
765.76577915427629
 21
360.7285685258625
 31
0.0
  0
LINE
  5
281
  8
0
  6
CONTINUOUS
 62
     7
 10
769.14698890433635
 20
360.24996529864029
 30
0.0
 11
768.25411266354695
 21
361.79647231255859
 31
0.0
  0
ARC
  5
282
  8
0
  6
CONTINUOUS
 62
     7
 10
767.42796459047304
 20
360.28849082423329
 30
0.0
 40
2.9500000000000171
 50
325.07022794934329
 51
94.929772050658443
  0
ARC
  5
283
  8
0
  6
CONTINUOUS
 62
     7
 10
767.42796459047304
 20
360.28849082423318
 30
0.0
 40
4.0974499545946284
 50
319.15976885781339
 51
100.8402311421888
  0
ARC
  5
284
  8
62
 10
767.42796459047304
 20
360.28849082423329
 30
0.0
 40
5.7818283052311008
 50
0.000000000000007
 51
90.0
  0
ARC
  5
285
  8
61
 10
767.42796459047304
 20
360.28849082423329
 30
0.0
 40
4.7818283052311008
 50
0.000000000000007
 51
90.0
  0
ARC
  5
286
  8
61
 10
767.42796459047304
 20
360.28849082423329
 30
0.0
 40
6.0
 50
0.000000000000007
 51
90.0
  0
ARC
  5
287
  8
0
  6
CONTINUOUS
 62
     7
 10
767.42796459047304
 20
360.28849082423329
 30
0.0
 40
1.7194559627323469
 50
165.17070338957379
 51
178.71614348022359
  0
ARC
  5
28A
  8
0
  6
CONTINUOUS
 62
     7
 10
767.42796459047304
 20
360.28849082423329
 30
0.0
 40
4.16945596273235
 50
286.25381741382648
 51
313.74618258617221
  0
LINE
  5
28B
  8
0
  6
CONTINUOUS
 62
     7
 10
770.36336329739163
 20
357.64314304884311
 30
0.0
 11
769.0901500266699
 21
359.8484131226042
 31
0.0
  0
ARC
  5
28C
  8
0
  6
CONTINUOUS
 62
     7
 10
770.10356946670231
 20
357.4931482037843
 30
0.0
 40
0.2999854796664052
 50
313.7457182926031
 51
30.000464293898901
  0
ARC
  5
28D
  8
0
  6
CONTINUOUS
 62
     7
 10
767.42796459047304
 20
360.28849082423329
 30
0.0
 40
1.719455962732344
 50
345.17070338957382
 51
358.7161434802498
  0
ARC
  5
28F
  8
0
  6
CONTINUOUS
 62
     7
 10
767.42796459047304
 20
360.28849082423329
 30
0.0
 40
1.719455962732354
 50
241.28385651974111
 51
254.82929661042471
  0
LINE
  5
291
  8
0
  6
CONTINUOUS
 62
     7
 10
766.97799034162449
 20
358.62895715987179
 30
0.0
 11
768.25120361234633
 21
356.42368708611082
 31
0.0
  0
ARC
  5
294
  8
0
  6
CONTINUOUS
 62
     7
 10
768.51099987394593
 20
356.57367772069159
 30
0.0
 40
0.2999854796546085
 50
209.9995357057299
 51
286.25428170860988
  0
LINE
  5
295
  8
0
  6
CONTINUOUS
 62
     7
 10
765.70894027660961
 20
360.32701634982629
 30
0.0
 11
766.60181651739902
 21
358.78050933590799
 31
0.0
  0
LINE
  5
297
  8
0
  6
CONTINUOUS
 62
     7
 10
767.87793883932136
 20
361.9480244885948
 30
0.0
 11
766.60472556859975
 21
364.15329456235582
 31
0.0
  0
ARC
  5
298
  8
0
  6
CONTINUOUS
 62
     7
 10
767.42796459047304
 20
360.28849082423329
 30
0.0
 40
1.719455962732352
 50
61.2838565197411
 51
74.829296610424763
  0
ARC
  5
299
  8
0
  6
CONTINUOUS
 62
     7
 10
767.42796459047304
 20
360.28849082423329
 30
0.0
 40
4.16945596273235
 50
106.2538174138265
 51
133.74618258617221
  0
ARC
  5
29A
  8
0
  6
CONTINUOUS
 62
     7
 10
766.34492930699457
 20
364.00330392775919
 30
0.0
 40
0.2999854796682246
 50
29.99953570814888
 51
106.2542817067702
  0
ARC
  5
29B
  8
0
  6
CONTINUOUS
 62
     7
 10
764.75235971426207
 20
363.08383344468137
 30
0.0
 40
0.29998547967963
 50
133.74571829498711
 51
210.0004642913336
  0
ARC
  5
29C
  8
0
  6
CONTINUOUS
 62
     7
 10
657.42796459047361
 20
252.28849082423321
 30
0.0
 40
4.0974499545946284
 50
319.15976885781328
 51
100.8402311421888
  0
ARC
  5
29D
  8
0
  6
CONTINUOUS
 62
     7
 10
657.42796459047338
 20
252.28849082423329
 30
0.0
 40
2.9500000000000042
 50
325.07022794934318
 51
94.929772050658428
  0
LINE
  5
29E
  8
0
  6
CONTINUOUS
 62
     7
 10
660.36336329739197
 20
249.64314304884309
 30
0.0
 11
659.09015002667024
 21
251.84841312260409
 31
0.0
  0
LINE
  5
29F
  8
0
  6
CONTINUOUS
 62
     7
 10
655.70894027660995
 20
252.32701634982629
 30
0.0
 11
656.60181651739947
 21
250.78050933590799
 31
0.0
  0
ARC
  5
2A0
  8
0
  6
CONTINUOUS
 62
     7
 10
657.42796459047338
 20
252.28849082423329
 30
0.0
 40
2.9500000000000171
 50
145.07022794934329
 51
274.92977205065841
  0
ARC
  5
2A1
  8
0
  6
CONTINUOUS
 62
     7
 10
657.42796459047338
 20
252.28849082423341
 30
0.0
 40
4.0974499545946284
 50
139.15976885781339
 51
280.84023114218883
  0
ARC
  5
2A2
  8
62
 10
657.42796459047338
 20
252.28849082423329
 30
0.0
 40
5.7818283052311008
 50
180.0
 51
270.0
  0
ARC
  5
2A3
  8
61
 10
657.42796459047338
 20
252.28849082423329
 30
0.0
 40
4.7818283052311008
 50
180.0
 51
270.0
  0
ARC
  5
2A4
  8
61
 10
657.42796459047338
 20
252.28849082423329
 30
0.0
 40
6.0
 50
180.0
 51
270.0
  0
ARC
  5
2A5
  8
0
  6
CONTINUOUS
 62
     7
 10
657.42796459047338
 20
252.28849082423329
 30
0.0
 40
1.7194559627323469
 50
345.17070338957382
 51
358.71614348022359
  0
ARC
  5
2A8
  8
0
  6
CONTINUOUS
 62
     7
 10
657.42796459047338
 20
252.28849082423329
 30
0.0
 40
4.16945596273235
 50
106.2538174138265
 51
133.74618258617221
  0
LINE
  5
2A9
  8
0
  6
CONTINUOUS
 62
     7
 10
654.49256588355479
 20
254.9338385996235
 30
0.0
 11
655.76577915427663
 21
252.72856852586241
 31
0.0
  0
ARC
  5
2AA
  8
0
  6
CONTINUOUS
 62
     7
 10
654.75235971424422
 20
255.0838334446824
 30
0.0
 40
0.2999854796664052
 50
133.74571829260299
 51
210.0004642938988
  0
ARC
  5
2AB
  8
0
  6
CONTINUOUS
 62
     7
 10
657.42796459047338
 20
252.28849082423329
 30
0.0
 40
1.719455962732344
 50
165.17070338957379
 51
178.7161434802498
  0
ARC
  5
2AD
  8
0
  6
CONTINUOUS
 62
     7
 10
657.42796459047338
 20
252.28849082423329
 30
0.0
 40
1.719455962732354
 50
61.2838565197411
 51
74.829296610424777
  0
LINE
  5
2AF
  8
0
  6
CONTINUOUS
 62
     7
 10
657.87793883932193
 20
253.9480244885948
 30
0.0
 11
656.6047255686002
 21
256.15329456235582
 31
0.0
  0
ARC
  5
2B2
  8
0
  6
CONTINUOUS
 62
     7
 10
656.34492930700048
 20
256.00330392777499
 30
0.0
 40
0.2999854796546085
 50
29.999535705729961
 51
106.25428170860989
  0
LINE
  5
2B3
  8
0
  6
CONTINUOUS
 62
     7
 10
659.14698890433669
 20
252.24996529864029
 30
0.0
 11
658.25411266354752
 21
253.79647231255859
 31
0.0
  0
LINE
  5
2B5
  8
0
  6
CONTINUOUS
 62
     7
 10
656.97799034162495
 20
250.62895715987179
 30
0.0
 11
658.25120361234679
 21
248.42368708611079
 31
0.0
  0
ARC
  5
2B6
  8
0
  6
CONTINUOUS
 62
     7
 10
657.42796459047338
 20
252.28849082423329
 30
0.0
 40
1.719455962732352
 50
241.28385651974099
 51
254.82929661042471
  0
ARC
  5
2B7
  8
0
  6
CONTINUOUS
 62
     7
 10
657.42796459047338
 20
252.28849082423329
 30
0.0
 40
4.16945596273235
 50
286.25381741382648
 51
313.74618258617221
  0
ARC
  5
2B8
  8
0
  6
CONTINUOUS
 62
     7
 10
658.51099987395185
 20
248.57367772070739
 30
0.0
 40
0.2999854796682246
 50
209.99953570814881
 51
286.25428170677031
  0
ARC
  5
2B9
  8
0
  6
CONTINUOUS
 62
     7
 10
660.10356946668435
 20
249.49314820378521
 30
0.0
 40
0.29998547967963
 50
313.74571829498711
 51
30.000464291333699
  0
ARC
  5
2BA
  8
61
 10
767.42796459047304
 20
252.28849082423329
 30
0.0
 40
6.0
 50
270.0
 51
0.0
  0
ARC
  5
2BB
  8
61
 10
767.42796459047304
 20
252.28849082423329
 30
0.0
 40
4.7818283052311008
 50
270.0
 51
0.0
  0
ARC
  5
2BC
  8
62
 10
767.42796459047304
 20
252.28849082423329
 30
0.0
 40
5.7818283052311008
 50
270.0
 51
0.0
  0
ARC
  5
2BD
  8
0
  6
CONTINUOUS
 62
     7
 10
767.42796459047304
 20
252.28849082423341
 30
0.0
 40
4.0974499545946284
 50
259.15976885781112
 51
40.84023114218656
  0
ARC
  5
2BE
  8
0
  6
CONTINUOUS
 62
     7
 10
767.42796459047304
 20
252.28849082423329
 30
0.0
 40
2.9500000000000171
 50
265.07022794934147
 51
34.929772050656659
  0
LINE
  5
2BF
  8
0
  6
CONTINUOUS
 62
     7
 10
769.14698890433635
 20
252.32701634982629
 30
0.0
 11
768.25411266354695
 21
250.78050933590799
 31
0.0
  0
LINE
  5
2C0
  8
0
  6
CONTINUOUS
 62
     7
 10
764.49256588355445
 20
249.64314304884309
 30
0.0
 11
765.76577915427629
 21
251.84841312260409
 31
0.0
  0
ARC
  5
2C1
  8
0
  6
CONTINUOUS
 62
     7
 10
767.42796459047304
 20
252.28849082423329
 30
0.0
 40
2.9500000000000042
 50
85.0702279493416
 51
214.9297720506566
  0
ARC
  5
2C2
  8
0
  6
CONTINUOUS
 62
     7
 10
767.42796459047293
 20
252.28849082423321
 30
0.0
 40
4.0974499545946284
 50
79.159768857811144
 51
220.84023114218661
  0
LINE
  5
2C4
  8
0
  6
CONTINUOUS
 62
     7
 10
765.70894027660961
 20
252.24996529864029
 30
0.0
 11
766.60181651739902
 21
253.79647231255859
 31
0.0
  0
ARC
  5
2C7
  8
0
  6
CONTINUOUS
 62
     7
 10
767.42796459047304
 20
252.28849082423329
 30
0.0
 40
1.7194559627323469
 50
181.28385651977629
 51
194.8292966104261
  0
ARC
  5
2C8
  8
0
  6
CONTINUOUS
 62
     7
 10
768.51099987394593
 20
256.00330392777499
 30
0.0
 40
0.2999854796546085
 50
73.745718291390077
 51
150.00046429426999
  0
LINE
  5
2CB
  8
0
  6
CONTINUOUS
 62
     7
 10
766.97799034162449
 20
253.9480244885948
 30
0.0
 11
768.25120361234633
 21
256.15329456235582
 31
0.0
  0
ARC
  5
2CD
  8
0
  6
CONTINUOUS
 62
     7
 10
767.42796459047304
 20
252.28849082423329
 30
0.0
 40
1.719455962732354
 50
105.17070338957519
 51
118.71614348025879
  0
ARC
  5
2CF
  8
0
  6
CONTINUOUS
 62
     7
 10
767.42796459047304
 20
252.28849082423329
 30
0.0
 40
1.719455962732344
 50
1.2838565197501299
 51
14.829296610426169
  0
ARC
  5
2D0
  8
0
  6
CONTINUOUS
 62
     7
 10
770.10356946670231
 20
255.0838334446824
 30
0.0
 40
0.2999854796664052
 50
329.99953570610103
 51
46.25428170739692
  0
LINE
  5
2D1
  8
0
  6
CONTINUOUS
 62
     7
 10
770.36336329739163
 20
254.9338385996235
 30
0.0
 11
769.0901500266699
 21
252.72856852586241
 31
0.0
  0
ARC
  5
2D2
  8
0
  6
CONTINUOUS
 62
     7
 10
767.42796459047304
 20
252.28849082423329
 30
0.0
 40
4.16945596273235
 50
46.253817413827768
 51
73.746182586173504
  0
ARC
  5
2D3
  8
0
  6
CONTINUOUS
 62
     7
 10
766.34492930699457
 20
248.57367772070739
 30
0.0
 40
0.2999854796682246
 50
253.7457182932296
 51
330.00046429185102
  0
ARC
  5
2D4
  8
0
  6
CONTINUOUS
 62
     7
 10
764.75235971426207
 20
249.49314820378521
 30
0.0
 40
0.29998547967963
 50
149.9995357086662
 51
226.2542817050128
  0
ARC
  5
2D5
  8
0
  6
CONTINUOUS
 62
     7
 10
767.42796459047304
 20
252.28849082423329
 30
0.0
 40
4.16945596273235
 50
226.2538174138277
 51
253.7461825861734
  0
ARC
  5
2D6
  8
0
  6
CONTINUOUS
 62
     7
 10
767.42796459047304
 20
252.28849082423329
 30
0.0
 40
1.719455962732352
 50
285.17070338957518
 51
298.71614348025878
  0
LINE
  5
2D7
  8
0
  6
CONTINUOUS
 62
     7
 10
767.87793883932136
 20
250.62895715987179
 30
0.0
 11
766.60472556859975
 21
248.42368708611079
 31
0.0
  0
LINE
  5
2D8
  8
52
 10
440.33765628413272
 20
362.93383859962353
 30
0.0
 11
439.06444301341082
 21
360.7285685258625
 31
0.0
  0
LINE
  5
2D9
  8
52
 10
435.6832332633507
 20
360.24996529864029
 30
0.0
 11
436.57610950414011
 21
361.79647231255859
 31
0.0
  0
ARC
  5
2DA
  8
52
 10
437.40225757721407
 20
360.28849082423329
 30
0.0
 40
1.7194559627323469
 50
1.2838565197763421
 51
14.82929661042618
  0
ARC
  5
2DB
  8
52
 10
437.40225757721407
 20
360.28849082423329
 30
0.0
 40
4.16945596273235
 50
226.2538174138277
 51
253.7461825861734
  0
LINE
  5
2DC
  8
52
 10
434.46685887029548
 20
357.64314304884311
 30
0.0
 11
435.74007214101721
 21
359.8484131226042
 31
0.0
  0
ARC
  5
2DD
  8
52
 10
434.7266527009848
 20
357.4931482037843
 30
0.0
 40
0.2999854796664052
 50
149.99953570610111
 51
226.2542817073969
  0
ARC
  5
2DE
  8
52
 10
437.40225757721407
 20
360.28849082423329
 30
0.0
 40
1.719455962732344
 50
181.28385651975009
 51
194.8292966104261
  0
ARC
  5
2DF
  8
52
 10
437.40225757721407
 20
360.28849082423329
 30
0.0
 40
1.719455962732354
 50
285.17070338957518
 51
298.71614348025878
  0
LINE
  5
2E0
  8
52
 10
437.85223182606262
 20
358.62895715987179
 30
0.0
 11
436.57901855534078
 21
356.42368708611082
 31
0.0
  0
ARC
  5
2E1
  8
52
 10
436.31922229374118
 20
356.57367772069159
 30
0.0
 40
0.2999854796546085
 50
253.74571829139001
 51
330.00046429426999
  0
LINE
  5
2E2
  8
52
 10
439.12128189107739
 20
360.32701634982629
 30
0.0
 11
438.2284056502881
 21
358.78050933590799
 31
0.0
  0
LINE
  5
2E3
  8
52
 10
436.9522833283657
 20
361.9480244885948
 30
0.0
 11
438.22549659908742
 21
364.15329456235582
 31
0.0
  0
ARC
  5
2E4
  8
52
 10
437.40225757721407
 20
360.28849082423329
 30
0.0
 40
1.719455962732352
 50
105.17070338957519
 51
118.71614348025891
  0
ARC
  5
2E5
  8
52
 10
437.40225757721407
 20
360.28849082423329
 30
0.0
 40
4.16945596273235
 50
46.253817413827718
 51
73.746182586173475
  0
ARC
  5
2E6
  8
52
 10
438.48529286069248
 20
364.00330392775919
 30
0.0
 40
0.2999854796682246
 50
73.7457182932297
 51
150.0004642918511
  0
ARC
  5
2E7
  8
52
 10
440.07786245342498
 20
363.08383344468137
 30
0.0
 40
0.29998547967963
 50
329.99953570866631
 51
46.254281705012822
  0
LINE
  5
2E8
  8
52
 10
549.12128189107716
 20
360.24996529864029
 30
0.0
 11
548.22840565028764
 21
361.79647231255859
 31
0.0
  0
LINE
  5
2E9
  8
52
 10
544.46685887029503
 20
362.93383859962353
 30
0.0
 11
545.74007214101687
 21
360.7285685258625
 31
0.0
  0
LINE
  5
2EA
  8
52
 10
545.6832332633503
 20
360.32701634982629
 30
0.0
 11
546.57610950413948
 21
358.78050933590799
 31
0.0
  0
ARC
  5
2EB
  8
52
 10
548.48529286068651
 20
356.57367772069159
 30
0.0
 40
0.2999854796546085
 50
209.9995357057299
 51
286.25428170860988
  0
LINE
  5
2EC
  8
52
 10
546.95228332836518
 20
358.62895715987179
 30
0.0
 11
548.2254965990868
 21
356.42368708611082
 31
0.0
  0
ARC
  5
2ED
  8
52
 10
547.40225757721373
 20
360.28849082423329
 30
0.0
 40
1.719455962732354
 50
241.28385651974111
 51
254.82929661042471
  0
ARC
  5
2EE
  8
52
 10
547.40225757721373
 20
360.28849082423329
 30
0.0
 40
1.719455962732344
 50
345.17070338957382
 51
358.7161434802498
  0
ARC
  5
2EF
  8
52
 10
550.07786245344289
 20
357.4931482037843
 30
0.0
 40
0.2999854796664052
 50
313.7457182926031
 51
30.000464293898901
  0
LINE
  5
2F0
  8
52
 10
550.33765628413221
 20
357.64314304884311
 30
0.0
 11
549.06444301341037
 21
359.8484131226042
 31
0.0
  0
ARC
  5
2F1
  8
52
 10
547.40225757721373
 20
360.28849082423329
 30
0.0
 40
4.16945596273235
 50
286.25381741382648
 51
313.74618258617221
  0
ARC
  5
2F2
  8
52
 10
547.40225757721373
 20
360.28849082423329
 30
0.0
 40
1.7194559627323469
 50
165.17070338957379
 51
178.71614348022359
  0
ARC
  5
2F3
  8
52
 10
544.72665270100265
 20
363.08383344468137
 30
0.0
 40
0.29998547967963
 50
133.74571829498711
 51
210.0004642913336
  0
ARC
  5
2F4
  8
52
 10
546.31922229373515
 20
364.00330392775919
 30
0.0
 40
0.2999854796682246
 50
29.99953570814888
 51
106.2542817067702
  0
ARC
  5
2F5
  8
52
 10
547.40225757721373
 20
360.28849082423329
 30
0.0
 40
4.16945596273235
 50
106.2538174138265
 51
133.74618258617221
  0
ARC
  5
2F6
  8
52
 10
547.40225757721373
 20
360.28849082423329
 30
0.0
 40
1.719455962732352
 50
61.2838565197411
 51
74.829296610424763
  0
LINE
  5
2F7
  8
52
 10
547.85223182606205
 20
361.9480244885948
 30
0.0
 11
546.57901855534033
 21
364.15329456235582
 31
0.0
  0
LINE
  5
2F8
  8
52
 10
547.85223182606205
 20
250.62895715987179
 30
0.0
 11
546.57901855534033
 21
248.42368708611079
 31
0.0
  0
ARC
  5
2F9
  8
52
 10
547.40225757721373
 20
252.28849082423329
 30
0.0
 40
1.719455962732354
 50
105.17070338957519
 51
118.71614348025879
  0
LINE
  5
2FA
  8
52
 10
544.46685887029503
 20
249.64314304884309
 30
0.0
 11
545.74007214101687
 21
251.84841312260409
 31
0.0
  0
ARC
  5
2FB
  8
52
 10
547.40225757721373
 20
252.28849082423329
 30
0.0
 40
1.7194559627323469
 50
181.28385651977629
 51
194.8292966104261
  0
LINE
  5
2FC
  8
52
 10
545.6832332633503
 20
252.24996529864029
 30
0.0
 11
546.57610950413948
 21
253.79647231255859
 31
0.0
  0
ARC
  5
2FD
  8
52
 10
547.40225757721373
 20
252.28849082423329
 30
0.0
 40
4.16945596273235
 50
226.2538174138277
 51
253.7461825861734
  0
ARC
  5
2FE
  8
52
 10
546.31922229373515
 20
248.57367772070739
 30
0.0
 40
0.2999854796682246
 50
253.7457182932296
 51
330.00046429185102
  0
ARC
  5
2FF
  8
52
 10
544.72665270100265
 20
249.49314820378521
 30
0.0
 40
0.29998547967963
 50
149.9995357086662
 51
226.2542817050128
  0
LINE
  5
300
  8
52
 10
549.12128189107716
 20
252.32701634982629
 30
0.0
 11
548.22840565028764
 21
250.78050933590799
 31
0.0
  0
ARC
  5
301
  8
52
 10
547.40225757721373
 20
252.28849082423329
 30
0.0
 40
4.16945596273235
 50
46.253817413827768
 51
73.746182586173504
  0
LINE
  5
302
  8
52
 10
550.33765628413221
 20
254.9338385996235
 30
0.0
 11
549.06444301341037
 21
252.72856852586241
 31
0.0
  0
ARC
  5
303
  8
52
 10
550.07786245344289
 20
255.0838334446824
 30
0.0
 40
0.2999854796664052
 50
329.99953570610103
 51
46.25428170739692
  0
ARC
  5
304
  8
52
 10
547.40225757721373
 20
252.28849082423329
 30
0.0
 40
1.719455962732344
 50
1.2838565197501299
 51
14.829296610426169
  0
LINE
  5
305
  8
52
 10
546.95228332836518
 20
253.9480244885948
 30
0.0
 11
548.2254965990868
 21
256.15329456235582
 31
0.0
  0
ARC
  5
306
  8
52
 10
548.48529286068651
 20
256.00330392777499
 30
0.0
 40
0.2999854796546085
 50
73.745718291390077
 51
150.00046429426999
  0
ARC
  5
307
  8
52
 10
547.40225757721373
 20
252.28849082423329
 30
0.0
 40
1.719455962732352
 50
285.17070338957518
 51
298.71614348025878
  0
LINE
  5
308
  8
52
 10
435.6832332633507
 20
252.32701634982629
 30
0.0
 11
436.57610950414011
 21
250.78050933590799
 31
0.0
  0
LINE
  5
309
  8
52
 10
440.33765628413272
 20
249.64314304884309
 30
0.0
 11
439.06444301341082
 21
251.84841312260409
 31
0.0
  0
LINE
  5
30A
  8
52
 10
439.12128189107739
 20
252.24996529864029
 30
0.0
 11
438.2284056502881
 21
253.79647231255859
 31
0.0
  0
LINE
  5
30B
  8
52
 10
437.85223182606262
 20
253.9480244885948
 30
0.0
 11
436.57901855534078
 21
256.15329456235582
 31
0.0
  0
ARC
  5
30C
  8
52
 10
437.40225757721407
 20
252.28849082423329
 30
0.0
 40
1.719455962732354
 50
61.2838565197411
 51
74.829296610424777
  0
ARC
  5
30D
  8
52
 10
437.40225757721407
 20
252.28849082423329
 30
0.0
 40
1.719455962732344
 50
165.17070338957379
 51
178.7161434802498
  0
ARC
  5
30E
  8
52
 10
434.7266527009848
 20
255.0838334446824
 30
0.0
 40
0.2999854796664052
 50
133.74571829260299
 51
210.0004642938988
  0
LINE
  5
30F
  8
52
 10
434.46685887029548
 20
254.9338385996235
 30
0.0
 11
435.74007214101721
 21
252.72856852586241
 31
0.0
  0
ARC
  5
310
  8
52
 10
437.40225757721407
 20
252.28849082423329
 30
0.0
 40
1.7194559627323469
 50
345.17070338957382
 51
358.71614348022359
  0
ARC
  5
311
  8
52
 10
440.07786245342498
 20
249.49314820378521
 30
0.0
 40
0.29998547967963
 50
313.74571829498711
 51
30.000464291333699
  0
ARC
  5
312
  8
52
 10
438.48529286069248
 20
248.57367772070739
 30
0.0
 40
0.2999854796682246
 50
209.99953570814881
 51
286.25428170677031
  0
ARC
  5
313
  8
52
 10
437.40225757721407
 20
252.28849082423329
 30
0.0
 40
4.16945596273235
 50
286.25381741382648
 51
313.74618258617221
  0
ARC
  5
314
  8
52
 10
437.40225757721407
 20
252.28849082423329
 30
0.0
 40
1.719455962732352
 50
241.28385651974099
 51
254.82929661042471
  0
LINE
  5
315
  8
52
 10
436.9522833283657
 20
250.62895715987179
 30
0.0
 11
438.22549659908742
 21
248.42368708611079
 31
0.0
  0
ARC
  5
316
  8
52
 10
436.31922229374118
 20
256.00330392777499
 30
0.0
 40
0.2999854796546085
 50
29.999535705729961
 51
106.25428170860989
  0
ARC
  5
317
  8
52
 10
437.40225757721407
 20
252.28849082423329
 30
0.0
 40
4.16945596273235
 50
106.2538174138265
 51
133.74618258617221
  0
LINE
  5
318
  8
21
 10
651.72467842765138
 20
172.52424185792509
 30
0.0
 11
773.13125075329515
 21
172.52424185792509
 31
0.0
  0
LINE
  5
319
  8
21
 10
652.73340496314972
 20
171.52427993486091
 30
0.0
 11
772.12252421779669
 21
171.52427993486091
 31
0.0
  0
LINE
  5
31A
  8
23
  6
DASHED
 10
664.86595122756717
 20
174.52427993486091
 30
0.0
 11
759.58159102598927
 21
174.524279934861
 31
0.0
  0
LINE
  5
31B
  8
21
 10
655.24022883433634
 20
209.52427993486091
 30
0.0
 11
769.61570034661031
 21
209.52427993486091
 31
0.0
  0
LINE
  5
31C
  8
21
 10
654.92796459047315
 20
206.52427993486091
 30
0.0
 11
769.92796459047327
 21
206.52427993486091
 31
0.0
  0
LINE
  5
31D
  8
23
  6
DASHED
 10
664.58055980421386
 20
207.22689789551029
 30
0.0
 11
664.86595122756717
 21
174.52427993486091
 31
0.0
  0
LINE
  5
31E
  8
21
 10
651.42796459047315
 20
206.52427993486091
 30
0.0
 11
651.72467842765138
 21
172.52424185792509
 31
0.0
  0
LINE
  5
31F
  8
21
 10
654.94027452578905
 20
209.22951565679199
 30
0.0
 11
654.89305446061655
 21
206.52427993486091
 31
0.0
  0
ARC
  5
320
  8
21
 10
655.24022883433611
 20
209.22427993486099
 30
0.0
 40
0.3
 50
90.000000000000028
 51
178.99999999999989
  0
LINE
  5
321
  8
21
 10
654.92796459047315
 20
206.52427993486091
 30
0.0
 11
651.42796459047315
 21
206.52427993486091
 31
0.0
  0
LINE
  5
322
  8
21
 10
651.72467842765138
 20
172.52424185792509
 30
0.0
 11
652.73340496314972
 21
171.52427993486091
 31
0.0
  0
LINE
  5
323
  8
21
 10
773.42796459047315
 20
206.52427993486091
 30
0.0
 11
773.13125075329515
 21
172.52424185792509
 31
0.0
  0
LINE
  5
324
  8
23
  6
DASHED
 10
760.27536937673256
 20
207.22689789551029
 30
0.0
 11
759.98997795337925
 21
174.52427993486091
 31
0.0
  0
LINE
  5
325
  8
23
 10
712.42796459047315
 20
178.52427993486091
 30
0.0
 11
712.42796459047315
 21
210.52427993486091
 31
0.0
  0
LINE
  5
326
  8
23
  6
DASHED
 10
760.27536937673256
 20
207.22689789551029
 30
0.0
 11
760.08157198752122
 21
185.0199166671118
 31
0.0
  0
LINE
  5
327
  8
21
 10
769.91565465515725
 20
209.22951565679199
 30
0.0
 11
769.96287472032964
 21
206.52427993486091
 31
0.0
  0
ARC
  5
328
  8
21
 10
769.61570034661031
 20
209.22427993486099
 30
0.0
 40
0.3
 50
1.0000000000000531
 51
90.000000000000028
  0
LINE
  5
329
  8
21
 10
769.92796459047327
 20
206.52427993486091
 30
0.0
 11
773.42796459047327
 21
206.52427993486091
 31
0.0
  0
LINE
  5
32A
  8
21
 10
773.13125075329515
 20
172.52424185792501
 30
0.0
 11
772.12252421779669
 21
171.52427993486091
 31
0.0
  0
LINE
  5
32B
  8
41
 10
841.89590453541439
 20
364.98305045155678
 30
0.0
 11
841.89590453541439
 21
247.59393119691001
 31
0.0
  0
LINE
  5
32C
  8
41
 10
840.89594261235027
 20
365.99177698705512
 30
0.0
 11
840.89594261235027
 21
306.28849082423329
 31
0.0
  0
LINE
  5
32D
  8
41
 10
803.8959045354145
 20
362.47622658037028
 30
0.0
 11
803.8959045354145
 21
250.1007550680963
 31
0.0
  0
LINE
  5
32E
  8
41
 10
806.89590453541439
 20
362.78849082423318
 30
0.0
 11
806.89590453541439
 21
306.28849082423329
 31
0.0
  0
LINE
  5
32F
  8
41
 10
840.89594261235027
 20
246.58520466141161
 30
0.0
 11
840.89594261235027
 21
306.28849082423341
 31
0.0
  0
LINE
  5
330
  8
43
  6
DASHED
 10
838.8959045354145
 20
344.85050418713939
 30
0.0
 11
838.8959045354145
 21
267.72647746132719
 31
0.0
  0
LINE
  5
331
  8
41
 10
806.89590453541439
 20
249.78849082423349
 30
0.0
 11
806.89590453541439
 21
306.28849082423341
 31
0.0
  0
LINE
  5
332
  8
41
 10
806.89590453541439
 20
246.28849082423349
 30
0.0
 11
840.89594261235027
 21
246.58520466141161
 31
0.0
  0
LINE
  5
333
  8
43
  6
DASHED
 10
806.1932845161873
 20
267.4410860200091
 30
0.0
 11
838.8959045354145
 21
267.72647746132719
 31
0.0
  0
LINE
  5
334
  8
41
 10
841.89590453541439
 20
247.59393119691001
 30
0.0
 11
840.89594261235027
 21
246.58520466141161
 31
0.0
  0
LINE
  5
335
  8
41
 10
804.19066881348328
 20
249.8008007595495
 30
0.0
 11
806.89590453541439
 21
249.75358069437701
 31
0.0
  0
LINE
  5
336
  8
41
 10
806.89590453541439
 20
249.78849082423341
 30
0.0
 11
806.89590453541439
 21
246.28849082423341
 31
0.0
  0
ARC
  5
337
  8
41
 10
804.19590453541434
 20
250.1007550680963
 30
0.0
 40
0.3
 50
180.0
 51
268.99999999999989
  0
LINE
  5
338
  8
43
  6
DASHED
 10
806.1932845161873
 20
345.13589562845749
 30
0.0
 11
838.8959045354145
 21
344.85050418713939
 31
0.0
  0
LINE
  5
339
  8
43
 10
802.08891477527311
 20
306.28849082423329
 30
0.0
 11
833.32009457038487
 21
306.28849082423329
 31
0.0
  0
LINE
  5
33A
  8
41
 10
806.89590453541439
 20
366.28849082423318
 30
0.0
 11
840.89594261235027
 21
365.99177698705512
 31
0.0
  0
LINE
  5
33B
  8
41
 10
841.89590453541439
 20
364.98305045155678
 30
0.0
 11
840.89594261235027
 21
365.99177698705512
 31
0.0
  0
LINE
  5
33C
  8
41
 10
804.19066881348328
 20
362.77618088891722
 30
0.0
 11
806.89590453541439
 21
362.82340095408972
 31
0.0
  0
LINE
  5
33D
  8
41
 10
806.89590453541439
 20
362.78849082423329
 30
0.0
 11
806.89590453541439
 21
366.28849082423329
 31
0.0
  0
ARC
  5
33E
  8
41
 10
804.19590453541434
 20
362.47622658037028
 30
0.0
 40
0.3
 50
91.000000000000043
 51
180.0
  0
ENDSEC
  0
EOF
