  0
SECTION
  2
HEADER
  9
$ACADVER
  1
AC1009
  9
$INSBASE
 10
46.069858212842277
 20
110.36532342007121
 30
0.0
  9
$EXTMIN
 10
-332.00000006454502
 20
-158.66674166033209
 30
0.0
  9
$EXTMAX
 10
160.79697800247069
 20
158.66674166033209
 30
0.0
  9
$LIMMIN
 10
0.0
 20
0.0
  9
$LIMMAX
 10
594.0
 20
420.0
  9
$ORTHOMODE
 70
     1
  9
$REGENMODE
 70
     1
  9
$FILLMODE
 70
     1
  9
$QTEXTMODE
 70
     0
  9
$MIRRTEXT
 70
     1
  9
$DRAGMODE
 70
     2
  9
$LTSCALE
 40
10.0
  9
$OSMODE
 70
    37
  9
$ATTMODE
 70
     1
  9
$TEXTSIZE
 40
7.0
  9
$TRACEWID
 40
0.5
  9
$TEXTSTYLE
  7
ROMANS
  9
$CLAYER
  8
L1
  9
$CELTYPE
  6
BYLAYER
  9
$CECOLOR
 62
   256
  9
$DIMSCALE
 40
1.0
  9
$DIMASZ
 40
3.5
  9
$DIMEXO
 40
1.0
  9
$DIMDLI
 40
7.0
  9
$DIMRND
 40
0.0
  9
$DIMDLE
 40
0.0
  9
$DIMEXE
 40
1.5
  9
$DIMTP
 40
0.0
  9
$DIMTM
 40
0.0
  9
$DIMTXT
 40
3.5
  9
$DIMCEN
 40
0.0
  9
$DIMTSZ
 40
0.0
  9
$DIMTOL
 70
     0
  9
$DIMLIM
 70
     0
  9
$DIMTIH
 70
     0
  9
$DIMTOH
 70
     0
  9
$DIMSE1
 70
     0
  9
$DIMSE2
 70
     0
  9
$DIMTAD
 70
     1
  9
$DIMZIN
 70
     8
  9
$DIMBLK
  1

  9
$DIMASO
 70
     1
  9
$DIMSHO
 70
     1
  9
$DIMPOST
  1

  9
$DIMAPOST
  1

  9
$DIMALT
 70
     0
  9
$DIMALTD
 70
     2
  9
$DIMALTF
 40
25.399999999999999
  9
$DIMLFAC
 40
0.2
  9
$DIMTOFL
 70
     1
  9
$DIMTVP
 40
0.0
  9
$DIMTIX
 70
     0
  9
$DIMSOXD
 70
     0
  9
$DIMSAH
 70
     0
  9
$DIMBLK1
  1

  9
$DIMBLK2
  1

  9
$DIMSTYLE
  2
STANDARD
  9
$DIMCLRD
 70
     0
  9
$DIMCLRE
 70
     0
  9
$DIMCLRT
 70
     0
  9
$DIMTFAC
 40
1.0
  9
$DIMGAP
 40
0.1
  9
$LUNITS
 70
     2
  9
$LUPREC
 70
     2
  9
$SKETCHINC
 40
1.0
  9
$FILLETRAD
 40
0.0
  9
$AUNITS
 70
     0
  9
$AUPREC
 70
     1
  9
$MENU
  1
caesar
  9
$ELEVATION
 40
0.0
  9
$PELEVATION
 40
0.0
  9
$THICKNESS
 40
0.0
  9
$LIMCHECK
 70
     0
  9
$BLIPMODE
 70
     0
  9
$CHAMFERA
 40
5.0
  9
$CHAMFERB
 40
5.0
  9
$SKPOLY
 70
     1
  9
$TDCREATE
 40
2449441.6844428242
  9
$TDUPDATE
 40
2453620.464837986
  9
$TDINDWG
 40
0.0815686921
  9
$TDUSRTIMER
 40
0.0815686921
  9
$USRTIMER
 70
     1
  9
$ANGBASE
 50
0.0
  9
$ANGDIR
 70
     0
  9
$PDMODE
 70
     0
  9
$PDSIZE
 40
2.0
  9
$PLINEWID
 40
0.0
  9
$COORDS
 70
     2
  9
$SPLFRAME
 70
     0
  9
$SPLINETYPE
 70
     6
  9
$SPLINESEGS
 70
     8
  9
$ATTDIA
 70
     0
  9
$ATTREQ
 70
     1
  9
$HANDLING
 70
-16383
  9
$HANDSEED
  5
51C
  9
$SURFTAB1
 70
     6
  9
$SURFTAB2
 70
     6
  9
$SURFTYPE
 70
     6
  9
$SURFU
 70
     6
  9
$SURFV
 70
     6
  9
$UCSNAME
  2

  9
$UCSORG
 10
0.0
 20
0.0
 30
0.0
  9
$UCSXDIR
 10
1.0
 20
0.0
 30
0.0
  9
$UCSYDIR
 10
0.0
 20
1.0
 30
0.0
  9
$PUCSNAME
  2

  9
$PUCSORG
 10
0.0
 20
0.0
 30
0.0
  9
$PUCSXDIR
 10
1.0
 20
0.0
 30
0.0
  9
$PUCSYDIR
 10
0.0
 20
1.0
 30
0.0
  9
$USERI1
 70
     2
  9
$USERI2
 70
     0
  9
$USERI3
 70
     0
  9
$USERI4
 70
     0
  9
$USERI5
 70
     0
  9
$USERR1
 40
1.0
  9
$USERR2
 40
0.0
  9
$USERR3
 40
3.5
  9
$USERR4
 40
0.0
  9
$USERR5
 40
0.0
  9
$WORLDVIEW
 70
     1
  9
$SHADEDGE
 70
     3
  9
$SHADEDIF
 70
    70
  9
$TILEMODE
 70
     1
  9
$MAXACTVP
 70
    16
  9
$PLIMCHECK
 70
     0
  9
$PEXTMIN
 10
1.0000000000000000E+020
 20
1.0000000000000000E+020
 30
1.0000000000000000E+020
  9
$PEXTMAX
 10
-1.0000000000000000E+020
 20
-1.0000000000000000E+020
 30
-1.0000000000000000E+020
  9
$PLIMMIN
 10
0.0
 20
0.0
  9
$PLIMMAX
 10
12.0
 20
9.0
  9
$UNITMODE
 70
     0
  9
$VISRETAIN
 70
     0
  9
$PLINEGEN
 70
     0
  9
$PSLTSCALE
 70
     0
  0
ENDSEC
  0
SECTION
  2
TABLES
  0
TABLE
  2
VPORT
 70
     2
  0
VPORT
  2
*ACTIVE
 70
     0
 10
0.0
 20
0.0
 11
1.0
 21
1.0
 12
-85.628097371729254
 22
-0.0044668782383042
 13
0.0
 23
0.0
 14
6.0
 24
6.0
 15
0.0
 25
0.0
 16
0.0
 26
0.0
 36
1.0
 17
0.0
 27
0.0
 37
0.0
 40
319.43934020413423
 41
1.5552208835341359
 42
50.0
 43
0.0
 44
0.0
 50
0.0
 51
0.0
 71
     0
 72
   500
 73
     1
 74
     0
 75
     0
 76
     0
 77
     0
 78
     0
  0
ENDTAB
  0
TABLE
  2
LTYPE
 70
     3
  0
LTYPE
  2
CONTINUOUS
 70
     0
  3
Solid line
 72
    65
 73
     0
 40
0.0
  0
LTYPE
  2
CENTER
 70
     0
  3
------  -  -----  -  -----  -  -----  -  ------
 72
    65
 73
     4
 40
1.8
 49
1.25
 49
-0.25
 49
0.05
 49
-0.25
  0
LTYPE
  2
HIDDEN
 70
     0
  3
__ __ __ __ __ __ __ __ __ __ __ __ __ __ __ __
 72
    65
 73
     2
 40
0.375
 49
0.25
 49
-0.125
  0
ENDTAB
  0
TABLE
  2
LAYER
 70
     5
  0
LAYER
  2
0
 70
     0
 62
     7
  6
CONTINUOUS
  0
LAYER
  2
L1
 70
     0
 62
     7
  6
CONTINUOUS
  0
LAYER
  2
L6
 70
     0
 62
     1
  6
CENTER
  0
LAYER
  2
L2
 70
     0
 62
     1
  6
HIDDEN
  0
LAYER
  2
L3
 70
     0
 62
     1
  6
CONTINUOUS
  0
ENDTAB
  0
TABLE
  2
STYLE
 70
     2
  0
STYLE
  2
STANDARD
 70
     0
 40
0.0
 41
1.0
 50
0.0
 71
     0
 42
0.2
  3
txt
  4

  0
STYLE
  2
ROMANS
 70
     0
 40
0.0
 41
1.0
 50
0.0
 71
     0
 42
7.0
  3
simplex.shx
  4

  0
ENDTAB
  0
TABLE
  2
VIEW
 70
     0
  0
ENDTAB
  0
TABLE
  2
UCS
 70
     0
  0
ENDTAB
  0
TABLE
  2
APPID
 70
     6
  0
APPID
  2
ACAD
 70
     0
  0
APPID
  2
MCAD_NO_VIS
 70
     0
  0
APPID
  2
AD_DRAW
 70
     0
  0
APPID
  2
DESIGNERASSEMBLIES
 70
     0
  0
APPID
  2
ASURF_PCURVE_APPNAME
 70
     0
  0
APPID
  2
DCO15
 70
     0
  0
ENDTAB
  0
TABLE
  2
DIMSTYLE
 70
     1
  0
DIMSTYLE
  2
STANDARD
 70
     0
  3

  4

  5

  6

  7

 40
1.0
 41
0.18
 42
0.0625
 43
0.38
 44
0.18
 45
0.0
 46
0.0
 47
0.0
 48
0.0
140
0.18
141
0.09
142
0.0
143
25.399999999999999
144
1.0
145
0.0
146
1.0
147
0.09
 71
     0
 72
     0
 73
     1
 74
     1
 75
     0
 76
     0
 77
     0
 78
     0
170
     0
171
     2
172
     0
173
     0
174
     0
175
     0
176
     0
177
     0
178
     0
  0
ENDTAB
  0
ENDSEC
  0
SECTION
  2
BLOCKS
  0
BLOCK
  8
0
  2
$MODEL_SPACE
 70
     0
 10
0.0
 20
0.0
 30
0.0
  3
$MODEL_SPACE
  1

  0
ENDBLK
  5
7
  8
0
  0
BLOCK
 67
     1
  8
0
  2
$PAPER_SPACE
 70
     0
 10
0.0
 20
0.0
 30
0.0
  3
$PAPER_SPACE
  1

  0
ENDBLK
  5
A
 67
     1
  8
0
  0
ENDSEC
  0
SECTION
  2
ENTITIES
  0
LINE
  5
20
  8
L2
 10
113.0000000000001
 20
6.0
 30
0.0
 11
113.0000000000001
 21
48.528308381562113
 31
0.0
  0
ARC
  5
24
  8
L2
 10
95.499999999998977
 20
0.0
 30
0.0
 40
18.50000000000113
 50
341.07535558394989
 51
18.924644416050018
  0
ARC
  5
25
  8
L2
 10
92.500000000000625
 20
0.0000000000000853
 30
0.0
 40
18.499999999999378
 50
341.07535558394818
 51
18.924644416051599
  0
CIRCLE
  5
29
  8
L2
 10
-262.0
 20
-0.0000000000000284
 30
0.0
 40
6.0
  0
ARC
  5
A0
  8
L3
 10
-38.73581221007322
 20
59.263487360601907
 30
0.0
 40
0.5693979990455352
 50
321.07856646726162
 51
70.43212525150048
  0
ARC
  5
A1
  8
L3
 10
-49.310880745352669
 20
59.499999999999829
 30
0.0
 40
0.3
 50
90.000000000000298
 51
180.0
  0
LINE
  5
A2
  8
L3
 10
-53.99999999999995
 20
59.799999999999791
 30
0.0
 11
-38.545107545517787
 21
59.799999999999891
 31
0.0
  0
ARC
  5
A3
  8
L3
 10
-53.99999999999995
 20
54.999999999999943
 30
0.0
 40
4.0
 50
285.01745021050198
 51
90.0
  0
ARC
  5
A4
  8
L3
 10
-52.885813158435148
 20
50.846858095117739
 30
0.0
 40
0.3
 50
105.01745021050149
 51
269.99999999999989
  0
ARC
  5
A5
  8
L3
 10
-55.114186841564781
 20
50.846858095117739
 30
0.0
 40
0.3
 50
270.0
 51
74.982549789498464
  0
ARC
  5
A6
  8
L3
 10
-54.0
 20
54.999999999999943
 30
0.0
 40
4.0
 50
90.0
 51
254.98254978949799
  0
ARC
  5
A7
  8
L3
 10
-53.99999999999995
 20
54.999999999999943
 30
0.0
 40
4.7999999999999989
 50
90.000000000000057
 51
180.0
  0
LINE
  5
A8
  8
L3
 10
-58.799999999999947
 20
54.999999999999943
 30
0.0
 11
-58.799999999999947
 21
48.635712477115391
 31
0.0
  0
ARC
  5
A9
  8
L3
 10
-58.299999999999947
 20
48.635712477115391
 30
0.0
 40
0.5
 50
180.0
 51
334.7912347032526
  0
ARC
  5
AA
  8
L3
 10
49.310880745352733
 20
59.499999999999829
 30
0.0
 40
0.3
 50
0.0
 51
89.999999999999687
  0
LINE
  5
AB
  8
L3
 10
58.800000000000011
 20
54.999999999999943
 30
0.0
 11
58.800000000000011
 21
48.635712477115391
 31
0.0
  0
ARC
  5
AC
  8
L3
 10
58.300000000000011
 20
48.635712477115391
 30
0.0
 40
0.5
 50
205.20876529675121
 51
0.0
  0
ARC
  5
AD
  8
L3
 10
38.73581221007327
 20
59.263487360601907
 30
0.0
 40
0.5693979990455352
 50
109.56787474849951
 51
218.9214335327384
  0
LINE
  5
AE
  8
L3
 10
54.0
 20
59.799999999999791
 30
0.0
 11
38.545107545517851
 21
59.799999999999891
 31
0.0
  0
ARC
  5
AF
  8
L3
 10
54.0
 20
54.999999999999943
 30
0.0
 40
4.7999999999999989
 50
0.0
 51
89.999999999999943
  0
ARC
  5
B0
  8
L3
 10
54.0
 20
54.999999999999943
 30
0.0
 40
4.0
 50
90.0
 51
254.98254978949799
  0
ARC
  5
B1
  8
L3
 10
52.885813158435212
 20
50.846858095117739
 30
0.0
 40
0.3
 50
270.0
 51
74.982549789498464
  0
ARC
  5
B2
  8
L3
 10
55.114186841564852
 20
50.846858095117739
 30
0.0
 40
0.3
 50
105.01745021050149
 51
269.99999999999989
  0
ARC
  5
B3
  8
L3
 10
54.00000000000005
 20
54.999999999999943
 30
0.0
 40
4.0
 50
285.01745021050198
 51
90.0
  0
ARC
  5
B4
  8
L3
 10
-38.73581221007322
 20
-59.263487360601879
 30
0.0
 40
0.5693979990455352
 50
289.56787474849938
 51
38.921433532738391
  0
ARC
  5
B5
  8
L3
 10
-49.310880745352669
 20
-59.499999999999829
 30
0.0
 40
0.3
 50
180.0
 51
269.99999999999972
  0
LINE
  5
B6
  8
L3
 10
-53.99999999999995
 20
-59.799999999999791
 30
0.0
 11
-38.545107545517787
 21
-59.799999999999933
 31
0.0
  0
ARC
  5
B7
  8
L3
 10
-58.299999999999947
 20
-48.635712477115391
 30
0.0
 40
0.5
 50
25.208765296751249
 51
180.0
  0
LINE
  5
B8
  8
L3
 10
-58.799999999999947
 20
-54.999999999999943
 30
0.0
 11
-58.799999999999947
 21
-48.635712477115391
 31
0.0
  0
ARC
  5
B9
  8
L3
 10
-53.99999999999995
 20
-54.999999999999943
 30
0.0
 40
4.7999999999999989
 50
180.0
 51
269.99999999999989
  0
ARC
  5
BA
  8
L3
 10
-53.99999999999995
 20
-54.999999999999943
 30
0.0
 40
4.0
 50
270.0
 51
74.982549789498009
  0
ARC
  5
BB
  8
L3
 10
-52.885813158435148
 20
-50.846858095117739
 30
0.0
 40
0.3
 50
90.000000000000057
 51
254.98254978949839
  0
ARC
  5
BC
  8
L3
 10
-55.114186841564781
 20
-50.846858095117739
 30
0.0
 40
0.3
 50
285.01745021050152
 51
89.999999999999943
  0
ARC
  5
BD
  8
L3
 10
-54.0
 20
-54.999999999999943
 30
0.0
 40
4.0
 50
105.01745021050191
 51
270.0
  0
ARC
  5
BE
  8
L3
 10
58.300000000000011
 20
-48.635712477115391
 30
0.0
 40
0.5
 50
0.0
 51
154.79123470324481
  0
ARC
  5
BF
  8
L3
 10
38.73581221007327
 20
-59.263487360601879
 30
0.0
 40
0.5693979990455352
 50
141.0785664672616
 51
250.43212525150039
  0
LINE
  5
C0
  8
L3
 10
58.800000000000011
 20
-54.999999999999943
 30
0.0
 11
58.800000000000011
 21
-48.635712477115391
 31
0.0
  0
ARC
  5
C1
  8
L3
 10
54.0
 20
-54.999999999999943
 30
0.0
 40
4.7999999999999989
 50
270.0
 51
0.000000000000007
  0
LINE
  5
C2
  8
L3
 10
54.0
 20
-59.799999999999791
 30
0.0
 11
38.545107545517851
 21
-59.799999999999933
 31
0.0
  0
ARC
  5
C3
  8
L3
 10
54.00000000000005
 20
-54.999999999999943
 30
0.0
 40
4.0
 50
270.0
 51
74.982549789497995
  0
ARC
  5
C4
  8
L3
 10
55.114186841564852
 20
-50.846858095117739
 30
0.0
 40
0.3
 50
90.000000000000057
 51
254.98254978949839
  0
CIRCLE
  5
C5
  8
L3
 10
54.0
 20
-54.999999999999943
 30
0.0
 40
3.0
  0
CIRCLE
  5
C6
  8
L3
 10
-53.999999999999972
 20
-55.000000000000057
 30
0.0
 40
3.0
  0
CIRCLE
  5
C7
  8
L3
 10
-53.999999999999972
 20
55.000000000000057
 30
0.0
 40
3.0
  0
CIRCLE
  5
C8
  8
L3
 10
54.0
 20
54.999999999999943
 30
0.0
 40
3.0
  0
ARC
  5
104
  8
L1
 10
43.346858095117682
 20
-53.346858095117653
 30
0.0
 40
3.9825462644182772
 50
89.999999999999659
 51
180.0
  0
ARC
  5
105
  8
L3
 10
43.346858095117682
 20
-53.346858095117653
 30
0.0
 40
3.152653961416819
 50
89.999999999999659
 51
180.0
  0
ARC
  5
106
  8
L3
 10
43.346858095117682
 20
-53.346858095117653
 30
0.0
 40
2.7999999999999989
 50
89.999999999999659
 51
180.0
  0
CIRCLE
  5
107
  8
L3
 10
45.0
 20
-55.000000000000057
 30
0.0
 40
2.25
  0
LINE
  5
108
  8
L3
 10
49.610880745352908
 20
-50.846858095117618
 30
0.0
 11
49.610880745352908
 21
-59.499999999999829
 31
0.0
  0
LINE
  5
10A
  8
L3
 10
45.0
 20
-50.750000000000057
 30
0.0
 11
45.0
 21
-59.250000000000057
 31
0.0
  0
CIRCLE
  5
10B
  8
L3
 10
54.0
 20
-55.000000000000057
 30
0.0
 40
2.0499999999999989
  0
CIRCLE
  5
10C
  8
L3
 10
54.0
 20
-55.000000000000057
 30
0.0
 40
1.5
  0
ARC
  5
10D
  8
L1
 10
54.0
 20
-54.999999999999943
 30
0.0
 40
6.0
 50
270.0
 51
0.000000000000007
  0
LINE
  5
10E
  8
L3
 10
54.0
 20
-50.499999999999943
 30
0.0
 11
54.0
 21
-59.499999999999943
 31
0.0
  0
LINE
  5
110
  8
L1
 10
39.364311830699307
 20
-53.346858095117653
 30
0.0
 11
39.364311830699307
 21
-55.499999999999893
 31
0.0
  0
LINE
  5
111
  8
L3
 10
40.19420413370085
 20
-53.346858095117653
 30
0.0
 11
40.19420413370085
 21
-55.499999999999893
 31
0.0
  0
LINE
  5
112
  8
L3
 10
40.546858095117607
 20
-53.346858095117653
 30
0.0
 11
40.546858095117607
 21
-55.499999999999822
 31
0.0
  0
LINE
  5
113
  8
L1
 10
54.499999999999773
 20
-49.364311830699357
 30
0.0
 11
43.346858095117682
 21
-49.364311830699357
 31
0.0
  0
LINE
  5
114
  8
L3
 10
54.499999999999773
 20
-50.194204133700786
 30
0.0
 11
43.346858095117682
 21
-50.194204133700822
 31
0.0
  0
LINE
  5
115
  8
L3
 10
54.499999999999773
 20
-50.546858095117727
 30
0.0
 11
43.346858095117682
 21
-50.546858095117642
 31
0.0
  0
ARC
  5
116
  8
L3
 10
36.846858095117568
 20
-55.499999999999822
 30
0.0
 40
3.7000000000000002
 50
270.0
 51
0.000000000000007
  0
ARC
  5
117
  8
L3
 10
54.499999999999773
 20
-46.846858095117739
 30
0.0
 40
3.7000000000000002
 50
269.99999999999977
 51
0.0
  0
ARC
  5
118
  8
L3
 10
36.846858095117568
 20
-55.499999999999822
 30
0.0
 40
3.3473460385831229
 50
270.0
 51
0.000000000000007
  0
ARC
  5
119
  8
L3
 10
54.499999999999773
 20
-46.846858095117739
 30
0.0
 40
3.3473460385831229
 50
269.99999999999977
 51
0.000000000000007
  0
ARC
  5
11A
  8
L1
 10
36.846858095117568
 20
-55.499999999999822
 30
0.0
 40
2.5174537355816371
 50
270.0
 51
0.000000000000007
  0
ARC
  5
11B
  8
L1
 10
54.499999999999773
 20
-46.846858095117739
 30
0.0
 40
2.5174537355816371
 50
269.99999999999977
 51
0.000000000000007
  0
ARC
  5
11C
  8
L3
 10
49.310880745352733
 20
-59.499999999999829
 30
0.0
 40
0.3
 50
270.00000000000023
 51
0.000000000000007
  0
ARC
  5
11D
  8
L3
 10
49.310880745352733
 20
-50.846858095117568
 30
0.0
 40
0.3
 50
0.000000000000014
 51
89.999999999999687
  0
ARC
  5
11E
  8
L3
 10
54.0
 20
-54.999999999999943
 30
0.0
 40
4.0
 50
105.01745021050201
 51
270.0
  0
ARC
  5
11F
  8
L3
 10
52.885813158435212
 20
-50.846858095117739
 30
0.0
 40
0.3
 50
285.01745021050152
 51
89.999999999999957
  0
ARC
  5
120
  8
L3
 10
-49.310880745352712
 20
-50.846858095117568
 30
0.0
 40
0.3
 50
90.000000000000256
 51
179.99999999999989
  0
ARC
  5
121
  8
L1
 10
-54.499999999999737
 20
-46.846858095117739
 30
0.0
 40
2.5174537355816371
 50
180.0
 51
270.00000000000023
  0
ARC
  5
122
  8
L1
 10
-36.84685809511754
 20
-55.499999999999822
 30
0.0
 40
2.5174537355816371
 50
180.0
 51
270.0
  0
ARC
  5
123
  8
L3
 10
-54.499999999999737
 20
-46.846858095117739
 30
0.0
 40
3.3473460385831229
 50
180.0
 51
270.00000000000023
  0
ARC
  5
124
  8
L3
 10
-36.84685809511754
 20
-55.499999999999822
 30
0.0
 40
3.3473460385831229
 50
180.0
 51
270.0
  0
ARC
  5
125
  8
L3
 10
-54.499999999999737
 20
-46.846858095117739
 30
0.0
 40
3.7000000000000002
 50
180.0
 51
270.00000000000023
  0
ARC
  5
126
  8
L3
 10
-36.84685809511754
 20
-55.499999999999822
 30
0.0
 40
3.7000000000000002
 50
180.0
 51
270.0
  0
LINE
  5
127
  8
L3
 10
-54.499999999999737
 20
-50.546858095117727
 30
0.0
 11
-43.346858095117618
 21
-50.546858095117642
 31
0.0
  0
LINE
  5
128
  8
L3
 10
-54.499999999999737
 20
-50.194204133700786
 30
0.0
 11
-43.346858095117618
 21
-50.194204133700822
 31
0.0
  0
LINE
  5
129
  8
L1
 10
-54.499999999999737
 20
-49.364311830699357
 30
0.0
 11
-43.346858095117618
 21
-49.364311830699357
 31
0.0
  0
LINE
  5
12A
  8
L3
 10
-40.546858095117592
 20
-53.346858095117653
 30
0.0
 11
-40.546858095117592
 21
-55.499999999999822
 31
0.0
  0
LINE
  5
12B
  8
L3
 10
-40.194204133700822
 20
-53.346858095117653
 30
0.0
 11
-40.194204133700822
 21
-55.499999999999893
 31
0.0
  0
LINE
  5
12C
  8
L1
 10
-39.364311830699272
 20
-53.346858095117653
 30
0.0
 11
-39.364311830699272
 21
-55.499999999999893
 31
0.0
  0
LINE
  5
12E
  8
L3
 10
-53.999999999999972
 20
-50.499999999999943
 30
0.0
 11
-53.999999999999972
 21
-59.499999999999943
 31
0.0
  0
ARC
  5
12F
  8
L1
 10
-53.999999999999972
 20
-54.999999999999943
 30
0.0
 40
6.0
 50
180.0
 51
270.0
  0
CIRCLE
  5
130
  8
L3
 10
-53.999999999999972
 20
-55.000000000000057
 30
0.0
 40
1.5
  0
CIRCLE
  5
131
  8
L3
 10
-53.999999999999972
 20
-55.000000000000057
 30
0.0
 40
2.0499999999999989
  0
LINE
  5
132
  8
L3
 10
-44.999999999999972
 20
-50.750000000000057
 30
0.0
 11
-44.999999999999972
 21
-59.250000000000057
 31
0.0
  0
LINE
  5
134
  8
L3
 10
-49.610880745352887
 20
-50.846858095117618
 30
0.0
 11
-49.610880745352887
 21
-59.499999999999829
 31
0.0
  0
CIRCLE
  5
135
  8
L3
 10
-44.999999999999972
 20
-55.000000000000057
 30
0.0
 40
2.25
  0
ARC
  5
136
  8
L3
 10
-43.346858095117597
 20
-53.346858095117653
 30
0.0
 40
2.7999999999999989
 50
0.0
 51
90.000000000000313
  0
ARC
  5
137
  8
L3
 10
-43.346858095117597
 20
-53.346858095117653
 30
0.0
 40
3.152653961416819
 50
0.0
 51
90.000000000000313
  0
ARC
  5
138
  8
L1
 10
-43.346858095117597
 20
-53.346858095117653
 30
0.0
 40
3.9825462644182772
 50
0.0
 51
90.000000000000313
  0
ARC
  5
139
  8
L3
 10
49.310880745352733
 20
50.846858095117568
 30
0.0
 40
0.3
 50
270.00000000000023
 51
0.0
  0
ARC
  5
13A
  8
L1
 10
54.499999999999773
 20
46.846858095117739
 30
0.0
 40
2.5174537355816371
 50
0.000000000000007
 51
90.000000000000185
  0
ARC
  5
13B
  8
L1
 10
36.846858095117568
 20
55.499999999999822
 30
0.0
 40
2.5174537355816371
 50
0.000000000000007
 51
90.0
  0
ARC
  5
13C
  8
L3
 10
54.499999999999773
 20
46.846858095117739
 30
0.0
 40
3.3473460385831229
 50
0.000000000000007
 51
90.000000000000185
  0
ARC
  5
13D
  8
L3
 10
36.846858095117568
 20
55.499999999999822
 30
0.0
 40
3.3473460385831229
 50
0.000000000000007
 51
90.0
  0
ARC
  5
13E
  8
L3
 10
54.499999999999773
 20
46.846858095117739
 30
0.0
 40
3.7000000000000002
 50
0.000000000000007
 51
90.000000000000185
  0
ARC
  5
13F
  8
L3
 10
36.846858095117568
 20
55.499999999999822
 30
0.0
 40
3.7000000000000002
 50
0.000000000000007
 51
90.0
  0
LINE
  5
140
  8
L3
 10
54.499999999999773
 20
50.546858095117727
 30
0.0
 11
43.346858095117682
 21
50.546858095117642
 31
0.0
  0
LINE
  5
141
  8
L3
 10
54.499999999999773
 20
50.194204133700786
 30
0.0
 11
43.346858095117682
 21
50.194204133700822
 31
0.0
  0
LINE
  5
142
  8
L1
 10
54.499999999999773
 20
49.364311830699357
 30
0.0
 11
43.346858095117682
 21
49.364311830699357
 31
0.0
  0
LINE
  5
143
  8
L3
 10
40.546858095117607
 20
53.346858095117653
 30
0.0
 11
40.546858095117607
 21
55.499999999999822
 31
0.0
  0
LINE
  5
144
  8
L3
 10
40.19420413370085
 20
53.346858095117653
 30
0.0
 11
40.19420413370085
 21
55.499999999999893
 31
0.0
  0
LINE
  5
145
  8
L1
 10
39.364311830699307
 20
53.346858095117653
 30
0.0
 11
39.364311830699307
 21
55.499999999999893
 31
0.0
  0
LINE
  5
147
  8
L3
 10
54.0
 20
50.499999999999943
 30
0.0
 11
54.0
 21
59.499999999999943
 31
0.0
  0
ARC
  5
148
  8
L1
 10
54.0
 20
54.999999999999943
 30
0.0
 40
6.0
 50
0.000000000000007
 51
89.999999999999986
  0
CIRCLE
  5
149
  8
L3
 10
54.0
 20
55.000000000000057
 30
0.0
 40
1.5
  0
CIRCLE
  5
14A
  8
L3
 10
54.0
 20
55.000000000000057
 30
0.0
 40
2.0499999999999989
  0
LINE
  5
14B
  8
L3
 10
45.0
 20
50.750000000000057
 30
0.0
 11
45.0
 21
59.250000000000057
 31
0.0
  0
LINE
  5
14C
  8
L3
 10
59.809951431812813
 20
55.000000000000057
 30
0.0
 11
40.31000311365505
 21
55.000000000000057
 31
0.0
  0
LINE
  5
14D
  8
L3
 10
49.610880745352908
 20
50.846858095117618
 30
0.0
 11
49.610880745352908
 21
59.499999999999829
 31
0.0
  0
CIRCLE
  5
14E
  8
L3
 10
45.0
 20
55.000000000000057
 30
0.0
 40
2.25
  0
ARC
  5
14F
  8
L3
 10
43.346858095117682
 20
53.346858095117653
 30
0.0
 40
2.7999999999999989
 50
180.0
 51
270.00000000000028
  0
ARC
  5
150
  8
L3
 10
43.346858095117682
 20
53.346858095117653
 30
0.0
 40
3.152653961416819
 50
180.0
 51
270.00000000000028
  0
ARC
  5
151
  8
L1
 10
43.346858095117682
 20
53.346858095117653
 30
0.0
 40
3.9825462644182772
 50
180.0
 51
270.00000000000028
  0
ARC
  5
152
  8
L1
 10
-43.346858095117597
 20
53.346858095117653
 30
0.0
 40
3.9825462644182772
 50
269.99999999999972
 51
0.0
  0
ARC
  5
153
  8
L3
 10
-43.346858095117597
 20
53.346858095117653
 30
0.0
 40
3.152653961416819
 50
269.99999999999972
 51
0.0
  0
ARC
  5
154
  8
L3
 10
-43.346858095117597
 20
53.346858095117653
 30
0.0
 40
2.7999999999999989
 50
269.99999999999972
 51
0.0
  0
CIRCLE
  5
155
  8
L1
 10
-19.999999999999972
 20
50.0
 30
0.0
 40
2.0
  0
CIRCLE
  5
156
  8
L1
 10
-19.999999999999972
 20
50.0
 30
0.0
 40
2.25
  0
CIRCLE
  5
157
  8
L1
 10
-19.999999999999972
 20
50.0
 30
0.0
 40
4.0
  0
LINE
  5
158
  8
L6
 10
-19.999999999999972
 20
-56.465426428253458
 30
0.0
 11
-19.999999999999972
 21
-45.999999999999993
 31
0.0
  0
LINE
  5
159
  8
L6
 10
-27.20679017866226
 20
49.999999999999943
 30
0.0
 11
25.770269702145811
 21
50.000000000000078
 31
0.0
  0
CIRCLE
  5
15A
  8
L1
 10
0.0000000000000284
 20
50.0
 30
0.0
 40
2.0
  0
CIRCLE
  5
15B
  8
L1
 10
0.0000000000000284
 20
50.0
 30
0.0
 40
2.25
  0
CIRCLE
  5
15C
  8
L1
 10
0.0000000000000284
 20
50.0
 30
0.0
 40
4.0
  0
CIRCLE
  5
15E
  8
L1
 10
20.0
 20
50.0
 30
0.0
 40
2.0
  0
CIRCLE
  5
15F
  8
L1
 10
20.0
 20
50.0
 30
0.0
 40
2.25
  0
CIRCLE
  5
160
  8
L1
 10
20.0
 20
50.0
 30
0.0
 40
4.0
  0
LINE
  5
161
  8
L6
 10
20.0
 20
-56.465426428253458
 30
0.0
 11
20.0
 21
-45.999999999999993
 31
0.0
  0
CIRCLE
  5
162
  8
L1
 10
-48.999999999999972
 20
41.749999999999993
 30
0.0
 40
2.0
  0
CIRCLE
  5
163
  8
L1
 10
-48.999999999999972
 20
41.749999999999993
 30
0.0
 40
2.25
  0
CIRCLE
  5
164
  8
L1
 10
-48.999999999999972
 20
41.749999999999993
 30
0.0
 40
4.0
  0
LINE
  5
165
  8
L6
 10
-48.999999999999972
 20
-47.78514160423299
 30
0.0
 11
-48.999999999999957
 21
-35.902370954144651
 31
0.0
  0
CIRCLE
  5
167
  8
L1
 10
-48.999999999999972
 20
0.0
 30
0.0
 40
2.0
  0
CIRCLE
  5
168
  8
L1
 10
-48.999999999999972
 20
0.0
 30
0.0
 40
2.25
  0
CIRCLE
  5
169
  8
L1
 10
-48.999999999999972
 20
0.0
 30
0.0
 40
4.0
  0
CIRCLE
  5
16B
  8
L1
 10
-48.999999999999972
 20
-41.749999999999993
 30
0.0
 40
2.0
  0
CIRCLE
  5
16C
  8
L1
 10
-48.999999999999972
 20
-41.749999999999993
 30
0.0
 40
2.25
  0
CIRCLE
  5
16D
  8
L1
 10
-48.999999999999972
 20
-41.749999999999993
 30
0.0
 40
4.0
  0
LINE
  5
16E
  8
L6
 10
-54.999999999999972
 20
-41.749999999999993
 30
0.0
 11
-43.387727301923171
 21
-41.749999999999993
 31
0.0
  0
CIRCLE
  5
16F
  8
L1
 10
-19.999999999999972
 20
-50.0
 30
0.0
 40
2.0
  0
CIRCLE
  5
170
  8
L1
 10
-19.999999999999972
 20
-50.0
 30
0.0
 40
2.25
  0
CIRCLE
  5
171
  8
L1
 10
-19.999999999999972
 20
-50.0
 30
0.0
 40
4.0
  0
LINE
  5
172
  8
L6
 10
-25.999999999999972
 20
-50.0
 30
0.0
 11
26.07239144830362
 21
-50.0
 31
0.0
  0
CIRCLE
  5
173
  8
L1
 10
0.0000000000000284
 20
-50.0
 30
0.0
 40
2.0
  0
CIRCLE
  5
174
  8
L1
 10
0.0000000000000284
 20
-50.0
 30
0.0
 40
2.25
  0
CIRCLE
  5
175
  8
L1
 10
0.0000000000000284
 20
-50.0
 30
0.0
 40
4.0
  0
CIRCLE
  5
176
  8
L1
 10
20.0
 20
-50.0
 30
0.0
 40
2.0
  0
CIRCLE
  5
177
  8
L1
 10
20.0
 20
-50.0
 30
0.0
 40
2.25
  0
CIRCLE
  5
178
  8
L1
 10
20.0
 20
-50.0
 30
0.0
 40
4.0
  0
CIRCLE
  5
179
  8
L1
 10
49.0
 20
-41.749999999999993
 30
0.0
 40
2.0
  0
CIRCLE
  5
17A
  8
L1
 10
49.0
 20
-41.749999999999993
 30
0.0
 40
2.25
  0
CIRCLE
  5
17B
  8
L1
 10
49.0
 20
-41.749999999999993
 30
0.0
 40
4.0
  0
CIRCLE
  5
17C
  8
L1
 10
49.0
 20
0.0
 30
0.0
 40
2.0
  0
CIRCLE
  5
17D
  8
L1
 10
49.0
 20
0.0
 30
0.0
 40
2.25
  0
CIRCLE
  5
17E
  8
L1
 10
49.0
 20
0.0
 30
0.0
 40
4.0
  0
CIRCLE
  5
17F
  8
L1
 10
49.0
 20
41.749999999999993
 30
0.0
 40
2.0
  0
CIRCLE
  5
180
  8
L1
 10
49.0
 20
41.749999999999993
 30
0.0
 40
2.25
  0
CIRCLE
  5
181
  8
L1
 10
49.0
 20
41.749999999999993
 30
0.0
 40
4.0
  0
LINE
  5
182
  8
L6
 10
49.0
 20
-47.78514160423299
 30
0.0
 11
49.0
 21
-37.308014711560411
 31
0.0
  0
CIRCLE
  5
183
  8
L1
 10
-217.0
 20
-55.000000000000078
 30
0.0
 40
2.25
  0
CIRCLE
  5
184
  8
L1
 10
-307.0
 20
-55.000000000000078
 30
0.0
 40
2.25
  0
CIRCLE
  5
185
  8
L1
 10
-217.0
 20
55.000000000000028
 30
0.0
 40
2.25
  0
CIRCLE
  5
186
  8
L1
 10
-307.0
 20
55.000000000000028
 30
0.0
 40
2.25
  0
CIRCLE
  5
187
  8
L3
 10
-44.999999999999972
 20
55.000000000000057
 30
0.0
 40
2.25
  0
ARC
  5
188
  8
L1
 10
-151.69999999999999
 20
49.942474244347657
 30
0.0
 40
0.3
 50
99.999596239475352
 51
180.0002672128139
  0
LINE
  5
189
  8
L1
 10
-150.0
 20
50.546858095117749
 30
0.0
 11
-151.75209202203899
 21
50.237916998948229
 31
0.0
  0
LINE
  5
18A
  8
L1
 10
-150.0
 20
-60.999999999999908
 30
0.0
 11
-110.9912734645015
 21
-60.659576000838882
 31
0.0
  0
LINE
  5
18B
  8
L1
 10
-150.0
 20
60.999999999999943
 30
0.0
 11
-150.0
 21
-60.999999999999908
 31
0.0
  0
LINE
  5
18C
  8
L1
 10
-150.0
 20
-59.19999999999991
 30
0.0
 11
-151.66945927106659
 21
-58.905629287316998
 31
0.0
  0
ARC
  5
18D
  8
L1
 10
-151.59999999999991
 20
-58.5117061861121
 30
0.0
 40
0.4
 50
180.0
 51
260.00000000000148
  0
ARC
  5
18E
  8
L1
 10
-151.59999999999991
 20
58.511706186112121
 30
0.0
 40
0.4
 50
99.999999999998494
 51
180.0
  0
LINE
  5
18F
  8
L1
 10
-150.0
 20
59.199999999999868
 30
0.0
 11
-151.66945927106659
 21
58.905629287317034
 31
0.0
  0
LINE
  5
190
  8
L1
 10
-152.0
 20
-58.5117061861121
 30
0.0
 11
-152.0
 21
58.511706186112121
 31
0.0
  0
LINE
  5
191
  8
L1
 10
-150.0
 20
60.999999999999943
 30
0.0
 11
-110.9912734645016
 21
60.659576000838847
 31
0.0
  0
LINE
  5
192
  8
L1
 10
-109.9999999999999
 20
-59.659614077774698
 30
0.0
 11
-110.0
 21
59.659614077774741
 31
0.0
  0
LINE
  5
194
  8
L6
 10
-307.0
 20
-50.750000000000092
 30
0.0
 11
-307.0
 21
-59.250000000000028
 31
0.0
  0
LINE
  5
195
  8
L6
 10
-217.0
 20
-50.750000000000092
 30
0.0
 11
-217.0
 21
-59.250000000000028
 31
0.0
  0
LINE
  5
197
  8
L6
 10
-201.12612708504429
 20
55.000000000000028
 30
0.0
 11
-222.0729283758937
 21
55.000000000000028
 31
0.0
  0
LINE
  5
198
  8
L6
 10
-217.0
 20
50.750000000000021
 30
0.0
 11
-217.0
 21
59.250000000000057
 31
0.0
  0
ARC
  5
199
  8
L1
 10
-316.0
 20
55.000000000000028
 30
0.0
 40
3.9999999999990781
 50
90.0
 51
180.0
  0
LINE
  5
19A
  8
L1
 10
-320.0
 20
50.5837997238892
 30
0.0
 11
-320.0
 21
55.000000000000028
 31
0.0
  0
LINE
  5
19B
  8
L1
 10
-312.5
 20
51.898538126493207
 30
0.0
 11
-312.5
 21
58.699999999999989
 31
0.0
  0
LINE
  5
19C
  8
L1
 10
-316.0
 20
59.00000000000005
 30
0.0
 11
-312.80000000000001
 21
59.00000000000005
 31
0.0
  0
LINE
  5
19E
  8
L6
 10
-316.0
 20
50.499999999999908
 30
0.0
 11
-316.0
 21
59.499999999999943
 31
0.0
  0
ARC
  5
19F
  8
L1
 10
-316.0
 20
54.999999999999922
 30
0.0
 40
6.0
 50
90.000000000000028
 51
180.0
  0
LINE
  5
1A0
  8
L1
 10
-322.0
 20
-54.999999999999972
 30
0.0
 11
-322.0
 21
54.999999999999922
 31
0.0
  0
LINE
  5
1A1
  8
L1
 10
-202.0
 20
-54.999999999999972
 30
0.0
 11
-202.0
 21
54.999999999999972
 31
0.0
  0
LINE
  5
1A2
  8
L1
 10
-316.0
 20
-60.999999999999972
 30
0.0
 11
-208.0
 21
-60.999999999999972
 31
0.0
  0
LINE
  5
1A3
  8
L1
 10
-316.0
 20
60.999999999999943
 30
0.0
 11
-208.0
 21
60.999999999999943
 31
0.0
  0
CIRCLE
  5
1A4
  8
L1
 10
-316.0
 20
55.000000000000028
 30
0.0
 40
1.5
  0
LINE
  5
1A5
  8
L6
 10
-307.0
 20
50.750000000000021
 30
0.0
 11
-307.0
 21
59.250000000000057
 31
0.0
  0
LINE
  5
1A7
  8
L3
 10
-49.610880745352887
 20
50.846858095117618
 30
0.0
 11
-49.610880745352887
 21
59.499999999999829
 31
0.0
  0
CIRCLE
  5
1A9
  8
L3
 10
-53.999999999999972
 20
55.000000000000057
 30
0.0
 40
2.0499999999999989
  0
CIRCLE
  5
1AA
  8
L3
 10
-53.999999999999972
 20
55.000000000000057
 30
0.0
 40
1.5
  0
LINE
  5
1AB
  8
L2
 10
113.4956367322509
 20
49.028289343094201
 30
0.0
 11
152.0
 21
49.364311830699222
 31
0.0
  0
LINE
  5
1AC
  8
L1
 10
109.9999999999998
 20
-59.659614077774819
 30
0.0
 11
110.0000000000001
 21
59.65961407777462
 31
0.0
  0
LINE
  5
1AD
  8
L1
 10
150.0
 20
60.999999999999829
 30
0.0
 11
110.9912734645016
 21
60.65957600083874
 31
0.0
  0
LINE
  5
1AE
  8
L2
 10
113.0000000000001
 20
-48.52830838156234
 30
0.0
 11
113.0000000000001
 21
-6.0
 31
0.0
  0
LINE
  5
1B0
  8
L1
 10
152.0
 20
-58.5117061861122
 30
0.0
 11
152.0
 21
58.511706186112008
 31
0.0
  0
LINE
  5
1B2
  8
L1
 10
150.0
 20
59.199999999999761
 30
0.0
 11
151.6694592710667
 21
58.905629287316913
 31
0.0
  0
ARC
  5
1B3
  8
L1
 10
151.59999999999991
 20
58.511706186112008
 30
0.0
 40
0.4
 50
0.0
 51
80.000000000001492
  0
ARC
  5
1B4
  8
L1
 10
151.59999999999991
 20
-58.5117061861122
 30
0.0
 40
0.4
 50
279.99999999999852
 51
0.0
  0
LINE
  5
1B5
  8
L1
 10
150.0
 20
-59.20000000000001
 30
0.0
 11
151.6694592710667
 21
-58.905629287317112
 31
0.0
  0
LINE
  5
1B8
  8
L1
 10
150.0
 20
-61.000000000000028
 30
0.0
 11
110.9912734645014
 21
-60.659576000838989
 31
0.0
  0
LINE
  5
1B9
  8
L1
 10
57.017453735581512
 20
-46.846858095117682
 30
0.0
 11
57.017453735581512
 21
46.846858095117739
 31
0.0
  0
LINE
  5
1BA
  8
L1
 10
-36.84685809511754
 20
-58.017453735581512
 30
0.0
 11
36.846858095117788
 21
-58.017453735581512
 31
0.0
  0
LINE
  5
1BB
  8
L1
 10
-57.017453735581483
 20
-46.846858095117682
 30
0.0
 11
-57.017453735581483
 21
46.846858095117739
 31
0.0
  0
LINE
  5
1BC
  8
L1
 10
-36.84685809511776
 20
58.017453735581448
 30
0.0
 11
36.846858095117788
 21
58.017453735581512
 31
0.0
  0
LINE
  5
1BD
  8
L3
 10
58.200000000000038
 20
-46.846858095117739
 30
0.0
 11
58.200000000000038
 21
46.846858095117739
 31
0.0
  0
LINE
  5
1BE
  8
L3
 10
-36.84685809511754
 20
-59.199999999999868
 30
0.0
 11
36.846858095117788
 21
-59.199999999999868
 31
0.0
  0
LINE
  5
1BF
  8
L3
 10
-58.199999999999783
 20
-46.846858095117682
 30
0.0
 11
-58.199999999999783
 21
46.846858095117739
 31
0.0
  0
LINE
  5
1C0
  8
L3
 10
-36.84685809511754
 20
59.199999999999818
 30
0.0
 11
36.846858095117788
 21
59.199999999999868
 31
0.0
  0
LINE
  5
1C1
  8
L3
 10
57.847346038583048
 20
-46.846858095117682
 30
0.0
 11
57.847346038583048
 21
46.846858095117739
 31
0.0
  0
LINE
  5
1C2
  8
L3
 10
-36.84685809511754
 20
-58.847346038582998
 30
0.0
 11
36.846858095117788
 21
-58.847346038582998
 31
0.0
  0
LINE
  5
1C3
  8
L3
 10
-57.847346038583026
 20
-46.846858095117682
 30
0.0
 11
-57.847346038583026
 21
46.846858095117739
 31
0.0
  0
LINE
  5
1C4
  8
L3
 10
-36.84685809511776
 20
58.847346038582941
 30
0.0
 11
36.846858095117788
 21
58.847346038582998
 31
0.0
  0
LINE
  5
1C5
  8
L1
 10
-53.999999999999972
 20
60.999999999999943
 30
0.0
 11
54.0
 21
61.0
 31
0.0
  0
LINE
  5
1C6
  8
L1
 10
-53.999999999999972
 20
-60.999999999999943
 30
0.0
 11
54.0
 21
-60.999999999999943
 31
0.0
  0
LINE
  5
1C7
  8
L1
 10
60.0
 20
-54.999999999999943
 30
0.0
 11
60.0
 21
55.0
 31
0.0
  0
LINE
  5
1C8
  8
L1
 10
-59.999999999999972
 20
-54.999999999999943
 30
0.0
 11
-59.999999999999972
 21
54.999999999999943
 31
0.0
  0
ARC
  5
1C9
  8
L1
 10
-53.999999999999972
 20
54.999999999999943
 30
0.0
 40
6.0
 50
90.000000000000028
 51
180.0
  0
LINE
  5
1CA
  8
L3
 10
-53.999999999999972
 20
50.499999999999943
 30
0.0
 11
-53.999999999999972
 21
59.499999999999943
 31
0.0
  0
LINE
  5
1CC
  8
L1
 10
-39.364311830699272
 20
53.346858095117653
 30
0.0
 11
-39.364311830699272
 21
55.499999999999893
 31
0.0
  0
LINE
  5
1CD
  8
L3
 10
-40.194204133700822
 20
53.346858095117653
 30
0.0
 11
-40.194204133700822
 21
55.499999999999893
 31
0.0
  0
LINE
  5
1CE
  8
L3
 10
-40.546858095117592
 20
53.346858095117653
 30
0.0
 11
-40.546858095117592
 21
55.499999999999822
 31
0.0
  0
LINE
  5
1CF
  8
L1
 10
-54.499999999999737
 20
49.364311830699357
 30
0.0
 11
-43.346858095117618
 21
49.364311830699357
 31
0.0
  0
LINE
  5
1D0
  8
L3
 10
-54.499999999999737
 20
50.194204133700786
 30
0.0
 11
-43.346858095117618
 21
50.194204133700822
 31
0.0
  0
LINE
  5
1D1
  8
L3
 10
-54.499999999999737
 20
50.546858095117727
 30
0.0
 11
-43.346858095117618
 21
50.546858095117642
 31
0.0
  0
ARC
  5
1D2
  8
L3
 10
-36.84685809511754
 20
55.499999999999822
 30
0.0
 40
3.7000000000000002
 50
90.0
 51
180.0
  0
ARC
  5
1D3
  8
L3
 10
-54.499999999999737
 20
46.846858095117739
 30
0.0
 40
3.7000000000000002
 50
89.999999999999815
 51
180.0
  0
ARC
  5
1D4
  8
L3
 10
-36.84685809511754
 20
55.499999999999822
 30
0.0
 40
3.3473460385831229
 50
90.0
 51
180.0
  0
ARC
  5
1D5
  8
L3
 10
-54.499999999999737
 20
46.846858095117739
 30
0.0
 40
3.3473460385831229
 50
89.999999999999815
 51
180.0
  0
ARC
  5
1D6
  8
L1
 10
-36.84685809511754
 20
55.499999999999822
 30
0.0
 40
2.5174537355816371
 50
90.0
 51
180.0
  0
ARC
  5
1D7
  8
L1
 10
-54.499999999999737
 20
46.846858095117739
 30
0.0
 40
2.5174537355816371
 50
89.999999999999815
 51
180.0
  0
LINE
  5
1D8
  8
L1
 10
-150.0
 20
-50.546858095117699
 30
0.0
 11
-151.75209202203899
 21
-50.23791699894818
 31
0.0
  0
ARC
  5
1D9
  8
L1
 10
-151.69999999999999
 20
-49.942474244347601
 30
0.0
 40
0.3
 50
179.99973278718599
 51
260.00040376052459
  0
LINE
  5
1DA
  8
L2
 10
113.495636732251
 20
-49.028289343094428
 30
0.0
 11
152.0
 21
-49.364311830699393
 31
0.0
  0
LINE
  5
1DB
  8
L1
 10
-316.49999999999977
 20
51.598538126493253
 30
0.0
 11
-312.80000000000001
 21
51.598538126493203
 31
0.0
  0
ARC
  5
1DC
  8
L1
 10
-316.49999999999977
 20
47.34685809511771
 30
0.0
 40
4.2516800313755541
 50
89.999999999999844
 51
134.671182946513
  0
ARC
  5
1DD
  8
L1
 10
-319.69999999999999
 20
50.5837997238892
 30
0.0
 40
0.3
 50
180.0
 51
314.67118294651789
  0
ARC
  5
1DE
  8
L1
 10
-204.2999999999999
 20
50.5837997238892
 30
0.0
 40
0.3
 50
225.328817053482
 51
0.000000000000007
  0
ARC
  5
1DF
  8
L1
 10
-207.5000000000002
 20
47.34685809511771
 30
0.0
 40
4.2516800313755541
 50
45.328817053486937
 51
90.000000000000171
  0
LINE
  5
1E0
  8
L1
 10
-207.5000000000002
 20
51.598538126493253
 30
0.0
 11
-211.19999999999999
 21
51.598538126493203
 31
0.0
  0
CIRCLE
  5
1E1
  8
L1
 10
-208.0
 20
55.000000000000028
 30
0.0
 40
1.5
  0
ARC
  5
1E2
  8
L1
 10
-208.0
 20
54.999999999999922
 30
0.0
 40
6.0
 50
0.000000000000007
 51
89.999999999999986
  0
LINE
  5
1E3
  8
L6
 10
-208.0
 20
50.499999999999908
 30
0.0
 11
-208.0
 21
59.499999999999943
 31
0.0
  0
LINE
  5
1E5
  8
L1
 10
-208.0
 20
59.00000000000005
 30
0.0
 11
-211.19999999999999
 21
59.00000000000005
 31
0.0
  0
LINE
  5
1E6
  8
L1
 10
-211.5
 20
51.898538126493207
 30
0.0
 11
-211.5
 21
58.699999999999989
 31
0.0
  0
LINE
  5
1E7
  8
L1
 10
-204.0
 20
50.5837997238892
 30
0.0
 11
-204.0
 21
55.000000000000028
 31
0.0
  0
ARC
  5
1E8
  8
L1
 10
-208.0
 20
55.000000000000028
 30
0.0
 40
3.9999999999990781
 50
0.000000000000007
 51
90.0
  0
ARC
  5
1E9
  8
L1
 10
-319.69999999999999
 20
-50.5837997238892
 30
0.0
 40
0.3
 50
45.328817053482041
 51
180.0
  0
ARC
  5
1EA
  8
L1
 10
-316.49999999999977
 20
-47.34685809511771
 30
0.0
 40
4.2516800313755541
 50
225.328817053487
 51
270.00000000000023
  0
LINE
  5
1EB
  8
L1
 10
-316.49999999999977
 20
-51.598538126493253
 30
0.0
 11
-312.80000000000001
 21
-51.598538126493203
 31
0.0
  0
CIRCLE
  5
1EC
  8
L1
 10
-316.0
 20
-55.000000000000028
 30
0.0
 40
1.5
  0
ARC
  5
1ED
  8
L1
 10
-316.0
 20
-54.999999999999922
 30
0.0
 40
6.0
 50
180.0
 51
270.0
  0
LINE
  5
1EE
  8
L6
 10
-316.0
 20
-50.499999999999908
 30
0.0
 11
-316.0
 21
-59.499999999999922
 31
0.0
  0
LINE
  5
1F0
  8
L1
 10
-316.0
 20
-59.000000000000028
 30
0.0
 11
-312.80000000000001
 21
-59.000000000000028
 31
0.0
  0
LINE
  5
1F1
  8
L1
 10
-312.5
 20
-51.898538126493207
 30
0.0
 11
-312.5
 21
-58.700000000000081
 31
0.0
  0
LINE
  5
1F2
  8
L1
 10
-320.0
 20
-50.5837997238892
 30
0.0
 11
-320.0
 21
-55.000000000000028
 31
0.0
  0
ARC
  5
1F3
  8
L1
 10
-316.0
 20
-55.000000000000028
 30
0.0
 40
3.9999999999990781
 50
180.0
 51
270.0
  0
ARC
  5
1F4
  8
L1
 10
-208.0
 20
-55.000000000000028
 30
0.0
 40
3.9999999999990781
 50
270.0
 51
0.000000000000007
  0
LINE
  5
1F5
  8
L1
 10
-204.0
 20
-50.5837997238892
 30
0.0
 11
-204.0
 21
-55.000000000000028
 31
0.0
  0
LINE
  5
1F6
  8
L1
 10
-211.5
 20
-51.898538126493207
 30
0.0
 11
-211.5
 21
-58.700000000000081
 31
0.0
  0
LINE
  5
1F7
  8
L1
 10
-208.0
 20
-59.000000000000028
 30
0.0
 11
-211.19999999999999
 21
-59.000000000000028
 31
0.0
  0
LINE
  5
1F9
  8
L6
 10
-208.0
 20
-50.499999999999908
 30
0.0
 11
-208.0
 21
-59.499999999999922
 31
0.0
  0
ARC
  5
1FA
  8
L1
 10
-208.0
 20
-54.999999999999922
 30
0.0
 40
6.0
 50
270.0
 51
0.000000000000007
  0
CIRCLE
  5
1FB
  8
L1
 10
-208.0
 20
-55.000000000000028
 30
0.0
 40
1.5
  0
LINE
  5
1FC
  8
L1
 10
-207.5000000000002
 20
-51.598538126493253
 30
0.0
 11
-211.20000000000019
 21
-51.598538126493253
 31
0.0
  0
ARC
  5
1FD
  8
L1
 10
-207.5000000000002
 20
-47.34685809511771
 30
0.0
 40
4.2516800313755541
 50
269.99999999999977
 51
314.67118294651311
  0
ARC
  5
1FE
  8
L1
 10
-204.2999999999999
 20
-50.5837997238892
 30
0.0
 40
0.3
 50
0.000000000000007
 51
134.67118294651789
  0
ARC
  5
1FF
  8
L1
 10
-312.80000000000001
 20
51.898538126493207
 30
0.0
 40
0.3
 50
269.9999999999992
 51
0.0
  0
ARC
  5
200
  8
L1
 10
-312.80000000000001
 20
58.699999999999989
 30
0.0
 40
0.3
 50
0.0
 51
90.0
  0
ARC
  5
201
  8
L1
 10
-211.19999999999999
 20
51.898538126493207
 30
0.0
 40
0.3
 50
180.0
 51
270.00000000000102
  0
ARC
  5
202
  8
L1
 10
-211.19999999999999
 20
58.699999999999989
 30
0.0
 40
0.3
 50
90.0
 51
180.0
  0
ARC
  5
203
  8
L1
 10
-312.80000000000001
 20
-58.700000000000081
 30
0.0
 40
0.3
 50
270.0
 51
0.0
  0
ARC
  5
204
  8
L1
 10
-312.80000000000001
 20
-51.898538126493207
 30
0.0
 40
0.3
 50
0.0
 51
90.000000000000753
  0
ARC
  5
205
  8
L1
 10
-211.20000000000019
 20
-51.898538126493207
 30
0.0
 40
0.3
 50
89.999999999999233
 51
180.0
  0
ARC
  5
206
  8
L1
 10
-211.19999999999999
 20
-58.700000000000081
 30
0.0
 40
0.3
 50
180.00000000000091
 51
270.0
  0
ARC
  5
207
  8
L3
 10
-49.310880745352712
 20
50.846858095117568
 30
0.0
 40
0.3
 50
180.0
 51
269.99999999999972
  0
ARC
  5
208
  8
L1
 10
-111.0
 20
59.659614077774741
 30
0.0
 40
1.0
 50
0.0000000000000509
 51
89.500000000000185
  0
ARC
  5
209
  8
L1
 10
-110.9999999999999
 20
-59.659614077774698
 30
0.0
 40
1.0
 50
270.49999999999977
 51
0.0000000000000509
  0
ARC
  5
20A
  8
L1
 10
111.0
 20
59.65961407777462
 30
0.0
 40
1.0
 50
90.499999999999815
 51
179.9999999999998
  0
ARC
  5
20B
  8
L1
 10
110.9999999999998
 20
-59.659614077774819
 30
0.0
 40
1.0
 50
179.9999999999998
 51
269.50000000000011
  0
ARC
  5
213
  8
L2
 10
113.5000000000001
 20
48.528308381562113
 30
0.0
 40
0.5
 50
90.500000000000014
 51
180.0
  0
ARC
  5
215
  8
L2
 10
113.5000000000001
 20
-48.52830838156234
 30
0.0
 40
0.5
 50
179.99999999999989
 51
269.5
  0
LINE
  5
218
  8
L2
 10
118.2000000000002
 20
3.9999999999999711
 30
0.0
 11
118.2000000000002
 21
-4.0000000000000284
 31
0.0
  0
LINE
  5
219
  8
L2
 10
118.2000000000002
 20
-4.0000000000000284
 30
0.0
 11
113.5442028836932
 21
-4.0812672409584252
 31
0.0
  0
LINE
  5
21A
  8
L2
 10
118.2000000000002
 20
3.9999999999999711
 30
0.0
 11
113.5442028836932
 21
4.0812672409583683
 31
0.0
  0
LINE
  5
228
  8
L1
 10
-57.507339837926757
 20
152.9999999999998
 30
0.0
 11
57.511706186112008
 21
152.9999999999998
 31
0.0
  0
LINE
  5
22D
  8
L2
 10
-3.9999999999998859
 20
119.1999999999999
 30
0.0
 11
4.0000000000000853
 21
119.1999999999999
 31
0.0
  0
ARC
  5
22F
  8
L2
 10
1.4519831879580061
 20
112.6999999999999
 30
0.0
 40
0.5
 50
270.0
 51
359.5
  0
ARC
  5
230
  8
L2
 10
-1.451983187957836
 20
112.6999999999999
 30
0.0
 40
0.5
 50
180.50000000000011
 51
270.0
  0
LINE
  5
231
  8
L2
 10
2.0000000000000848
 20
118.1999999999998
 30
0.0
 11
1.95196414949018
 21
112.6956367322507
 31
0.0
  0
LINE
  5
232
  8
L2
 10
-1.9999999999999141
 20
118.1999999999999
 30
0.0
 11
-1.9519641494900091
 21
112.6956367322507
 31
0.0
  0
LINE
  5
233
  8
L2
 10
-1.451983187957836
 20
112.1999999999999
 30
0.0
 11
1.4519831879580061
 21
112.1999999999999
 31
0.0
  0
LINE
  5
234
  8
L2
 10
2.2500000000000848
 20
119.1999999999999
 30
0.0
 11
2.2412731322093289
 21
118.1999999999999
 31
0.0
  0
LINE
  5
235
  8
L2
 10
-2.2499999999999138
 20
119.1999999999999
 30
0.0
 11
-2.2412731322091579
 21
118.1999999999999
 31
0.0
  0
LINE
  5
236
  8
L2
 10
-2.2412731322091579
 20
118.1999999999999
 30
0.0
 11
2.2412731322093289
 21
118.1999999999998
 31
0.0
  0
LINE
  5
237
  8
L2
 10
4.5821149691853122
 20
113.9999999999998
 30
0.0
 11
38.528308381562397
 21
113.9999999999999
 31
0.0
  0
LINE
  5
238
  8
L2
 10
4.0000000000000853
 20
119.1999999999999
 30
0.0
 11
4.0821911216071101
 21
114.4912737967811
 31
0.0
  0
LINE
  5
239
  8
L2
 10
-3.9999999999999138
 20
119.1999999999999
 30
0.0
 11
-4.0821911216069671
 21
114.4912737967812
 31
0.0
  0
ARC
  5
23B
  8
L1
 10
-57.507339837926757
 20
152.59999999999991
 30
0.0
 40
0.4
 50
90.000000000000028
 51
170.00000000000151
  0
LINE
  5
23C
  8
L1
 10
-58.195633651814632
 20
151.0
 30
0.0
 11
-57.90126293913179
 21
152.66945927106659
 31
0.0
  0
LINE
  5
23D
  8
L2
 10
-39.028289343094372
 20
114.4956367322507
 30
0.0
 11
-39.364311830699222
 21
152.9999999999998
 31
0.0
  0
LINE
  5
23E
  8
L1
 10
-59.999999999999922
 20
150.9999999999998
 30
0.0
 11
-59.65957600083879
 21
111.9912734645014
 31
0.0
  0
LINE
  5
23F
  8
L1
 10
58.199999999998568
 20
151.0000000000073
 30
0.0
 11
-59.999999999999922
 21
150.9999999999998
 31
0.0
  0
LINE
  5
240
  8
L1
 10
58.199999999999868
 20
150.9999999999998
 30
0.0
 11
57.905629287317019
 21
152.6694592710667
 31
0.0
  0
LINE
  5
242
  8
L1
 10
58.199999999999868
 20
150.9999999999998
 30
0.0
 11
59.999999999999829
 21
150.9999999999998
 31
0.0
  0
LINE
  5
243
  8
L2
 10
-38.528308381562283
 20
113.9999999999999
 30
0.0
 11
-4.5821149691851701
 21
113.9999999999998
 31
0.0
  0
LINE
  5
244
  8
L1
 10
59.999999999999829
 20
150.9999999999998
 30
0.0
 11
59.659576000838861
 21
111.9912734645015
 31
0.0
  0
LINE
  5
245
  8
L1
 10
-58.65961407777462
 20
110.9999999999998
 30
0.0
 11
58.65961407777462
 21
111.0
 31
0.0
  0
LINE
  5
246
  8
L2
 10
39.02828934309445
 20
114.4956367322507
 30
0.0
 11
39.364311830699357
 21
152.9999999999998
 31
0.0
  0
ARC
  5
247
  8
L1
 10
57.511706186112008
 20
152.59999999999999
 30
0.0
 40
0.4
 50
10.00000000000003
 51
90.0
  0
ARC
  5
249
  8
L1
 10
-58.65961407777462
 20
111.9999999999998
 30
0.0
 40
1.0
 50
180.49999999999989
 51
270.0
  0
ARC
  5
24A
  8
L1
 10
58.65961407777462
 20
112.0
 30
0.0
 40
1.0
 50
270.0
 51
359.50000000000023
  0
ARC
  5
24B
  8
L2
 10
-4.5821149691851701
 20
114.4999999999998
 30
0.0
 40
0.5
 50
270.0
 51
358.99999999999181
  0
ARC
  5
24C
  8
L2
 10
4.5821149691853122
 20
114.4999999999998
 30
0.0
 40
0.5
 50
181.00000000000821
 51
270.0
  0
ARC
  5
26D
  8
L2
 10
38.528308381562397
 20
114.4999999999998
 30
0.0
 40
0.5
 50
270.0
 51
359.50000000000011
  0
ARC
  5
26E
  8
L2
 10
-38.528308381562283
 20
114.4999999999999
 30
0.0
 40
0.5
 50
180.49999999999969
 51
269.99999999999977
  0
LINE
  5
27B
  8
L6
 10
0.0000000000000284
 20
104.5345737130942
 30
0.0
 11
0.0
 21
158.66674166033209
 31
0.0
  0
LINE
  5
27F
  8
L1
 10
-57.507339837926757
 20
-152.9999999999998
 30
0.0
 11
57.511706186112008
 21
-152.9999999999998
 31
0.0
  0
LINE
  5
280
  8
L1
 10
-58.65961407777462
 20
-110.9999999999998
 30
0.0
 11
58.65961407777462
 21
-111.0
 31
0.0
  0
LINE
  5
281
  8
L6
 10
0.0000000000000284
 20
-104.5345737130942
 30
0.0
 11
0.0
 21
-158.66674166033209
 31
0.0
  0
LINE
  5
287
  8
L1
 10
-59.999999999999922
 20
-150.9999999999998
 30
0.0
 11
-59.65957600083879
 21
-111.9912734645014
 31
0.0
  0
ARC
  5
289
  8
L1
 10
-58.65961407777462
 20
-111.9999999999998
 30
0.0
 40
1.0
 50
89.999999999999943
 51
179.5
  0
LINE
  5
28D
  8
L1
 10
59.999999999999943
 20
-151.00000000000739
 30
0.0
 11
-59.999999999999922
 21
-150.9999999999998
 31
0.0
  0
ARC
  5
28E
  8
L1
 10
-57.507339837926757
 20
-152.59999999999991
 30
0.0
 40
0.4
 50
189.99999999999849
 51
270.0
  0
LINE
  5
28F
  8
L1
 10
-58.195633651814632
 20
-151.0
 30
0.0
 11
-57.90126293913179
 21
-152.66945927106659
 31
0.0
  0
LINE
  5
2B2
  8
L1
 10
59.999999999999829
 20
-150.9999999999998
 30
0.0
 11
59.659576000838861
 21
-111.9912734645015
 31
0.0
  0
ARC
  5
2B3
  8
L1
 10
58.65961407777462
 20
-112.0
 30
0.0
 40
1.0
 50
0.4999999999997654
 51
89.999999999999943
  0
LINE
  5
2B8
  8
L1
 10
58.199999999999868
 20
-150.9999999999998
 30
0.0
 11
57.905629287317019
 21
-152.6694592710667
 31
0.0
  0
ARC
  5
2B9
  8
L1
 10
57.511706186112008
 20
-152.59999999999999
 30
0.0
 40
0.4
 50
270.0
 51
349.99999999999989
  0
LINE
  5
2BA
  8
L6
 10
102.5146755477427
 20
-0.0000000000000853
 30
0.0
 11
160.79697800247069
 21
-0.0000000000000568
 31
0.0
  0
LINE
  5
2BC
  8
L6
 10
-322.87387291495571
 20
55.000000000000028
 30
0.0
 11
-301.9270716241063
 21
55.000000000000028
 31
0.0
  0
LINE
  5
2BD
  8
L6
 10
-322.87387291495571
 20
-55.000000000000078
 30
0.0
 11
-301.9270716241063
 21
-55.000000000000078
 31
0.0
  0
LINE
  5
2BE
  8
L6
 10
-201.12612708504429
 20
-55.000000000000078
 30
0.0
 11
-222.0729283758937
 21
-55.000000000000078
 31
0.0
  0
LINE
  5
2BF
  8
L6
 10
-332.00000006454502
 20
-0.0000000000000284
 30
0.0
 11
-191.99999993545489
 21
-0.0000000000000284
 31
0.0
  0
LINE
  5
2C0
  8
L6
 10
-262.0
 20
70.000000064544963
 30
0.0
 11
-262.0
 21
-70.000000064545048
 31
0.0
  0
LINE
  5
2C1
  8
L6
 10
-70.00000006454502
 20
0.0
 30
0.0
 11
70.00000006454502
 21
0.0
 31
0.0
  0
LINE
  5
2C2
  8
L6
 10
0.0
 20
70.000000064544963
 30
0.0
 11
0.0
 21
-70.00000006454502
 31
0.0
  0
LINE
  5
2C3
  8
L3
 10
-45.0
 20
50.750000000000057
 30
0.0
 11
-45.0
 21
59.250000000000057
 31
0.0
  0
LINE
  5
2C4
  8
L3
 10
-59.809951431812813
 20
55.000000000000057
 30
0.0
 11
-40.31000311365505
 21
55.000000000000057
 31
0.0
  0
LINE
  5
2C5
  8
L3
 10
59.809951431812813
 20
-55.000000000000057
 30
0.0
 11
40.31000311365505
 21
-55.000000000000057
 31
0.0
  0
LINE
  5
2C6
  8
L3
 10
-59.809951431812813
 20
-55.000000000000057
 30
0.0
 11
-40.31000311365505
 21
-55.000000000000057
 31
0.0
  0
LINE
  5
3F8
  8
L6
 10
-102.5146755477427
 20
-0.0000000000000853
 30
0.0
 11
-160.79697800247069
 21
-0.0000000000000568
 31
0.0
  0
LINE
  5
401
  8
L6
 10
-19.999999999999972
 20
45.999999999999993
 30
0.0
 11
-19.999999999999972
 21
56.0
 31
0.0
  0
LINE
  5
402
  8
L6
 10
20.0
 20
41.749999999999993
 30
0.0
 11
20.0
 21
56.0
 31
0.0
  0
LINE
  5
404
  8
L6
 10
49.0
 20
-4.0
 30
0.0
 11
49.0
 21
4.0
 31
0.0
  0
LINE
  5
405
  8
L6
 10
-48.999999999999972
 20
36.733983790784009
 30
0.0
 11
-48.999999999999972
 21
47.75
 31
0.0
  0
LINE
  5
406
  8
L6
 10
-48.999999999999957
 20
-4.0
 30
0.0
 11
-48.999999999999972
 21
4.0
 31
0.0
  0
LINE
  5
407
  8
L6
 10
-54.999999999999972
 20
41.749999999999993
 30
0.0
 11
-43.387727301923171
 21
41.749999999999993
 31
0.0
  0
LINE
  5
408
  8
L6
 10
49.0
 20
36.733983790784009
 30
0.0
 11
49.0
 21
47.75
 31
0.0
  0
LINE
  5
409
  8
L6
 10
43.0
 20
41.749999999999993
 30
0.0
 11
54.612272698076787
 21
41.749999999999993
 31
0.0
  0
LINE
  5
40A
  8
L6
 10
43.0
 20
-41.749999999999993
 30
0.0
 11
54.612272698076787
 21
-41.749999999999993
 31
0.0
  0
LINE
  5
40C
  8
L2
 10
-113.4956367322509
 20
49.028289343094201
 30
0.0
 11
-152.0
 21
49.364311830699222
 31
0.0
  0
LINE
  5
40D
  8
L2
 10
-113.0000000000001
 20
6.0000000000000471
 30
0.0
 11
-113.0000000000001
 21
48.528308381562113
 31
0.0
  0
ARC
  5
40E
  8
L2
 10
-113.5
 20
48.528308381562113
 30
0.0
 40
0.5
 50
0.0
 51
89.499999999999986
  0
LINE
  5
40F
  8
L2
 10
-113.4956367322509
 20
-49.028289343094428
 30
0.0
 11
-152.0
 21
-49.364311830699393
 31
0.0
  0
LINE
  5
410
  8
L2
 10
-113.0000000000001
 20
-48.52830838156234
 30
0.0
 11
-113.0000000000001
 21
-6.0000000000000657
 31
0.0
  0
ARC
  5
411
  8
L2
 10
-113.5000000000001
 20
-48.52830838156234
 30
0.0
 40
0.5
 50
270.49999999999989
 51
0.0000000000000254
  0
LINE
  5
413
  8
L1
 10
150.0
 20
60.999999999999943
 30
0.0
 11
150.0
 21
-60.999999999999908
 31
0.0
  0
LINE
  5
414
  8
L2
 10
-39.028289343094372
 20
-114.4956367322507
 30
0.0
 11
-39.364311830699222
 21
-152.9999999999998
 31
0.0
  0
LINE
  5
415
  8
L2
 10
-38.528308381562283
 20
-113.9999999999999
 30
0.0
 11
-4.582114969185171
 21
-113.9999999999998
 31
0.0
  0
ARC
  5
416
  8
L2
 10
-38.528308381562283
 20
-114.4999999999999
 30
0.0
 40
0.5
 50
90.000000000000099
 51
179.50000000000011
  0
LINE
  5
417
  8
L2
 10
39.02828934309445
 20
-114.4956367322507
 30
0.0
 11
39.364311830699357
 21
-152.9999999999998
 31
0.0
  0
LINE
  5
418
  8
L2
 10
4.5821149691853122
 20
-113.9999999999998
 30
0.0
 11
38.528308381562397
 21
-113.9999999999999
 31
0.0
  0
ARC
  5
419
  8
L2
 10
38.528308381562397
 20
-114.4999999999998
 30
0.0
 40
0.5
 50
0.4999999999998672
 51
90.0
  0
ARC
  5
424
  8
L2
 10
-92.500000000000625
 20
0.0000000000000853
 30
0.0
 40
18.499999999999378
 50
161.07535558394841
 51
198.92464441605171
  0
ARC
  5
425
  8
L2
 10
-95.499999999998977
 20
0.0
 30
0.0
 40
18.50000000000113
 50
161.07535558394989
 51
198.92464441605
  0
LINE
  5
426
  8
L2
 10
-118.2000000000002
 20
3.9999999999999711
 30
0.0
 11
-113.5442028836932
 21
4.0812672409583683
 31
0.0
  0
LINE
  5
427
  8
L2
 10
-118.2000000000002
 20
-4.0000000000000284
 30
0.0
 11
-113.5442028836932
 21
-4.0812672409584252
 31
0.0
  0
LINE
  5
428
  8
L2
 10
-118.2000000000002
 20
3.9999999999999711
 30
0.0
 11
-118.2000000000002
 21
-4.0000000000000284
 31
0.0
  0
ARC
  5
429
  8
L2
 10
4.5821149691853122
 20
-114.4999999999998
 30
0.0
 40
0.5
 50
90.0
 51
178.99999999999179
  0
ARC
  5
42A
  8
L2
 10
-4.5821149691851701
 20
-114.4999999999998
 30
0.0
 40
0.5
 50
1.000000000008181
 51
90.0
  0
LINE
  5
42B
  8
L2
 10
-3.9999999999999138
 20
-119.1999999999999
 30
0.0
 11
-4.0821911216069671
 21
-114.4912737967812
 31
0.0
  0
LINE
  5
42C
  8
L2
 10
4.0000000000000853
 20
-119.1999999999999
 30
0.0
 11
4.0821911216071101
 21
-114.4912737967811
 31
0.0
  0
LINE
  5
42D
  8
L2
 10
-2.2412731322091579
 20
-118.1999999999999
 30
0.0
 11
2.2412731322093289
 21
-118.1999999999998
 31
0.0
  0
LINE
  5
42E
  8
L2
 10
-2.2499999999999138
 20
-119.1999999999999
 30
0.0
 11
-2.2412731322091579
 21
-118.1999999999999
 31
0.0
  0
LINE
  5
42F
  8
L2
 10
2.2500000000000848
 20
-119.1999999999999
 30
0.0
 11
2.2412731322093289
 21
-118.1999999999999
 31
0.0
  0
LINE
  5
430
  8
L2
 10
-1.451983187957836
 20
-112.1999999999999
 30
0.0
 11
1.4519831879580061
 21
-112.1999999999999
 31
0.0
  0
LINE
  5
431
  8
L2
 10
-1.9999999999999141
 20
-118.1999999999999
 30
0.0
 11
-1.9519641494900091
 21
-112.6956367322507
 31
0.0
  0
LINE
  5
432
  8
L2
 10
2.0000000000000848
 20
-118.1999999999998
 30
0.0
 11
1.95196414949018
 21
-112.6956367322507
 31
0.0
  0
ARC
  5
433
  8
L2
 10
-1.451983187957836
 20
-112.6999999999999
 30
0.0
 40
0.5
 50
90.0
 51
179.4999999999998
  0
ARC
  5
434
  8
L2
 10
1.4519831879580061
 20
-112.6999999999999
 30
0.0
 40
0.5
 50
0.4999999999999181
 51
90.0
  0
LINE
  5
435
  8
L2
 10
-3.9999999999998859
 20
-119.1999999999999
 30
0.0
 11
4.0000000000000853
 21
-119.1999999999999
 31
0.0
  0
TEXT
  5
4BC
  8
L1
 10
-280.87350122523179
 20
120.74497920430819
 30
0.0
 40
7.0
  1
EURONORD II
  7
ROMANS
  0
TEXT
  5
4BD
  8
L1
 10
-280.87350122523179
 20
108.74497920430819
 30
0.0
 40
7.0
  1
120x122x40 BASE
  7
ROMANS
  0
ENDSEC
  0
EOF
