  0
SECTION
  2
HEADER
  9
$ACADVER
  1
AC1009
  9
$INSBASE
 10
0.0
 20
0.0
 30
0.0
  9
$EXTMIN
 10
428.4022575772139
 20
178.52427993486091
 30
0.0
  9
$EXTMAX
 10
833.32009457038475
 20
434.0527017136057
 30
0.0
  9
$LIMMIN
 10
0.0
 20
0.0
  9
$LIMMAX
 10
594.0
 20
420.0
  9
$ORTHOMODE
 70
     1
  9
$REGENMODE
 70
     1
  9
$FILLMODE
 70
     1
  9
$QTEXTMODE
 70
     0
  9
$MIRRTEXT
 70
     1
  9
$DRAGMODE
 70
     2
  9
$LTSCALE
 40
7.0
  9
$OSMODE
 70
    37
  9
$ATTMODE
 70
     1
  9
$TEXTSIZE
 40
3.5
  9
$TRACEWID
 40
0.05
  9
$TEXTSTYLE
  7
TKKISO
  9
$CLAYER
  8
1
  9
$CELTYPE
  6
BYLAYER
  9
$CECOLOR
 62
   256
  9
$DIMSCALE
 40
1.0
  9
$DIMASZ
 40
3.5
  9
$DIMEXO
 40
1.0
  9
$DIMDLI
 40
7.0
  9
$DIMRND
 40
0.0
  9
$DIMDLE
 40
0.0
  9
$DIMEXE
 40
1.5
  9
$DIMTP
 40
0.0
  9
$DIMTM
 40
0.0
  9
$DIMTXT
 40
3.5
  9
$DIMCEN
 40
0.0
  9
$DIMTSZ
 40
0.0
  9
$DIMTOL
 70
     0
  9
$DIMLIM
 70
     0
  9
$DIMTIH
 70
     0
  9
$DIMTOH
 70
     0
  9
$DIMSE1
 70
     0
  9
$DIMSE2
 70
     0
  9
$DIMTAD
 70
     1
  9
$DIMZIN
 70
     8
  9
$DIMBLK
  1

  9
$DIMASO
 70
     1
  9
$DIMSHO
 70
     1
  9
$DIMPOST
  1

  9
$DIMAPOST
  1

  9
$DIMALT
 70
     0
  9
$DIMALTD
 70
     2
  9
$DIMALTF
 40
25.399999999999999
  9
$DIMLFAC
 40
1.0
  9
$DIMTOFL
 70
     1
  9
$DIMTVP
 40
0.0
  9
$DIMTIX
 70
     0
  9
$DIMSOXD
 70
     0
  9
$DIMSAH
 70
     0
  9
$DIMBLK1
  1

  9
$DIMBLK2
  1

  9
$DIMSTYLE
  2
STANDARD
  9
$DIMCLRD
 70
     1
  9
$DIMCLRE
 70
     1
  9
$DIMCLRT
 70
     3
  9
$DIMTFAC
 40
1.0
  9
$DIMGAP
 40
0.09
  9
$LUNITS
 70
     2
  9
$LUPREC
 70
     1
  9
$SKETCHINC
 40
1.0
  9
$FILLETRAD
 40
0.0
  9
$AUNITS
 70
     0
  9
$AUPREC
 70
     1
  9
$MENU
  1
caesar
  9
$ELEVATION
 40
0.0
  9
$PELEVATION
 40
0.0
  9
$THICKNESS
 40
0.0
  9
$LIMCHECK
 70
     0
  9
$BLIPMODE
 70
     0
  9
$CHAMFERA
 40
5.0
  9
$CHAMFERB
 40
5.0
  9
$SKPOLY
 70
     1
  9
$TDCREATE
 40
2448769.5498931711
  9
$TDUPDATE
 40
2453620.4649633099
  9
$TDINDWG
 40
0.1153652199
  9
$TDUSRTIMER
 40
0.1153652199
  9
$USRTIMER
 70
     1
  9
$ANGBASE
 50
0.0
  9
$ANGDIR
 70
     0
  9
$PDMODE
 70
     0
  9
$PDSIZE
 40
2.0
  9
$PLINEWID
 40
0.0
  9
$COORDS
 70
     2
  9
$SPLFRAME
 70
     0
  9
$SPLINETYPE
 70
     6
  9
$SPLINESEGS
 70
     8
  9
$ATTDIA
 70
     0
  9
$ATTREQ
 70
     1
  9
$HANDLING
 70
-16383
  9
$HANDSEED
  5
216
  9
$SURFTAB1
 70
     6
  9
$SURFTAB2
 70
     6
  9
$SURFTYPE
 70
     6
  9
$SURFU
 70
     6
  9
$SURFV
 70
     6
  9
$UCSNAME
  2

  9
$UCSORG
 10
0.0
 20
0.0
 30
0.0
  9
$UCSXDIR
 10
1.0
 20
0.0
 30
0.0
  9
$UCSYDIR
 10
0.0
 20
1.0
 30
0.0
  9
$PUCSNAME
  2

  9
$PUCSORG
 10
0.0
 20
0.0
 30
0.0
  9
$PUCSXDIR
 10
1.0
 20
0.0
 30
0.0
  9
$PUCSYDIR
 10
0.0
 20
1.0
 30
0.0
  9
$USERI1
 70
     2
  9
$USERI2
 70
     0
  9
$USERI3
 70
     0
  9
$USERI4
 70
     0
  9
$USERI5
 70
     0
  9
$USERR1
 40
1.0
  9
$USERR2
 40
0.0
  9
$USERR3
 40
3.5
  9
$USERR4
 40
0.0
  9
$USERR5
 40
0.0
  9
$WORLDVIEW
 70
     1
  9
$SHADEDGE
 70
     3
  9
$SHADEDIF
 70
    70
  9
$TILEMODE
 70
     1
  9
$MAXACTVP
 70
    16
  9
$PLIMCHECK
 70
     0
  9
$PEXTMIN
 10
1.0000000000000000E+020
 20
1.0000000000000000E+020
 30
1.0000000000000000E+020
  9
$PEXTMAX
 10
-1.0000000000000000E+020
 20
-1.0000000000000000E+020
 30
-1.0000000000000000E+020
  9
$PLIMMIN
 10
0.0
 20
0.0
  9
$PLIMMAX
 10
12.0
 20
9.0
  9
$UNITMODE
 70
     0
  9
$VISRETAIN
 70
     0
  9
$PLINEGEN
 70
     0
  9
$PSLTSCALE
 70
     0
  0
ENDSEC
  0
SECTION
  2
TABLES
  0
TABLE
  2
VPORT
 70
     2
  0
VPORT
  2
*ACTIVE
 70
     0
 10
0.0
 20
0.0
 11
1.0
 21
1.0
 12
630.85189812342219
 22
306.28943313809151
 13
0.0
 23
0.0
 14
6.0
 24
6.0
 15
0.0
 25
0.0
 16
0.0
 26
0.0
 36
1.0
 17
0.0
 27
0.0
 37
0.0
 40
261.506427669853
 41
1.5552208835341359
 42
50.0
 43
0.0
 44
0.0
 50
0.0
 51
0.0
 71
     0
 72
  2000
 73
     1
 74
     0
 75
     0
 76
     0
 77
     0
 78
     0
  0
ENDTAB
  0
TABLE
  2
LTYPE
 70
     3
  0
LTYPE
  2
CONTINUOUS
 70
     0
  3
Solid line
 72
    65
 73
     0
 40
0.0
  0
LTYPE
  2
CENTER
 70
     0
  3
------  -  -----  -  -----  -  -----  -  ------
 72
    65
 73
     4
 40
1.8
 49
1.25
 49
-0.25
 49
0.05
 49
-0.25
  0
LTYPE
  2
DASHED
 70
     0
  3
__ __ __ __ __ __ __ __ __ __ __ __ __ __ __
 72
    65
 73
     2
 40
0.75
 49
0.5
 49
-0.25
  0
ENDTAB
  0
TABLE
  2
LAYER
 70
    17
  0
LAYER
  2
0
 70
     0
 62
     7
  6
CONTINUOUS
  0
LAYER
  2
DEFPOINTS
 70
     0
 62
    -7
  6
CONTINUOUS
  0
LAYER
  2
1
 70
     0
 62
     7
  6
CONTINUOUS
  0
LAYER
  2
11
 70
     0
 62
     7
  6
CONTINUOUS
  0
LAYER
  2
13
 70
     0
 62
     1
  6
CENTER
  0
LAYER
  2
21
 70
     0
 62
     7
  6
CONTINUOUS
  0
LAYER
  2
23
 70
     0
 62
     1
  6
CENTER
  0
LAYER
  2
31
 70
     0
 62
     7
  6
CONTINUOUS
  0
LAYER
  2
33
 70
     0
 62
     1
  6
CENTER
  0
LAYER
  2
41
 70
     0
 62
     7
  6
CONTINUOUS
  0
LAYER
  2
43
 70
     0
 62
     1
  6
CENTER
  0
LAYER
  2
51
 70
     0
 62
     7
  6
CONTINUOUS
  0
LAYER
  2
52
 70
     0
 62
     1
  6
CONTINUOUS
  0
LAYER
  2
53
 70
     0
 62
     1
  6
CENTER
  0
LAYER
  2
61
 70
     0
 62
     7
  6
CONTINUOUS
  0
LAYER
  2
62
 70
     0
 62
     1
  6
CONTINUOUS
  0
LAYER
  2
63
 70
     0
 62
     1
  6
CENTER
  0
ENDTAB
  0
TABLE
  2
STYLE
 70
     3
  0
STYLE
  2
STANDARD
 70
     0
 40
0.0
 41
1.0
 50
0.0
 71
     0
 42
0.2
  3
caeiso
  4

  0
STYLE
  2
ISO
 70
     0
 40
0.0
 41
1.0
 50
0.0
 71
     0
 42
3.5
  3
ISO
  4

  0
STYLE
  2
TKKISO
 70
     0
 40
0.0
 41
1.0
 50
0.0
 71
     0
 42
3.5
  3
caeiso
  4

  0
ENDTAB
  0
TABLE
  2
VIEW
 70
     0
  0
ENDTAB
  0
TABLE
  2
UCS
 70
     0
  0
ENDTAB
  0
TABLE
  2
APPID
 70
     2
  0
APPID
  2
ACAD
 70
     0
  0
APPID
  2
DCO15
 70
     0
  0
ENDTAB
  0
TABLE
  2
DIMSTYLE
 70
     1
  0
DIMSTYLE
  2
STANDARD
 70
     0
  3

  4

  5

  6

  7

 40
1.0
 41
0.18
 42
0.0625
 43
0.38
 44
0.18
 45
0.0
 46
0.0
 47
0.0
 48
0.0
140
0.18
141
0.09
142
0.0
143
25.399999999999999
144
1.0
145
0.0
146
1.0
147
0.09
 71
     0
 72
     0
 73
     1
 74
     1
 75
     0
 76
     0
 77
     0
 78
     0
170
     0
171
     2
172
     0
173
     0
174
     0
175
     0
176
     0
177
     0
178
     0
  0
ENDTAB
  0
ENDSEC
  0
SECTION
  2
BLOCKS
  0
BLOCK
  8
0
  2
$MODEL_SPACE
 70
     0
 10
0.0
 20
0.0
 30
0.0
  3
$MODEL_SPACE
  1

  0
ENDBLK
  5
87
  8
0
  0
BLOCK
 67
     1
  8
0
  2
$PAPER_SPACE
 70
     0
 10
0.0
 20
0.0
 30
0.0
  3
$PAPER_SPACE
  1

  0
ENDBLK
  5
85
 67
     1
  8
0
  0
ENDSEC
  0
SECTION
  2
ENTITIES
  0
ARC
  5
88
  8
23
  6
DASHED
 10
665.27433815495749
 20
427.55270171360559
 30
0.0
 40
0.5
 50
90.000000000000028
 51
179.50000000000171
  0
ARC
  5
89
  8
23
  6
DASHED
 10
759.58159102598927
 20
427.55270171360559
 30
0.0
 40
0.5
 50
0.4999999999979333
 51
90.000000000000057
  0
ARC
  5
8A
  8
33
  6
DASHED
 10
828.39590453541416
 20
344.44211725974918
 30
0.0
 40
0.5
 50
0.0
 51
89.500000000002004
  0
LINE
  5
8B
  8
33
 10
802.08891477527288
 20
306.28849082423329
 30
0.0
 11
833.32009457038475
 21
306.28849082423329
 31
0.0
  0
LINE
  5
8C
  8
63
 10
712.42796459047315
 20
370.88766151133501
 30
0.0
 11
712.42796459047315
 21
240.24250022100711
 31
0.0
  0
LINE
  5
8D
  8
23
  6
DASHED
 10
664.58055980421386
 20
405.35008375295632
 30
0.0
 11
664.77435719342543
 21
427.5570649813547
 31
0.0
  0
ARC
  5
8E
  8
21
 10
664.28057122729558
 20
405.3527017136056
 30
0.0
 40
0.3
 50
270.0
 51
359.5000000000345
  0
ARC
  5
8F
  8
52
 10
551.60225757721366
 20
347.60503311105759
 30
0.0
 40
0.3
 50
230.36228560932679
 51
0.0
  0
ARC
  5
90
  8
52
 10
547.90225757721385
 20
343.1384908242332
 30
0.0
 40
5.5
 50
50.362285609326307
 51
90.0
  0
LINE
  5
91
  8
52
 10
545.75225757721375
 20
348.6384908242332
 30
0.0
 11
547.90225757721385
 21
348.6384908242332
 31
0.0
  0
ARC
  5
92
  8
52
 10
545.75225757721375
 20
349.6384908242332
 30
0.0
 40
1.0
 50
180.00000000000031
 51
270.0
  0
ARC
  5
93
  8
51
 10
547.90225757721385
 20
343.1384908242332
 30
0.0
 40
1.000000000000056
 50
0.0
 51
90.0
  0
ARC
  5
94
  8
51
 10
545.75225757721375
 20
349.6384908242332
 30
0.0
 40
5.4999999999999432
 50
180.00000000000031
 51
270.0
  0
ARC
  5
95
  8
51
 10
539.25225757721375
 20
360.78849082423329
 30
0.0
 40
1.000000000000056
 50
0.0
 51
89.999999999999986
  0
ARC
  5
96
  8
52
 10
547.90225757721385
 20
343.1384908242332
 30
0.0
 40
1.98300000000006
 50
0.0
 51
90.0
  0
ARC
  5
97
  8
52
 10
545.75225757721375
 20
349.6384908242332
 30
0.0
 40
4.5169999999999391
 50
180.00000000000031
 51
270.0
  0
ARC
  5
98
  8
52
 10
539.25225757721375
 20
360.78849082423329
 30
0.0
 40
1.98300000000006
 50
0.0
 51
89.999999999999986
  0
ARC
  5
99
  8
52
 10
547.90225757721385
 20
343.1384908242332
 30
0.0
 40
4.5000000000001128
 50
0.0
 51
90.0
  0
ARC
  5
9A
  8
52
 10
545.75225757721375
 20
349.6384908242332
 30
0.0
 40
1.9999999999998861
 50
180.00000000000031
 51
270.0
  0
ARC
  5
9B
  8
52
 10
539.25225757721375
 20
360.78849082423329
 30
0.0
 40
4.5000000000001128
 50
0.0
 51
89.999999999999986
  0
LINE
  5
9C
  8
51
 10
540.25225757721375
 20
360.78849082423329
 30
0.0
 11
540.25225757721375
 21
349.6384908242332
 31
0.0
  0
LINE
  5
9D
  8
52
 10
541.23525757721393
 20
360.78849082423329
 30
0.0
 11
541.23525757721393
 21
349.6384908242332
 31
0.0
  0
LINE
  5
9E
  8
52
 10
543.75225757721387
 20
360.78849082423329
 30
0.0
 11
543.75225757721387
 21
349.6384908242332
 31
0.0
  0
LINE
  5
9F
  8
21
 10
654.92796459047315
 20
406.0527017136057
 30
0.0
 11
651.42796459047315
 21
406.0527017136057
 31
0.0
  0
LINE
  5
A0
  8
21
 10
651.42796459047315
 20
406.0527017136057
 30
0.0
 11
651.63740974974382
 21
430.05273979054152
 31
0.0
  0
LINE
  5
A1
  8
21
 10
654.94027452578905
 20
405.3474659916746
 30
0.0
 11
654.92796459047315
 21
406.0527017136057
 31
0.0
  0
ARC
  5
A2
  8
21
 10
655.24022883433611
 20
405.3527017136056
 30
0.0
 40
0.3
 50
181.0
 51
270.0
  0
LINE
  5
A3
  8
31
 10
831.89590453541427
 20
365.07031912946428
 30
0.0
 11
831.89590453541427
 21
247.5066625190023
 31
0.0
  0
LINE
  5
A4
  8
31
 10
805.89590453541427
 20
362.47622658037028
 30
0.0
 11
805.89590453541427
 21
250.1007550680963
 31
0.0
  0
LINE
  5
A5
  8
33
  6
DASHED
 10
828.89590453541427
 20
344.44211725974918
 30
0.0
 11
828.89590453541427
 21
268.13486438871752
 31
0.0
  0
ARC
  5
A6
  8
31
 10
806.19590453541412
 20
362.47622658037028
 30
0.0
 40
0.3
 50
91.000000000000057
 51
180.0
  0
LINE
  5
A7
  8
31
 10
806.19066881348306
 20
362.77618088891722
 30
0.0
 11
806.89590453541427
 21
362.78849082423318
 31
0.0
  0
LINE
  5
A8
  8
31
 10
806.89590453541427
 20
366.28849082423318
 30
0.0
 11
830.89594261235015
 21
366.07904566496262
 31
0.0
  0
LINE
  5
A9
  8
31
 10
806.89590453541427
 20
362.78849082423329
 30
0.0
 11
806.89590453541427
 21
366.28849082423329
 31
0.0
  0
LINE
  5
AA
  8
51
 10
553.40225757721385
 20
360.28849082423329
 30
0.0
 11
553.40225757721385
 21
252.28849082423329
 31
0.0
  0
LINE
  5
AB
  8
51
 10
431.4022575772139
 20
360.28849082423329
 30
0.0
 11
431.4022575772139
 21
252.28849082423329
 31
0.0
  0
LINE
  5
AC
  8
51
 10
437.4022575772139
 20
246.28849082423329
 30
0.0
 11
547.40225757721385
 21
246.28849082423329
 31
0.0
  0
LINE
  5
AD
  8
51
 10
437.4022575772139
 20
366.28849082423329
 30
0.0
 11
547.40225757721385
 21
366.28849082423329
 31
0.0
  0
ARC
  5
AE
  8
51
 10
547.40225757721385
 20
360.28849082423329
 30
0.0
 40
6.0
 50
0.0000000000000254
 51
90.0
  0
LINE
  5
AF
  8
52
 10
552.40225757721385
 20
343.1384908242332
 30
0.0
 11
552.40225757721385
 21
269.43849082423338
 31
0.0
  0
LINE
  5
B0
  8
52
 10
545.75225757721375
 20
347.6384908242332
 30
0.0
 11
547.90225757721385
 21
347.6384908242332
 31
0.0
  0
LINE
  5
B1
  8
52
 10
432.40225757721379
 20
343.1384908242332
 30
0.0
 11
432.40225757721379
 21
269.43849082423338
 31
0.0
  0
LINE
  5
B2
  8
52
 10
549.88525757721391
 20
343.1384908242332
 30
0.0
 11
549.88525757721391
 21
269.43849082423338
 31
0.0
  0
LINE
  5
B3
  8
52
 10
545.75225757721375
 20
345.12149082423332
 30
0.0
 11
547.90225757721385
 21
345.12149082423332
 31
0.0
  0
LINE
  5
B4
  8
52
 10
434.91925757721378
 20
343.1384908242332
 30
0.0
 11
434.91925757721401
 21
269.43849082423338
 31
0.0
  0
ARC
  5
B5
  8
21
 10
769.61570034661031
 20
405.3527017136056
 30
0.0
 40
0.3
 50
270.0
 51
358.99999999999989
  0
LINE
  5
B6
  8
23
  6
DASHED
 10
665.27433815495749
 20
428.05270171360559
 30
0.0
 11
759.58159102598927
 21
428.05270171360559
 31
0.0
  0
LINE
  5
B7
  8
21
 10
769.91565465515725
 20
405.3474659916746
 30
0.0
 11
769.92796459047327
 21
406.0527017136057
 31
0.0
  0
LINE
  5
B8
  8
21
 10
655.24022883433634
 20
405.0527017136057
 30
0.0
 11
769.61570034661031
 21
405.0527017136057
 31
0.0
  0
LINE
  5
B9
  8
21
 10
773.42796459047315
 20
406.0527017136057
 30
0.0
 11
773.21851943120271
 21
430.05273979054152
 31
0.0
  0
LINE
  5
BA
  8
21
 10
652.64613628524216
 20
431.0527017136057
 30
0.0
 11
772.20979289570425
 21
431.0527017136057
 31
0.0
  0
LINE
  5
BB
  8
21
 10
769.92796459047327
 20
406.0527017136057
 30
0.0
 11
773.42796459047327
 21
406.0527017136057
 31
0.0
  0
LINE
  5
BC
  8
51
 10
548.90225757721385
 20
343.1384908242332
 30
0.0
 11
548.90225757721385
 21
269.43849082423338
 31
0.0
  0
LINE
  5
BD
  8
51
 10
435.9022575772139
 20
343.1384908242332
 30
0.0
 11
435.9022575772139
 21
269.43849082423338
 31
0.0
  0
LINE
  5
BE
  8
51
 10
545.75225757721375
 20
344.1384908242332
 30
0.0
 11
547.90225757721385
 21
344.1384908242332
 31
0.0
  0
ARC
  5
BF
  8
21
 10
760.57535795365095
 20
405.3527017136056
 30
0.0
 40
0.3
 50
180.49999999996541
 51
270.0
  0
LINE
  5
C0
  8
23
  6
DASHED
 10
760.27536937673256
 20
405.35008375295632
 30
0.0
 11
760.08157198752122
 21
427.55706498135481
 31
0.0
  0
LINE
  5
C1
  8
51
 10
445.5522575772136
 20
361.78849082423329
 30
0.0
 11
539.25225757721375
 21
361.78849082423329
 31
0.0
  0
LINE
  5
C2
  8
52
 10
445.5522575772136
 20
362.77149082423341
 30
0.0
 11
539.25225757721375
 21
362.7714908242333
 31
0.0
  0
LINE
  5
C3
  8
52
 10
445.5522575772136
 20
365.28849082423341
 30
0.0
 11
539.25225757721375
 21
365.28849082423329
 31
0.0
  0
LINE
  5
C4
  8
52
 10
445.5522575772136
 20
247.28849082423329
 30
0.0
 11
539.25225757721375
 21
247.28849082423329
 31
0.0
  0
LINE
  5
C5
  8
52
 10
445.5522575772136
 20
249.8054908242334
 30
0.0
 11
539.25225757721375
 21
249.8054908242334
 31
0.0
  0
LINE
  5
C6
  8
51
 10
445.5522575772136
 20
250.78849082423349
 30
0.0
 11
539.25225757721375
 21
250.78849082423329
 31
0.0
  0
ARC
  5
C7
  8
52
 10
547.40225757721385
 20
360.28849082423329
 30
0.0
 40
2.0
 50
195.57299599946089
 51
224.42700400053721
  0
LINE
  5
C8
  8
52
 10
545.97397189149547
 20
358.8884908242369
 30
0.0
 11
548.83054326293222
 21
358.8884908242369
 31
0.0
  0
LINE
  5
C9
  8
52
 10
549.32883598536796
 20
359.75155913653788
 30
0.0
 11
548.15225757721385
 21
361.7894527185494
 31
0.0
  0
LINE
  5
CA
  8
52
 10
546.65225757721385
 20
361.7894527185494
 30
0.0
 11
545.4756791690595
 21
359.75155913653771
 31
0.0
  0
ARC
  5
CB
  8
52
 10
547.40225757721385
 20
360.28849082423329
 30
0.0
 40
2.0
 50
315.57299599946379
 51
344.42700400054582
  0
LINE
  5
CC
  8
52
 10
551.90225757721385
 20
360.28849082423329
 30
0.0
 11
551.90225757721385
 21
347.60503311105759
 31
0.0
  0
ARC
  5
CD
  8
52
 10
547.40225757721385
 20
360.28849082423329
 30
0.0
 40
5.5
 50
246.0980680740382
 51
316.39718102730058
  0
LINE
  5
CE
  8
52
 10
544.75225757721375
 20
360.78849082423329
 30
0.0
 11
544.75225757721375
 21
349.6384908242332
 31
0.0
  0
ARC
  5
CF
  8
52
 10
551.60225757721378
 20
356.28849082423392
 30
0.0
 40
0.3
 50
0.0
 51
136.39718102730021
  0
LINE
  5
D0
  8
33
  6
DASHED
 10
806.19328451618708
 20
345.13589562845749
 30
0.0
 11
828.4002678031635
 21
344.9420982212813
 31
0.0
  0
ARC
  5
D1
  8
61
 10
657.42796459047338
 20
252.28849082423341
 30
0.0
 40
6.0
 50
180.0
 51
270.0
  0
ARC
  5
D2
  8
61
 10
657.42796459047338
 20
360.28849082423329
 30
0.0
 40
6.0
 50
90.0
 51
180.0
  0
ARC
  5
D3
  8
61
 10
767.42796459047315
 20
360.28849082423329
 30
0.0
 40
6.0
 50
0.0000000000000254
 51
90.0
  0
ARC
  5
D4
  8
61
 10
767.42796459047315
 20
252.28849082423341
 30
0.0
 40
6.0
 50
270.0
 51
0.0
  0
LINE
  5
D5
  8
61
 10
657.42796459047338
 20
366.28849082423329
 30
0.0
 11
767.42796459047315
 21
366.28849082423329
 31
0.0
  0
LINE
  5
D6
  8
61
 10
657.42796459047338
 20
246.28849082423341
 30
0.0
 11
767.42796459047315
 21
246.28849082423341
 31
0.0
  0
LINE
  5
D7
  8
61
 10
651.42796459047349
 20
360.28849082423329
 30
0.0
 11
651.42796459047349
 21
252.28849082423341
 31
0.0
  0
LINE
  5
D8
  8
61
 10
773.42796459047327
 20
360.28849082423329
 30
0.0
 11
773.42796459047327
 21
252.28849082423341
 31
0.0
  0
CIRCLE
  5
D9
  8
61
 10
657.42796459047338
 20
360.28849082423329
 30
0.0
 40
4.3665284472104977
  0
CIRCLE
  5
DA
  8
62
 10
657.42796459047338
 20
360.28849082423329
 30
0.0
 40
4.0
  0
ARC
  5
DB
  8
61
 10
657.42796459047338
 20
360.28849082423329
 30
0.0
 40
2.1000000000000001
 50
110.924832427662
 51
69.075167572335786
  0
ARC
  5
DC
  8
61
 10
657.42796459047338
 20
360.28849082423318
 30
0.0
 40
2.0
 50
315.57299599946259
 51
344.427004000539
  0
LINE
  5
DD
  8
61
 10
658.85625027619164
 20
358.88849082423678
 30
0.0
 11
655.99967890475489
 21
358.88849082423678
 31
0.0
  0
LINE
  5
DE
  8
61
 10
655.50138618231927
 20
359.75155913653782
 30
0.0
 11
656.67796459047349
 21
361.78945271854951
 31
0.0
  0
LINE
  5
DF
  8
61
 10
658.17796459047349
 20
361.78945271854928
 30
0.0
 11
659.35454299862772
 21
359.75155913653782
 31
0.0
  0
ARC
  5
E0
  8
61
 10
657.42796459047338
 20
360.28849082423318
 30
0.0
 40
2.0
 50
195.57299599945401
 51
224.4270040005361
  0
ARC
  5
E1
  8
61
 10
657.42796459047338
 20
252.28849082423341
 30
0.0
 40
2.0
 50
195.57299599945401
 51
224.4270040005361
  0
LINE
  5
E2
  8
61
 10
658.17796459047349
 20
253.78945271854951
 30
0.0
 11
659.35454299862772
 21
251.75155913653799
 31
0.0
  0
LINE
  5
E3
  8
61
 10
655.50138618231927
 20
251.75155913653799
 30
0.0
 11
656.67796459047349
 21
253.7894527185498
 31
0.0
  0
LINE
  5
E4
  8
61
 10
658.85625027619164
 20
250.8884908242369
 30
0.0
 11
655.99967890475489
 21
250.8884908242369
 31
0.0
  0
ARC
  5
E5
  8
61
 10
657.42796459047338
 20
252.28849082423341
 30
0.0
 40
2.0
 50
315.57299599946259
 51
344.427004000539
  0
ARC
  5
E6
  8
61
 10
657.42796459047338
 20
252.28849082423341
 30
0.0
 40
2.1000000000000001
 50
110.92483242761389
 51
69.075167572383975
  0
CIRCLE
  5
E7
  8
62
 10
657.42796459047338
 20
252.28849082423341
 30
0.0
 40
4.0
  0
CIRCLE
  5
E8
  8
61
 10
657.42796459047338
 20
252.28849082423341
 30
0.0
 40
4.3665284472104977
  0
ARC
  5
E9
  8
61
 10
767.42796459047315
 20
252.28849082423341
 30
0.0
 40
2.0
 50
15.57299599945407
 51
44.42700400053613
  0
LINE
  5
EA
  8
61
 10
766.67796459047315
 20
250.78752892991741
 30
0.0
 11
765.50138618231904
 21
252.82542251192899
 31
0.0
  0
LINE
  5
EB
  8
61
 10
769.35454299862749
 20
252.82542251192879
 30
0.0
 11
768.17796459047315
 21
250.78752892991699
 31
0.0
  0
LINE
  5
EC
  8
61
 10
765.999678904755
 20
253.6884908242298
 30
0.0
 11
768.85625027619164
 21
253.6884908242298
 31
0.0
  0
ARC
  5
ED
  8
61
 10
767.42796459047315
 20
252.28849082423341
 30
0.0
 40
2.0
 50
135.57299599946271
 51
164.427004000539
  0
ARC
  5
EE
  8
61
 10
767.42796459047315
 20
252.28849082423341
 30
0.0
 40
2.1000000000000001
 50
290.92483242761199
 51
249.07516757238511
  0
CIRCLE
  5
EF
  8
62
 10
767.42796459047315
 20
252.28849082423341
 30
0.0
 40
4.0
  0
CIRCLE
  5
F0
  8
61
 10
767.42796459047315
 20
252.28849082423341
 30
0.0
 40
4.3665284472104977
  0
CIRCLE
  5
F1
  8
61
 10
767.42796459047315
 20
360.28849082423329
 30
0.0
 40
4.3665284472104977
  0
CIRCLE
  5
F2
  8
62
 10
767.42796459047315
 20
360.28849082423329
 30
0.0
 40
4.0
  0
ARC
  5
F3
  8
61
 10
767.42796459047315
 20
360.28849082423329
 30
0.0
 40
2.1000000000000001
 50
290.92483242766127
 51
249.0751675723358
  0
ARC
  5
F4
  8
52
 10
545.05225757721382
 20
354.9858971192628
 30
0.0
 40
0.3
 50
66.098068074037698
 51
180.0
  0
ARC
  5
F5
  8
52
 10
545.05225757721382
 20
257.59108452920378
 30
0.0
 40
0.3
 50
180.0
 51
293.90193192596229
  0
ARC
  5
F6
  8
52
 10
551.60225757721378
 20
256.28849082423272
 30
0.0
 40
0.3
 50
223.60281897269971
 51
0.0
  0
ARC
  5
F7
  8
52
 10
547.40225757721385
 20
252.28849082423329
 30
0.0
 40
5.5
 50
43.602818972699318
 51
113.9019319259618
  0
ARC
  5
F8
  8
52
 10
547.40225757721385
 20
252.28849082423329
 30
0.0
 40
2.0
 50
195.57299599945401
 51
224.4270040005361
  0
LINE
  5
F9
  8
52
 10
548.15225757721385
 20
253.7894527185494
 30
0.0
 11
549.32883598536807
 21
251.75155913653771
 31
0.0
  0
LINE
  5
FA
  8
52
 10
545.47567916905962
 20
251.75155913653791
 30
0.0
 11
546.65225757721385
 21
253.7894527185496
 31
0.0
  0
LINE
  5
FB
  8
52
 10
548.83054326293222
 20
250.88849082423681
 30
0.0
 11
545.97397189149547
 21
250.88849082423681
 31
0.0
  0
ARC
  5
FC
  8
52
 10
547.40225757721385
 20
252.28849082423329
 30
0.0
 40
2.0
 50
315.57299599946259
 51
344.427004000539
  0
LINE
  5
FD
  8
51
 10
545.75225757721375
 20
268.43849082423338
 30
0.0
 11
547.90225757721385
 21
268.43849082423338
 31
0.0
  0
LINE
  5
FE
  8
52
 10
545.75225757721375
 20
267.45549082423332
 30
0.0
 11
547.90225757721385
 21
267.45549082423332
 31
0.0
  0
LINE
  5
FF
  8
52
 10
545.75225757721375
 20
264.93849082423338
 30
0.0
 11
547.90225757721385
 21
264.93849082423338
 31
0.0
  0
ARC
  5
100
  8
51
 10
547.40225757721385
 20
252.28849082423329
 30
0.0
 40
6.0
 50
270.0
 51
0.0
  0
LINE
  5
101
  8
52
 10
543.75225757721387
 20
251.78849082423329
 30
0.0
 11
543.75225757721387
 21
262.93849082423338
 31
0.0
  0
LINE
  5
102
  8
52
 10
541.23525757721393
 20
251.78849082423329
 30
0.0
 11
541.23525757721393
 21
262.93849082423338
 31
0.0
  0
LINE
  5
103
  8
51
 10
540.25225757721375
 20
251.78849082423329
 30
0.0
 11
540.25225757721375
 21
262.93849082423338
 31
0.0
  0
ARC
  5
104
  8
52
 10
539.25225757721375
 20
251.78849082423329
 30
0.0
 40
4.5000000000001128
 50
270.0
 51
0.0
  0
ARC
  5
105
  8
52
 10
545.75225757721375
 20
262.93849082423338
 30
0.0
 40
1.9999999999998861
 50
90.0
 51
179.99999999999969
  0
ARC
  5
106
  8
52
 10
547.90225757721385
 20
269.43849082423338
 30
0.0
 40
4.5000000000001128
 50
270.0
 51
0.0
  0
ARC
  5
107
  8
52
 10
539.25225757721375
 20
251.78849082423329
 30
0.0
 40
1.98300000000006
 50
270.0
 51
0.0
  0
ARC
  5
108
  8
52
 10
545.75225757721375
 20
262.93849082423338
 30
0.0
 40
4.5169999999999391
 50
90.0
 51
179.99999999999969
  0
ARC
  5
109
  8
52
 10
547.90225757721385
 20
269.43849082423338
 30
0.0
 40
1.98300000000006
 50
270.0
 51
0.0
  0
ARC
  5
10A
  8
51
 10
539.25225757721375
 20
251.78849082423329
 30
0.0
 40
1.000000000000056
 50
270.0
 51
0.0
  0
ARC
  5
10B
  8
51
 10
545.75225757721375
 20
262.93849082423338
 30
0.0
 40
5.4999999999999432
 50
90.0
 51
179.99999999999969
  0
ARC
  5
10C
  8
51
 10
547.90225757721385
 20
269.43849082423338
 30
0.0
 40
1.000000000000056
 50
270.0
 51
0.0
  0
ARC
  5
10D
  8
52
 10
545.75225757721375
 20
262.93849082423338
 30
0.0
 40
1.0
 50
90.0
 51
179.99999999999969
  0
LINE
  5
10E
  8
52
 10
545.75225757721375
 20
263.93849082423338
 30
0.0
 11
547.90225757721385
 21
263.93849082423338
 31
0.0
  0
ARC
  5
10F
  8
52
 10
547.90225757721385
 20
269.43849082423338
 30
0.0
 40
5.5
 50
270.0
 51
309.63771439067369
  0
ARC
  5
110
  8
52
 10
551.60225757721366
 20
264.97194853740899
 30
0.0
 40
0.3
 50
0.0
 51
129.63771439067321
  0
ARC
  5
111
  8
52
 10
433.20225757721369
 20
264.97194853740899
 30
0.0
 40
0.3
 50
50.362285609326818
 51
180.0
  0
ARC
  5
112
  8
52
 10
436.90225757721367
 20
269.43849082423338
 30
0.0
 40
5.5
 50
230.36228560932631
 51
270.0
  0
LINE
  5
113
  8
52
 10
439.05225757721371
 20
263.93849082423338
 30
0.0
 11
436.90225757721367
 21
263.93849082423338
 31
0.0
  0
ARC
  5
114
  8
52
 10
439.05225757721371
 20
262.93849082423338
 30
0.0
 40
1.0
 50
0.0000000000002672
 51
90.000000000000028
  0
ARC
  5
115
  8
51
 10
436.90225757721367
 20
269.43849082423338
 30
0.0
 40
1.000000000000056
 50
180.0
 51
270.0
  0
ARC
  5
116
  8
51
 10
439.05225757721371
 20
262.93849082423338
 30
0.0
 40
5.4999999999999432
 50
0.0000000000002672
 51
90.000000000000028
  0
ARC
  5
117
  8
51
 10
445.5522575772136
 20
251.78849082423329
 30
0.0
 40
1.000000000000056
 50
180.0
 51
270.0
  0
ARC
  5
118
  8
52
 10
436.90225757721367
 20
269.43849082423338
 30
0.0
 40
1.98300000000006
 50
180.0
 51
270.0
  0
ARC
  5
119
  8
52
 10
439.05225757721371
 20
262.93849082423338
 30
0.0
 40
4.5169999999999391
 50
0.0000000000002672
 51
90.000000000000028
  0
ARC
  5
11A
  8
52
 10
445.5522575772136
 20
251.78849082423329
 30
0.0
 40
1.98300000000006
 50
180.0
 51
270.0
  0
ARC
  5
11B
  8
52
 10
436.90225757721367
 20
269.43849082423338
 30
0.0
 40
4.5000000000001128
 50
180.0
 51
270.0
  0
ARC
  5
11C
  8
52
 10
439.05225757721371
 20
262.93849082423338
 30
0.0
 40
1.9999999999998861
 50
0.0000000000002672
 51
90.000000000000028
  0
ARC
  5
11D
  8
52
 10
445.5522575772136
 20
251.78849082423329
 30
0.0
 40
4.5000000000001128
 50
180.0
 51
270.0
  0
LINE
  5
11E
  8
51
 10
444.55225757721371
 20
251.78849082423329
 30
0.0
 11
444.55225757721371
 21
262.93849082423338
 31
0.0
  0
LINE
  5
11F
  8
52
 10
443.56925757721359
 20
251.78849082423329
 30
0.0
 11
443.56925757721359
 21
262.93849082423338
 31
0.0
  0
LINE
  5
120
  8
52
 10
441.0522575772136
 20
251.78849082423329
 30
0.0
 11
441.0522575772136
 21
262.93849082423338
 31
0.0
  0
ARC
  5
121
  8
51
 10
437.40225757721367
 20
252.28849082423329
 30
0.0
 40
6.0
 50
180.0
 51
270.0
  0
LINE
  5
122
  8
52
 10
439.05225757721371
 20
264.93849082423338
 30
0.0
 11
436.90225757721367
 21
264.93849082423338
 31
0.0
  0
LINE
  5
123
  8
52
 10
439.05225757721371
 20
267.45549082423332
 30
0.0
 11
436.90225757721367
 21
267.45549082423332
 31
0.0
  0
LINE
  5
124
  8
51
 10
439.05225757721371
 20
268.43849082423338
 30
0.0
 11
436.90225757721367
 21
268.43849082423338
 31
0.0
  0
ARC
  5
125
  8
52
 10
437.40225757721367
 20
252.28849082423329
 30
0.0
 40
5.5
 50
66.098068074038181
 51
136.3971810273006
  0
ARC
  5
126
  8
52
 10
433.20225757721357
 20
256.28849082423272
 30
0.0
 40
0.3
 50
180.0
 51
316.39718102730018
  0
ARC
  5
127
  8
52
 10
439.7522575772137
 20
257.59108452920378
 30
0.0
 40
0.3
 50
246.09806807403771
 51
359.99999999999989
  0
ARC
  5
128
  8
52
 10
439.7522575772137
 20
354.9858971192628
 30
0.0
 40
0.3
 50
0.0000000000000127
 51
113.9019319259623
  0
ARC
  5
129
  8
52
 10
433.20225757721357
 20
356.28849082423392
 30
0.0
 40
0.3
 50
43.602818972699758
 51
180.0
  0
ARC
  5
12A
  8
52
 10
437.40225757721367
 20
360.28849082423329
 30
0.0
 40
5.5
 50
223.60281897269931
 51
293.90193192596172
  0
LINE
  5
12B
  8
51
 10
439.05225757721371
 20
344.1384908242332
 30
0.0
 11
436.90225757721367
 21
344.1384908242332
 31
0.0
  0
LINE
  5
12C
  8
52
 10
439.05225757721371
 20
345.12149082423332
 30
0.0
 11
436.90225757721367
 21
345.12149082423332
 31
0.0
  0
LINE
  5
12D
  8
52
 10
439.05225757721371
 20
347.6384908242332
 30
0.0
 11
436.90225757721367
 21
347.6384908242332
 31
0.0
  0
ARC
  5
12E
  8
51
 10
437.40225757721367
 20
360.28849082423329
 30
0.0
 40
6.0
 50
90.000000000000028
 51
180.0
  0
LINE
  5
12F
  8
52
 10
441.0522575772136
 20
360.78849082423329
 30
0.0
 11
441.0522575772136
 21
349.6384908242332
 31
0.0
  0
LINE
  5
130
  8
52
 10
443.56925757721359
 20
360.78849082423329
 30
0.0
 11
443.56925757721359
 21
349.6384908242332
 31
0.0
  0
LINE
  5
131
  8
51
 10
444.55225757721371
 20
360.78849082423329
 30
0.0
 11
444.55225757721371
 21
349.6384908242332
 31
0.0
  0
ARC
  5
132
  8
52
 10
445.5522575772136
 20
360.78849082423329
 30
0.0
 40
4.5000000000001128
 50
90.000000000000057
 51
180.0
  0
ARC
  5
133
  8
52
 10
439.05225757721371
 20
349.6384908242332
 30
0.0
 40
1.9999999999998861
 50
270.0
 51
359.99999999999972
  0
ARC
  5
134
  8
52
 10
436.90225757721367
 20
343.1384908242332
 30
0.0
 40
4.5000000000001128
 50
90.000000000000028
 51
180.0
  0
ARC
  5
135
  8
52
 10
445.5522575772136
 20
360.78849082423329
 30
0.0
 40
1.98300000000006
 50
90.000000000000057
 51
180.0
  0
ARC
  5
136
  8
52
 10
439.05225757721371
 20
349.6384908242332
 30
0.0
 40
4.5169999999999391
 50
270.0
 51
359.99999999999972
  0
ARC
  5
137
  8
52
 10
436.90225757721367
 20
343.1384908242332
 30
0.0
 40
1.98300000000006
 50
90.000000000000028
 51
180.0
  0
ARC
  5
138
  8
51
 10
445.5522575772136
 20
360.78849082423329
 30
0.0
 40
1.000000000000056
 50
90.000000000000057
 51
180.0
  0
ARC
  5
139
  8
51
 10
439.05225757721371
 20
349.6384908242332
 30
0.0
 40
5.4999999999999432
 50
270.0
 51
359.99999999999972
  0
ARC
  5
13A
  8
51
 10
436.90225757721367
 20
343.1384908242332
 30
0.0
 40
1.000000000000056
 50
90.000000000000028
 51
180.0
  0
ARC
  5
13B
  8
52
 10
439.05225757721371
 20
349.6384908242332
 30
0.0
 40
1.0
 50
270.0
 51
359.99999999999972
  0
LINE
  5
13C
  8
52
 10
439.05225757721371
 20
348.6384908242332
 30
0.0
 11
436.90225757721367
 21
348.6384908242332
 31
0.0
  0
ARC
  5
13D
  8
52
 10
436.90225757721367
 20
343.1384908242332
 30
0.0
 40
5.5
 50
90.000000000000028
 51
129.63771439067369
  0
ARC
  5
13E
  8
52
 10
433.20225757721369
 20
347.60503311105759
 30
0.0
 40
0.3
 50
180.0
 51
309.63771439067312
  0
LINE
  5
13F
  8
31
 10
831.89590453541427
 20
365.07031912946428
 30
0.0
 11
830.89594261235015
 21
366.07904566496262
 31
0.0
  0
LINE
  5
140
  8
21
 10
773.21851943120271
 20
430.05273979054152
 30
0.0
 11
772.20979289570425
 21
431.0527017136057
 31
0.0
  0
LINE
  5
141
  8
21
 10
651.63740974974382
 20
430.05273979054152
 30
0.0
 11
652.64613628524216
 21
431.0527017136057
 31
0.0
  0
LINE
  5
142
  8
61
 10
772.20979289570425
 20
360.28849082423329
 30
0.0
 11
772.20979289570425
 21
252.28849082423341
 31
0.0
  0
ARC
  5
143
  8
61
 10
767.42796459047315
 20
252.28849082423341
 30
0.0
 40
4.7818283052311008
 50
270.0
 51
0.0
  0
LINE
  5
144
  8
61
 10
657.42796459047338
 20
247.5066625190023
 30
0.0
 11
767.42796459047315
 21
247.5066625190023
 31
0.0
  0
ARC
  5
145
  8
61
 10
657.42796459047338
 20
252.28849082423341
 30
0.0
 40
4.7818283052311008
 50
180.0
 51
270.0
  0
LINE
  5
146
  8
61
 10
652.64613628524228
 20
360.28849082423329
 30
0.0
 11
652.64613628524228
 21
252.28849082423341
 31
0.0
  0
ARC
  5
147
  8
61
 10
657.42796459047338
 20
360.28849082423329
 30
0.0
 40
4.7818283052311008
 50
90.0
 51
180.0
  0
LINE
  5
148
  8
61
 10
657.42796459047338
 20
365.07031912946439
 30
0.0
 11
767.42796459047315
 21
365.07031912946439
 31
0.0
  0
ARC
  5
149
  8
61
 10
767.42796459047315
 20
360.28849082423329
 30
0.0
 40
4.7818283052311008
 50
0.0000000000000254
 51
90.0
  0
LINE
  5
14A
  8
62
 10
773.20979289570437
 20
360.28849082423329
 30
0.0
 11
773.20979289570437
 21
252.28849082423341
 31
0.0
  0
ARC
  5
14B
  8
62
 10
767.42796459047315
 20
360.28849082423329
 30
0.0
 40
5.7818283052311008
 50
0.0000000000000254
 51
90.0
  0
LINE
  5
14C
  8
62
 10
657.42796459047338
 20
366.07031912946439
 30
0.0
 11
767.42796459047315
 21
366.07031912946439
 31
0.0
  0
ARC
  5
14D
  8
62
 10
657.42796459047338
 20
360.28849082423329
 30
0.0
 40
5.7818283052311008
 50
90.0
 51
180.0
  0
LINE
  5
14E
  8
62
 10
651.64613628524239
 20
360.28849082423329
 30
0.0
 11
651.64613628524239
 21
252.28849082423341
 31
0.0
  0
ARC
  5
14F
  8
62
 10
657.42796459047338
 20
252.28849082423341
 30
0.0
 40
5.7818283052311008
 50
180.0
 51
270.0
  0
LINE
  5
150
  8
62
 10
657.42796459047338
 20
246.5066625190023
 30
0.0
 11
767.42796459047315
 21
246.5066625190023
 31
0.0
  0
ARC
  5
151
  8
62
 10
767.42796459047315
 20
252.28849082423341
 30
0.0
 40
5.7818283052311008
 50
270.0
 51
0.0
  0
ARC
  5
152
  8
52
 10
547.40225757721385
 20
360.28849082423329
 30
0.0
 40
4.5
 50
0.0000000000000254
 51
90.0
  0
ARC
  5
153
  8
52
 10
539.25225757721375
 20
360.78849082423329
 30
0.0
 40
5.5000000000001128
 50
0.0
 51
39.637714390665693
  0
LINE
  5
154
  8
52
 10
543.71879986403951
 20
364.78849082423329
 30
0.0
 11
547.40225859922054
 21
364.78849082423329
 31
0.0
  0
ARC
  5
155
  8
52
 10
543.71879986403951
 20
364.48849082423328
 30
0.0
 40
0.3
 50
90.0
 51
219.6377143906688
  0
LINE
  5
156
  8
52
 10
544.75225757721375
 20
251.78849082423329
 30
0.0
 11
544.75225757721375
 21
262.93849082423338
 31
0.0
  0
LINE
  5
157
  8
52
 10
551.90225757721385
 20
252.28849082423329
 30
0.0
 11
551.90225757721385
 21
264.97194853740899
 31
0.0
  0
ARC
  5
158
  8
52
 10
547.40225757721385
 20
252.28849082423329
 30
0.0
 40
4.5
 50
270.0
 51
0.0
  0
LINE
  5
159
  8
52
 10
543.71879986403951
 20
247.78849082423329
 30
0.0
 11
547.40225859922054
 21
247.78849082423329
 31
0.0
  0
ARC
  5
15A
  8
52
 10
543.71879986403951
 20
248.0884908242333
 30
0.0
 40
0.3
 50
140.36228560933111
 51
270.0
  0
ARC
  5
15B
  8
52
 10
539.25225757721375
 20
251.78849082423329
 30
0.0
 40
5.5000000000001128
 50
320.36228560933432
 51
0.0
  0
LINE
  5
15C
  8
52
 10
440.05225757721371
 20
360.78849082423329
 30
0.0
 11
440.05225757721371
 21
349.6384908242332
 31
0.0
  0
LINE
  5
15D
  8
52
 10
432.90225757721367
 20
360.28849082423329
 30
0.0
 11
432.90225757721367
 21
347.60503311105759
 31
0.0
  0
ARC
  5
15E
  8
52
 10
437.40225757721367
 20
360.28849082423329
 30
0.0
 40
4.5
 50
90.000000000000028
 51
180.0
  0
LINE
  5
15F
  8
52
 10
441.08571529038812
 20
364.78849082423329
 30
0.0
 11
437.40225655520698
 21
364.78849082423329
 31
0.0
  0
ARC
  5
160
  8
52
 10
441.08571529038812
 20
364.48849082423328
 30
0.0
 40
0.3
 50
320.36228560933108
 51
90.000000000000028
  0
ARC
  5
161
  8
52
 10
445.55225757721371
 20
360.78849082423329
 30
0.0
 40
5.5000000000001128
 50
140.36228560933429
 51
180.0
  0
LINE
  5
162
  8
52
 10
432.90225757721367
 20
252.28849082423329
 30
0.0
 11
432.90225757721367
 21
264.97194853740899
 31
0.0
  0
LINE
  5
163
  8
52
 10
440.05225757721371
 20
251.78849082423329
 30
0.0
 11
440.05225757721371
 21
262.93849082423338
 31
0.0
  0
ARC
  5
164
  8
52
 10
437.40225757721367
 20
252.28849082423329
 30
0.0
 40
4.5
 50
180.0
 51
270.0
  0
LINE
  5
165
  8
52
 10
441.08571529038812
 20
247.78849082423329
 30
0.0
 11
437.40225655520698
 21
247.78849082423329
 31
0.0
  0
ARC
  5
166
  8
52
 10
445.55225757721371
 20
251.78849082423329
 30
0.0
 40
5.5000000000001128
 50
180.0
 51
219.63771439066571
  0
ARC
  5
167
  8
52
 10
441.08571529038812
 20
248.0884908242333
 30
0.0
 40
0.3
 50
270.0
 51
39.637714390668798
  0
LINE
  5
168
  8
52
 10
548.15225757721385
 20
364.14116846452458
 30
0.0
 11
548.15225757721385
 21
361.78945271854951
 31
0.0
  0
ARC
  5
169
  8
52
 10
547.40225757721385
 20
360.28849082423329
 30
0.0
 40
3.9249999999999998
 50
78.98401794378205
 51
101.01598205621789
  0
LINE
  5
16A
  8
52
 10
546.65225757721385
 20
364.14116846452458
 30
0.0
 11
546.65225757721385
 21
361.7894527185494
 31
0.0
  0
LINE
  5
16B
  8
52
 10
548.15225757721385
 20
256.14116846452453
 30
0.0
 11
548.15225757721385
 21
253.78945271854951
 31
0.0
  0
ARC
  5
16C
  8
52
 10
547.40225757721385
 20
252.28849082423329
 30
0.0
 40
3.9249999999999998
 50
78.98401794378205
 51
101.01598205621789
  0
LINE
  5
16D
  8
52
 10
546.65225757721385
 20
256.14116846452453
 30
0.0
 11
546.65225757721385
 21
253.7894527185494
 31
0.0
  0
LINE
  5
16E
  8
52
 10
438.15225757721362
 20
248.43581318394209
 30
0.0
 11
438.15225757721362
 21
250.78752892991719
 31
0.0
  0
ARC
  5
16F
  8
52
 10
437.40225757721367
 20
252.28849082423329
 30
0.0
 40
3.9249999999999998
 50
258.98401794378202
 51
281.01598205621792
  0
LINE
  5
170
  8
52
 10
436.65225757721367
 20
248.43581318394209
 30
0.0
 11
436.65225757721367
 21
250.7875289299171
 31
0.0
  0
ARC
  5
171
  8
52
 10
437.40225757721367
 20
252.28849082423329
 30
0.0
 40
2.0
 50
135.57299599946271
 51
164.427004000539
  0
LINE
  5
172
  8
52
 10
435.9739718914953
 20
253.68849082422969
 30
0.0
 11
438.83054326293211
 21
253.68849082422969
 31
0.0
  0
LINE
  5
173
  8
52
 10
439.3288359853679
 20
252.82542251192871
 30
0.0
 11
438.15225757721362
 21
250.78752892991699
 31
0.0
  0
LINE
  5
174
  8
52
 10
436.65225757721367
 20
250.78752892991719
 30
0.0
 11
435.47567916905939
 21
252.82542251192891
 31
0.0
  0
ARC
  5
175
  8
52
 10
437.40225757721367
 20
252.28849082423329
 30
0.0
 40
2.0
 50
15.57299599945409
 51
44.42700400053613
  0
LINE
  5
176
  8
52
 10
438.15225757721362
 20
356.435813183942
 30
0.0
 11
438.15225757721362
 21
358.78752892991707
 31
0.0
  0
ARC
  5
177
  8
52
 10
437.40225757721367
 20
360.28849082423318
 30
0.0
 40
3.9249999999999998
 50
258.98401794378202
 51
281.01598205621792
  0
LINE
  5
178
  8
52
 10
436.65225757721367
 20
356.435813183942
 30
0.0
 11
436.65225757721367
 21
358.78752892991707
 31
0.0
  0
ARC
  5
179
  8
52
 10
437.40225757721367
 20
360.28849082423318
 30
0.0
 40
2.0
 50
135.57299599946381
 51
164.42700400054591
  0
LINE
  5
17A
  8
52
 10
438.15225757721362
 20
358.78752892991719
 30
0.0
 11
439.32883598536807
 21
360.82542251192888
 31
0.0
  0
LINE
  5
17B
  8
52
 10
435.47567916905939
 20
360.82542251192871
 30
0.0
 11
436.65225757721367
 21
358.78752892991707
 31
0.0
  0
LINE
  5
17C
  8
52
 10
438.83054326293211
 20
361.68849082422969
 30
0.0
 11
435.9739718914953
 21
361.68849082422969
 31
0.0
  0
ARC
  5
17D
  8
52
 10
437.40225757721367
 20
360.28849082423318
 30
0.0
 40
2.0
 50
15.572995999460909
 51
44.427004000537252
  0
ARC
  5
17E
  8
61
 10
767.42796459047315
 20
360.28849082423318
 30
0.0
 40
2.0
 50
15.57299599945409
 51
44.42700400053613
  0
LINE
  5
17F
  8
61
 10
766.67796459047315
 20
358.78752892991719
 30
0.0
 11
765.50138618231892
 21
360.82542251192888
 31
0.0
  0
LINE
  5
180
  8
61
 10
769.35454299862749
 20
360.82542251192871
 30
0.0
 11
768.17796459047315
 21
358.78752892991702
 31
0.0
  0
LINE
  5
181
  8
61
 10
765.99967890475477
 20
361.68849082422969
 30
0.0
 11
768.85625027619164
 21
361.68849082422969
 31
0.0
  0
ARC
  5
182
  8
61
 10
767.42796459047315
 20
360.28849082423318
 30
0.0
 40
2.0
 50
135.57299599946271
 51
164.427004000539
  0
LINE
  5
183
  8
61
 10
766.67796459047315
 20
356.43581318394212
 30
0.0
 11
766.67796459047315
 21
358.78752892991707
 31
0.0
  0
ARC
  5
184
  8
61
 10
767.42796459047315
 20
360.28849082423318
 30
0.0
 40
3.9249999999999998
 50
258.98401794378202
 51
281.01598205621792
  0
LINE
  5
185
  8
61
 10
768.17796459047315
 20
356.43581318394212
 30
0.0
 11
768.17796459047315
 21
358.78752892991719
 31
0.0
  0
LINE
  5
186
  8
61
 10
768.17796459047315
 20
248.4358131839422
 30
0.0
 11
768.17796459047315
 21
250.78752892991719
 31
0.0
  0
ARC
  5
187
  8
61
 10
767.42796459047315
 20
252.28849082423341
 30
0.0
 40
3.9249999999999998
 50
258.98401794378202
 51
281.01598205621792
  0
LINE
  5
188
  8
61
 10
766.67796459047315
 20
248.4358131839422
 30
0.0
 11
766.67796459047315
 21
250.78752892991719
 31
0.0
  0
LINE
  5
189
  8
61
 10
656.67796459047349
 20
256.14116846452453
 30
0.0
 11
656.67796459047349
 21
253.78945271854951
 31
0.0
  0
LINE
  5
18A
  8
61
 10
658.17796459047349
 20
256.14116846452453
 30
0.0
 11
658.17796459047349
 21
253.7894527185496
 31
0.0
  0
ARC
  5
18B
  8
61
 10
657.42796459047338
 20
252.28849082423341
 30
0.0
 40
3.9249999999999998
 50
78.98401794378205
 51
101.01598205621789
  0
ARC
  5
18C
  8
61
 10
657.42796459047338
 20
360.28849082423329
 30
0.0
 40
3.9249999999999998
 50
78.98401794378205
 51
101.01598205621789
  0
LINE
  5
18D
  8
61
 10
658.17796459047349
 20
364.14116846452453
 30
0.0
 11
658.17796459047349
 21
361.78945271854951
 31
0.0
  0
LINE
  5
18E
  8
61
 10
656.67796459047349
 20
364.14116846452453
 30
0.0
 11
656.67796459047349
 21
361.7894527185494
 31
0.0
  0
LINE
  5
18F
  8
31
 10
806.89590453541427
 20
362.78849082423318
 30
0.0
 11
806.89590453541427
 21
306.28849082423329
 31
0.0
  0
LINE
  5
190
  8
31
 10
830.89594261235015
 20
366.07904566496262
 30
0.0
 11
830.89594261235015
 21
306.28849082423329
 31
0.0
  0
LINE
  5
191
  8
31
 10
831.89590453541427
 20
247.50666251900239
 30
0.0
 11
830.89594261235015
 21
246.49793598350399
 31
0.0
  0
LINE
  5
192
  8
33
  6
DASHED
 10
806.19328451618708
 20
267.4410860200091
 30
0.0
 11
828.4002678031635
 21
267.6348834271854
 31
0.0
  0
LINE
  5
193
  8
31
 10
806.89590453541427
 20
249.78849082423341
 30
0.0
 11
806.89590453541427
 21
246.28849082423341
 31
0.0
  0
LINE
  5
194
  8
31
 10
806.89590453541427
 20
246.28849082423349
 30
0.0
 11
830.89594261235015
 21
246.49793598350399
 31
0.0
  0
LINE
  5
195
  8
31
 10
806.19066881348306
 20
249.8008007595495
 30
0.0
 11
806.89590453541427
 21
249.78849082423349
 31
0.0
  0
ARC
  5
196
  8
31
 10
806.19590453541412
 20
250.1007550680963
 30
0.0
 40
0.3
 50
180.0
 51
268.99999999999989
  0
ARC
  5
197
  8
33
  6
DASHED
 10
828.39590453541416
 20
268.13486438871752
 30
0.0
 40
0.5
 50
270.49999999999801
 51
0.0
  0
LINE
  5
198
  8
31
 10
830.89594261235015
 20
246.49793598350399
 30
0.0
 11
830.89594261235015
 21
306.28849082423341
 31
0.0
  0
LINE
  5
199
  8
31
 10
806.89590453541427
 20
249.78849082423349
 30
0.0
 11
806.89590453541427
 21
306.28849082423341
 31
0.0
  0
LINE
  5
19A
  8
21
 10
654.92796459047315
 20
406.0527017136057
 30
0.0
 11
769.92796459047327
 21
406.0527017136057
 31
0.0
  0
LINE
  5
19B
  8
21
 10
651.63740974974382
 20
430.05273979054152
 30
0.0
 11
773.21851943120271
 21
430.05273979054158
 31
0.0
  0
LINE
  5
19C
  8
41
 10
617.96002464553203
 20
249.78849082423349
 30
0.0
 11
617.96002464553203
 21
306.28849082423341
 31
0.0
  0
LINE
  5
19D
  8
41
 10
593.95998656859615
 20
246.49793598350399
 30
0.0
 11
593.95998656859615
 21
306.28849082423341
 31
0.0
  0
ARC
  5
19E
  8
43
  6
DASHED
 10
596.46002464553203
 20
268.13486438871752
 30
0.0
 40
0.5
 50
180.0
 51
269.50000000000188
  0
ARC
  5
19F
  8
41
 10
618.66002464553196
 20
250.1007550680963
 30
0.0
 40
0.3
 50
271.0
 51
0.0
  0
LINE
  5
1A0
  8
41
 10
618.66526036746313
 20
249.8008007595495
 30
0.0
 11
617.96002464553203
 21
249.78849082423349
 31
0.0
  0
LINE
  5
1A1
  8
41
 10
617.96002464553203
 20
246.28849082423349
 30
0.0
 11
593.95998656859615
 21
246.49793598350399
 31
0.0
  0
LINE
  5
1A2
  8
41
 10
617.96002464553203
 20
249.78849082423341
 30
0.0
 11
617.96002464553203
 21
246.28849082423341
 31
0.0
  0
LINE
  5
1A3
  8
43
  6
DASHED
 10
618.66264466475923
 20
267.4410860200091
 30
0.0
 11
596.4556613777828
 21
267.6348834271854
 31
0.0
  0
LINE
  5
1A4
  8
41
 10
592.96002464553203
 20
247.50666251900239
 30
0.0
 11
593.95998656859615
 21
246.49793598350399
 31
0.0
  0
LINE
  5
1A5
  8
41
 10
593.95998656859615
 20
366.07904566496262
 30
0.0
 11
593.95998656859615
 21
306.28849082423329
 31
0.0
  0
LINE
  5
1A6
  8
41
 10
617.96002464553203
 20
362.78849082423318
 30
0.0
 11
617.96002464553203
 21
306.28849082423329
 31
0.0
  0
LINE
  5
1A7
  8
41
 10
592.96002464553203
 20
365.07031912946428
 30
0.0
 11
593.95998656859615
 21
366.07904566496262
 31
0.0
  0
LINE
  5
1A8
  8
43
  6
DASHED
 10
618.66264466475923
 20
345.13589562845749
 30
0.0
 11
596.4556613777828
 21
344.9420982212813
 31
0.0
  0
LINE
  5
1A9
  8
41
 10
617.96002464553203
 20
362.78849082423329
 30
0.0
 11
617.96002464553203
 21
366.28849082423329
 31
0.0
  0
LINE
  5
1AA
  8
41
 10
617.96002464553203
 20
366.28849082423318
 30
0.0
 11
593.95998656859615
 21
366.07904566496262
 31
0.0
  0
LINE
  5
1AB
  8
41
 10
618.66526036746313
 20
362.77618088891722
 30
0.0
 11
617.96002464553203
 21
362.78849082423318
 31
0.0
  0
ARC
  5
1AC
  8
41
 10
618.66002464553196
 20
362.47622658037028
 30
0.0
 40
0.3
 50
0.0
 51
88.999999999999957
  0
LINE
  5
1AD
  8
43
  6
DASHED
 10
595.96002464553203
 20
344.44211725974918
 30
0.0
 11
595.96002464553203
 21
268.13486438871752
 31
0.0
  0
LINE
  5
1AE
  8
41
 10
618.96002464553203
 20
362.47622658037028
 30
0.0
 11
618.96002464553203
 21
250.1007550680963
 31
0.0
  0
LINE
  5
1AF
  8
41
 10
592.96002464553203
 20
365.07031912946428
 30
0.0
 11
592.96002464553203
 21
247.5066625190023
 31
0.0
  0
LINE
  5
1B0
  8
43
 10
622.76701440567342
 20
306.28849082423329
 30
0.0
 11
591.53583461056155
 21
306.28849082423329
 31
0.0
  0
ARC
  5
1B1
  8
43
  6
DASHED
 10
596.46002464553203
 20
344.44211725974918
 30
0.0
 40
0.5
 50
90.499999999997982
 51
180.0
  0
TEXT
  5
1B2
  8
63
 10
454.3070656929134
 20
408.80786764383009
 30
0.0
 40
9.1619423485117473
  1
FIBOX EURONORD II
  7
ISO
  0
LINE
  5
1B4
  8
63
 10
776.42796459047315
 20
306.28849082423329
 30
0.0
 11
648.42796459047338
 21
306.28849082423329
 31
0.0
  0
LINE
  5
1B5
  8
23
 10
712.42796459047315
 20
434.0527017136057
 30
0.0
 11
712.42796459047315
 21
402.0527017136057
 31
0.0
  0
LINE
  5
1B6
  8
11
 10
651.63740974974382
 20
182.52424185792509
 30
0.0
 11
773.21851943120271
 21
182.52424185792501
 31
0.0
  0
LINE
  5
1B7
  8
11
 10
654.92796459047315
 20
206.52427993486091
 30
0.0
 11
769.92796459047327
 21
206.52427993486091
 31
0.0
  0
LINE
  5
1B8
  8
11
 10
652.64613628524216
 20
181.52427993486091
 30
0.0
 11
772.20979289570425
 21
181.52427993486091
 31
0.0
  0
LINE
  5
1B9
  8
11
 10
655.24022883433634
 20
207.52427993486091
 30
0.0
 11
769.61570034661031
 21
207.52427993486091
 31
0.0
  0
LINE
  5
1BA
  8
13
  6
DASHED
 10
665.27433815495749
 20
184.524279934861
 30
0.0
 11
759.58159102598927
 21
184.524279934861
 31
0.0
  0
LINE
  5
1BB
  8
11
 10
651.42796459047315
 20
206.52427993486091
 30
0.0
 11
651.63740974974382
 21
182.52424185792509
 31
0.0
  0
LINE
  5
1BC
  8
13
  6
DASHED
 10
664.58055980421386
 20
207.22689789551029
 30
0.0
 11
664.77435719342543
 21
185.01991666711189
 31
0.0
  0
ARC
  5
1BD
  8
11
 10
655.24022883433611
 20
207.22427993486099
 30
0.0
 40
0.3
 50
90.0
 51
178.99999999999989
  0
LINE
  5
1BE
  8
11
 10
654.94027452578905
 20
207.22951565679199
 30
0.0
 11
654.92796459047315
 21
206.52427993486091
 31
0.0
  0
LINE
  5
1BF
  8
11
 10
654.92796459047315
 20
206.52427993486091
 30
0.0
 11
651.42796459047315
 21
206.52427993486091
 31
0.0
  0
ARC
  5
1C0
  8
11
 10
664.28057122729558
 20
207.22427993486099
 30
0.0
 40
0.3
 50
0.4999999999654153
 51
90.0
  0
LINE
  5
1C1
  8
11
 10
651.63740974974382
 20
182.52424185792509
 30
0.0
 11
652.64613628524216
 21
181.52427993486091
 31
0.0
  0
ARC
  5
1C2
  8
13
  6
DASHED
 10
665.27433815495749
 20
185.024279934861
 30
0.0
 40
0.5
 50
180.49999999999821
 51
270.0
  0
LINE
  5
1C3
  8
13
 10
712.42796459047315
 20
178.52427993486091
 30
0.0
 11
712.42796459047315
 21
210.52427993486091
 31
0.0
  0
LINE
  5
1C4
  8
13
  6
DASHED
 10
760.27536937673256
 20
207.22689789551029
 30
0.0
 11
760.08157198752122
 21
185.0199166671118
 31
0.0
  0
LINE
  5
1C5
  8
11
 10
773.42796459047315
 20
206.52427993486091
 30
0.0
 11
773.21851943120271
 21
182.52424185792509
 31
0.0
  0
ARC
  5
1C6
  8
11
 10
760.57535795365095
 20
207.22427993486099
 30
0.0
 40
0.3
 50
90.0
 51
179.5000000000345
  0
LINE
  5
1C7
  8
11
 10
769.92796459047327
 20
206.52427993486091
 30
0.0
 11
773.42796459047327
 21
206.52427993486091
 31
0.0
  0
LINE
  5
1C8
  8
11
 10
769.91565465515725
 20
207.22951565679199
 30
0.0
 11
769.92796459047327
 21
206.52427993486091
 31
0.0
  0
ARC
  5
1C9
  8
11
 10
769.61570034661031
 20
207.22427993486099
 30
0.0
 40
0.3
 50
1.0000000000000391
 51
90.0
  0
ARC
  5
1CA
  8
13
  6
DASHED
 10
759.58159102598927
 20
185.024279934861
 30
0.0
 40
0.5
 50
269.99999999999989
 51
359.50000000000199
  0
LINE
  5
1CB
  8
11
 10
773.21851943120271
 20
182.52424185792509
 30
0.0
 11
772.20979289570425
 21
181.52427993486091
 31
0.0
  0
LINE
  5
1CC
  8
53
 10
492.4022575772139
 20
369.28849082423329
 30
0.0
 11
492.4022575772139
 21
243.28849082423329
 31
0.0
  0
LINE
  5
1CD
  8
53
 10
428.4022575772139
 20
306.28849082423329
 30
0.0
 11
556.40225757721385
 21
306.28849082423329
 31
0.0
  0
TEXT
  5
1D5
  8
63
 10
454.3070656929134
 20
392.38841927254282
 30
0.0
 40
9.1619423485117473
  1
120x122x25 COVER
  7
ISO
  0
ENDSEC
  0
EOF
