  0
SECTION
  2
HEADER
  9
$ACADVER
  1
AC1014
  9
$ACADMAINTVER
 70
     9
  9
$DWGCODEPAGE
  3
ANSI_1252
  9
$INSBASE
 10
0.0
 20
0.0
 30
0.0
  9
$EXTMIN
 10
0.0
 20
0.0
 30
0.0
  9
$EXTMAX
 10
2100.0
 20
1485.0
 30
0.0
  9
$LIMMIN
 10
0.0
 20
0.0
  9
$LIMMAX
 10
2100.0
 20
1485.0
  9
$ORTHOMODE
 70
     0
  9
$REGENMODE
 70
     1
  9
$FILLMODE
 70
     1
  9
$QTEXTMODE
 70
     0
  9
$MIRRTEXT
 70
     1
  9
$DRAGMODE
 70
     2
  9
$LTSCALE
 40
5.0
  9
$OSMODE
 70
    37
  9
$ATTMODE
 70
     1
  9
$TEXTSIZE
 40
17.5
  9
$TRACEWID
 40
1.0
  9
$TEXTSTYLE
  7
STANDARD
  9
$CLAYER
  8
0
  9
$CELTYPE
  6
BYLAYER
  9
$CECOLOR
 62
   256
  9
$CELTSCALE
 40
1.0
  9
$DELOBJ
 70
     1
  9
$DISPSILH
 70
     0
  9
$DIMSCALE
 40
1.0
  9
$DIMASZ
 40
30.0
  9
$DIMEXO
 40
5.0
  9
$DIMDLI
 40
3.75
  9
$DIMRND
 40
0.0
  9
$DIMDLE
 40
0.0
  9
$DIMEXE
 40
5.0
  9
$DIMTP
 40
0.0
  9
$DIMTM
 40
0.0
  9
$DIMTXT
 40
17.5
  9
$DIMCEN
 40
2.5
  9
$DIMTSZ
 40
0.0
  9
$DIMTOL
 70
     0
  9
$DIMLIM
 70
     0
  9
$DIMTIH
 70
     1
  9
$DIMTOH
 70
     1
  9
$DIMSE1
 70
     0
  9
$DIMSE2
 70
     0
  9
$DIMTAD
 70
     1
  9
$DIMZIN
 70
     0
  9
$DIMBLK
  1

  9
$DIMASO
 70
     1
  9
$DIMSHO
 70
     1
  9
$DIMPOST
  1

  9
$DIMAPOST
  1

  9
$DIMALT
 70
     0
  9
$DIMALTD
 70
     3
  9
$DIMALTF
 40
0.0393700787
  9
$DIMLFAC
 40
1.0
  9
$DIMTOFL
 70
     1
  9
$DIMTVP
 40
0.0
  9
$DIMTIX
 70
     0
  9
$DIMSOXD
 70
     0
  9
$DIMSAH
 70
     0
  9
$DIMBLK1
  1

  9
$DIMBLK2
  1

  9
$DIMSTYLE
  2
ISO-25
  9
$DIMCLRD
 70
     0
  9
$DIMCLRE
 70
     0
  9
$DIMCLRT
 70
     0
  9
$DIMTFAC
 40
1.0
  9
$DIMGAP
 40
7.62
  9
$DIMJUST
 70
     0
  9
$DIMSD1
 70
     0
  9
$DIMSD2
 70
     0
  9
$DIMTOLJ
 70
     0
  9
$DIMTZIN
 70
     0
  9
$DIMALTZ
 70
     0
  9
$DIMALTTZ
 70
     0
  9
$DIMFIT
 70
     3
  9
$DIMUPT
 70
     0
  9
$DIMUNIT
 70
     2
  9
$DIMDEC
 70
     2
  9
$DIMTDEC
 70
     2
  9
$DIMALTU
 70
     2
  9
$DIMALTTD
 70
     3
  9
$DIMTXSTY
  7
STANDARD
  9
$DIMAUNIT
 70
     0
  9
$LUNITS
 70
     2
  9
$LUPREC
 70
     2
  9
$SKETCHINC
 40
1.0
  9
$FILLETRAD
 40
10.0
  9
$AUNITS
 70
     0
  9
$AUPREC
 70
     2
  9
$MENU
  1
.
  9
$ELEVATION
 40
0.0
  9
$PELEVATION
 40
0.0
  9
$THICKNESS
 40
0.0
  9
$LIMCHECK
 70
     0
  9
$CHAMFERA
 40
10.0
  9
$CHAMFERB
 40
10.0
  9
$CHAMFERC
 40
20.0
  9
$CHAMFERD
 40
0.0
  9
$SKPOLY
 70
     0
  9
$TDCREATE
 40
2455561.631124306
  9
$TDUPDATE
 40
2455561.631124317
  9
$TDINDWG
 40
0.0000000116
  9
$TDUSRTIMER
 40
0.0000000116
  9
$USRTIMER
 70
     1
  9
$ANGBASE
 50
0.0
  9
$ANGDIR
 70
     0
  9
$PDMODE
 70
     0
  9
$PDSIZE
 40
-1.0
  9
$PLINEWID
 40
0.0
  9
$COORDS
 70
     1
  9
$SPLFRAME
 70
     0
  9
$SPLINETYPE
 70
     6
  9
$SPLINESEGS
 70
     8
  9
$ATTDIA
 70
     0
  9
$ATTREQ
 70
     1
  9
$HANDLING
 70
     1
  9
$HANDSEED
  5
54B
  9
$SURFTAB1
 70
     6
  9
$SURFTAB2
 70
     6
  9
$SURFTYPE
 70
     6
  9
$SURFU
 70
     6
  9
$SURFV
 70
     6
  9
$UCSNAME
  2

  9
$UCSORG
 10
0.0
 20
0.0
 30
0.0
  9
$UCSXDIR
 10
1.0
 20
0.0
 30
0.0
  9
$UCSYDIR
 10
0.0
 20
1.0
 30
0.0
  9
$PUCSNAME
  2

  9
$PUCSORG
 10
0.0
 20
0.0
 30
0.0
  9
$PUCSXDIR
 10
1.0
 20
0.0
 30
0.0
  9
$PUCSYDIR
 10
0.0
 20
1.0
 30
0.0
  9
$USERI1
 70
     0
  9
$USERI2
 70
     0
  9
$USERI3
 70
     0
  9
$USERI4
 70
     0
  9
$USERI5
 70
     0
  9
$USERR1
 40
0.0
  9
$USERR2
 40
0.0
  9
$USERR3
 40
0.0
  9
$USERR4
 40
0.0
  9
$USERR5
 40
0.0
  9
$WORLDVIEW
 70
     1
  9
$SHADEDGE
 70
     3
  9
$SHADEDIF
 70
    70
  9
$TILEMODE
 70
     1
  9
$MAXACTVP
 70
    64
  9
$PINSBASE
 10
0.0
 20
0.0
 30
0.0
  9
$PLIMCHECK
 70
     0
  9
$PEXTMIN
 10
1.0000000000E+20
 20
1.0000000000E+20
 30
1.0000000000E+20
  9
$PEXTMAX
 10
-1.0000000000E+20
 20
-1.0000000000E+20
 30
-1.0000000000E+20
  9
$PLIMMIN
 10
0.0
 20
0.0
  9
$PLIMMAX
 10
420.0
 20
297.0
  9
$UNITMODE
 70
     0
  9
$VISRETAIN
 70
     1
  9
$PLINEGEN
 70
     0
  9
$PSLTSCALE
 70
     1
  9
$TREEDEPTH
 70
  3020
  9
$PICKSTYLE
 70
     1
  9
$CMLSTYLE
  2
STANDARD
  9
$CMLJUST
 70
     0
  9
$CMLSCALE
 40
20.0
  9
$PROXYGRAPHICS
 70
     1
  9
$MEASUREMENT
 70
     1
  0
ENDSEC
  0
SECTION
  2
CLASSES
  0
CLASS
  1
ACDBDICTIONARYWDFLT
  2
AcDbDictionaryWithDefault
  3
ObjectDBX Classes
 90
        0
280
     0
281
     0
  0
CLASS
  1
VISUALSTYLE
  2
AcDbVisualStyle
  3
ObjectDBX Classes
 90
     4095
280
     0
281
     0
  0
CLASS
  1
MATERIAL
  2
AcDbMaterial
  3
ObjectDBX Classes
 90
     1153
280
     0
281
     0
  0
CLASS
  1
XRECORD
  2
AcDbXrecord
  3
AutoCAD 2000
 90
        0
280
     0
281
     0
  0
CLASS
  1
LWPOLYLINE
  2
AcDbPolyline
  3
AutoCAD 2000
 90
        0
280
     0
281
     1
  0
CLASS
  1
HATCH
  2
AcDbHatch
  3
AutoCAD 2000
 90
        0
280
     0
281
     1
  0
ENDSEC
  0
SECTION
  2
TABLES
  0
TABLE
  2
VPORT
  5
8
330
0
100
AcDbSymbolTable
 70
     1
  0
VPORT
  5
29
330
8
100
AcDbSymbolTableRecord
100
AcDbViewportTableRecord
  2
*ACTIVE
 70
     0
 10
0.0
 20
0.0
 11
1.0
 21
1.0
 12
1050.0
 22
742.5
 13
0.0
 23
0.0
 14
10.0
 24
10.0
 15
10.0
 25
10.0
 16
0.0
 26
0.0
 36
1.0
 17
0.0
 27
0.0
 37
0.0
 40
1485.0
 41
1.4141414141
 42
50.0
 43
0.0
 44
0.0
 50
0.0
 51
0.0
 71
     0
 72
  2000
 73
     1
 74
     3
 75
     0
 76
     0
 77
     0
 78
     0
  0
ENDTAB
  0
TABLE
  2
LTYPE
  5
5
330
0
100
AcDbSymbolTable
 70
     6
  0
LTYPE
  5
14
330
5
100
AcDbSymbolTableRecord
100
AcDbLinetypeTableRecord
  2
BYBLOCK
 70
     0
  3

 72
    65
 73
     0
 40
0.0
  0
LTYPE
  5
15
330
5
100
AcDbSymbolTableRecord
100
AcDbLinetypeTableRecord
  2
BYLAYER
 70
     0
  3

 72
    65
 73
     0
 40
0.0
  0
LTYPE
  5
16
330
5
100
AcDbSymbolTableRecord
100
AcDbLinetypeTableRecord
  2
CONTINUOUS
 70
     0
  3
Solid line
 72
    65
 73
     0
 40
0.0
  0
LTYPE
  5
3F
330
5
100
AcDbSymbolTableRecord
100
AcDbLinetypeTableRecord
  2
HIDDEN
 70
     0
  3
Hidden __ __ __ __ __ __ __ __ __ __ __ __ __ __
 72
    65
 73
     2
 40
1.905
 49
1.27
 74
     0
 49
-0.635
 74
     0
  0
LTYPE
  5
40
330
5
100
AcDbSymbolTableRecord
100
AcDbLinetypeTableRecord
  2
PHANTOM
 70
     0
  3
Phantom ______  __  __  ______  __  __  ______
 72
    65
 73
     6
 40
12.7
 49
6.35
 74
     0
 49
-1.27
 74
     0
 49
1.27
 74
     0
 49
-1.27
 74
     0
 49
1.27
 74
     0
 49
-1.27
 74
     0
  0
LTYPE
  5
41
330
5
100
AcDbSymbolTableRecord
100
AcDbLinetypeTableRecord
  2
CENTER
 70
     0
  3
Center ____ _ ____ _ ____ _ ____ _ ____ _ ____
 72
    65
 73
     4
 40
10.16
 49
6.35
 74
     0
 49
-1.27
 74
     0
 49
1.27
 74
     0
 49
-1.27
 74
     0
  0
LTYPE
  5
42
330
5
100
AcDbSymbolTableRecord
100
AcDbLinetypeTableRecord
  2
CENTERX2
 70
     0
  3
Center (2x) ________  __  ________  __  _____
 72
    65
 73
     4
 40
20.32
 49
12.7
 74
     0
 49
-2.54
 74
     0
 49
2.54
 74
     0
 49
-2.54
 74
     0
  0
LTYPE
  5
43
330
5
100
AcDbSymbolTableRecord
100
AcDbLinetypeTableRecord
  2
DOT2
 70
     0
  3
Dot (.5x) ........................................
 72
    65
 73
     2
 40
0.635
 49
0.0
 74
     0
 49
-0.635
 74
     0
  0
ENDTAB
  0
TABLE
  2
LAYER
  5
2
330
0
100
AcDbSymbolTable
 70
     1
  0
LAYER
  5
10
330
2
100
AcDbSymbolTableRecord
100
AcDbLayerTableRecord
  2
0
 70
     0
 62
     7
  6
CONTINUOUS
  0
ENDTAB
  0
TABLE
  2
STYLE
  5
3
330
0
100
AcDbSymbolTable
 70
     1
  0
STYLE
  5
11
330
3
100
AcDbSymbolTableRecord
100
AcDbTextStyleTableRecord
  2
STANDARD
 70
     0
 40
0.0
 41
1.0
 50
0.0
 71
     0
 42
2.5
  3
txt
  4

  0
ENDTAB
  0
TABLE
  2
VIEW
  5
6
330
0
100
AcDbSymbolTable
 70
     0
  0
ENDTAB
  0
TABLE
  2
UCS
  5
7
330
0
100
AcDbSymbolTable
 70
     0
  0
ENDTAB
  0
TABLE
  2
APPID
  5
9
330
0
100
AcDbSymbolTable
 70
     1
  0
APPID
  5
12
330
9
100
AcDbSymbolTableRecord
100
AcDbRegAppTableRecord
  2
ACAD
 70
     0
  0
ENDTAB
  0
TABLE
  2
DIMSTYLE
  5
A
330
0
100
AcDbSymbolTable
 70
     1
  0
DIMSTYLE
105
27
330
A
100
AcDbSymbolTableRecord
100
AcDbDimStyleTableRecord
  2
ISO-25
 70
     0
  3

  4

  5

  6

  7

 40
1.0
 41
2.5
 42
0.625
 43
3.75
 44
1.25
 45
0.0
 46
0.0
 47
0.0
 48
0.0
140
2.5
141
2.5
142
0.0
143
0.0393700787
144
1.0
145
0.0
146
1.0
147
0.625
 71
     0
 72
     0
 73
     0
 74
     0
 75
     0
 76
     0
 77
     1
 78
     8
170
     0
171
     3
172
     1
173
     0
174
     0
175
     0
176
     0
177
     0
178
     0
270
     2
271
     2
272
     2
273
     2
274
     3
340
11
275
     0
280
     0
281
     0
282
     0
283
     0
284
     8
285
     0
286
     0
287
     3
288
     0
  0
ENDTAB
  0
TABLE
  2
BLOCK_RECORD
  5
1
330
0
100
AcDbSymbolTable
 70
     1
  0
BLOCK_RECORD
  5
1F
330
1
100
AcDbSymbolTableRecord
100
AcDbBlockTableRecord
  2
*MODEL_SPACE
  0
BLOCK_RECORD
  5
1B
330
1
100
AcDbSymbolTableRecord
100
AcDbBlockTableRecord
  2
*PAPER_SPACE
  0
BLOCK_RECORD
  5
23
330
1
100
AcDbSymbolTableRecord
100
AcDbBlockTableRecord
  2
*PAPER_SPACE0
  0
ENDTAB
  0
ENDSEC
  0
SECTION
  2
BLOCKS
  0
BLOCK
  5
20
330
1F
100
AcDbEntity
  8
0
100
AcDbBlockBegin
  2
*MODEL_SPACE
 70
     0
 10
0.0
 20
0.0
 30
0.0
  3
*MODEL_SPACE
  1

  0
ENDBLK
  5
21
330
1F
100
AcDbEntity
  8
0
100
AcDbBlockEnd
  0
BLOCK
  5
1C
330
1B
100
AcDbEntity
 67
     1
  8
0
100
AcDbBlockBegin
  2
*PAPER_SPACE
 70
     0
 10
0.0
 20
0.0
 30
0.0
  3
*PAPER_SPACE
  1

  0
ENDBLK
  5
1D
330
1B
100
AcDbEntity
 67
     1
  8
0
100
AcDbBlockEnd
  0
BLOCK
  5
24
330
23
100
AcDbEntity
  8
0
100
AcDbBlockBegin
  2
*PAPER_SPACE0
 70
     0
 10
0.0
 20
0.0
 30
0.0
  3
*PAPER_SPACE0
  1

  0
ENDBLK
  5
25
330
23
100
AcDbEntity
  8
0
100
AcDbBlockEnd
  0
ENDSEC
  0
SECTION
  2
ENTITIES
  0
LWPOLYLINE
  5
44
330
1F
100
AcDbEntity
  8
0
  6
CONTINUOUS
 62
     7
100
AcDbPolyline
 90
        3
 70
   128
 43
0.0
 10
1177.2333334015
 20
1144.75263076
 10
1176.8353829907
 20
1144.8452135371
 10
1176.4040986822
 20
1144.897332211
  0
LWPOLYLINE
  5
45
330
1F
100
AcDbEntity
  8
0
  6
CONTINUOUS
 62
     7
100
AcDbPolyline
 90
        3
 70
   128
 43
0.0
 10
893.9126531408
 20
1144.8837311761
 10
893.7229613588
 20
1144.8628667565
 10
893.479208164
 20
1144.8185888873
  0
LINE
  5
46
330
1F
100
AcDbEntity
  8
0
  6
CONTINUOUS
 62
     7
100
AcDbLine
 10
1178.6563644932
 20
1142.9843956428
 30
0.0
 11
1178.6257128046
 21
1143.3085080059
 31
0.0
  0
LINE
  5
47
330
1F
100
AcDbEntity
  8
0
  6
CONTINUOUS
 62
     7
100
AcDbLine
 10
891.8846349047
 20
1143.3085080059
 30
0.0
 11
891.8428967522
 21
1142.9801590564
 31
0.0
  0
LWPOLYLINE
  5
48
330
1F
100
AcDbEntity
  8
0
  6
CONTINUOUS
 62
     7
100
AcDbPolyline
 90
        3
 70
   128
 43
0.0
 10
1159.0018446372
 20
1146.2623065161
 10
1159.0056295322
 20
1146.3827749537
 10
1159.0267072247
 20
1146.4991790997
  0
LWPOLYLINE
  5
49
330
1F
100
AcDbEntity
  8
0
  6
CONTINUOUS
 62
     7
100
AcDbPolyline
 90
        3
 70
   128
 43
0.0
 10
911.4962617682
 20
1146.3986661108
 10
911.5064392613
 20
1146.3260164307
 10
911.5085030721
 20
1146.2623065161
  0
LWPOLYLINE
  5
4A
330
1F
100
AcDbEntity
  8
0
  6
CONTINUOUS
 62
     7
100
AcDbPolyline
 90
        9
 70
   128
 43
0.0
 10
905.4760436342
 20
1145.4327495592
 10
905.4578046129
 20
1145.1358588235
 10
905.5249790476
 20
1145.0144506814
 10
905.8977017925
 20
1144.9924714686
 10
906.4371536301
 20
1144.9923839243
 10
907.6009343193
 20
1144.9924127953
 10
908.5615227745
 20
1144.992556219
 10
909.5946500824
 20
1144.9927918436
 10
910.9603340552
 20
1144.9932211833
  0
LWPOLYLINE
  5
4B
330
1F
100
AcDbEntity
  8
0
  6
CONTINUOUS
 62
     7
100
AcDbPolyline
 90
        8
 70
   128
 43
0.0
 10
1161.4247510956
 20
1144.9680102812
 10
1162.3852948473
 20
1144.9679655777
 10
1163.7991468237
 20
1144.9679395007
 10
1164.8259560392
 20
1144.967972097
 10
1165.0017152355
 20
1144.9741467657
 10
1165.0679806994
 20
1145.016274211
 10
1165.0359432028
 20
1145.1562221916
 10
1165.0161246584
 20
1145.4316217275
  0
LWPOLYLINE
  5
4C
330
1F
100
AcDbEntity
  8
0
  6
CONTINUOUS
 62
     7
100
AcDbPolyline
 90
        3
 70
   128
 43
0.0
 10
905.1555941628
 20
1144.9930973174
 10
905.1555792616
 20
1144.9930963861
 10
905.0569037722
 20
1144.9681229712
  0
LINE
  5
4D
330
1F
100
AcDbEntity
  8
0
  6
CONTINUOUS
 62
     7
100
AcDbLine
 10
1165.2022848652
 20
1145.0945509421
 30
0.0
 11
1165.1886503027
 21
1145.1100537377
 31
0.0
  0
LINE
  5
4E
330
1F
100
AcDbEntity
  8
0
  6
CONTINUOUS
 62
     7
100
AcDbLine
 10
1176.8403003738
 20
1144.8472084301
 30
0.0
 11
1176.5253345297
 21
1144.8880459936
 31
0.0
  0
LINE
  5
4F
330
1F
100
AcDbEntity
  8
0
  6
CONTINUOUS
 62
     7
100
AcDbLine
 10
897.3315159605
 20
1142.9762260811
 30
0.0
 11
895.7607547567
 21
1143.015823123
 31
0.0
  0
LINE
  5
50
330
1F
100
AcDbEntity
  8
0
  6
CONTINUOUS
 62
     7
100
AcDbLine
 10
897.3315159605
 20
1142.9762242185
 30
0.0
 11
896.4783797787
 21
1126.6971722068
 31
0.0
  0
LINE
  5
51
330
1F
100
AcDbEntity
  8
0
  6
CONTINUOUS
 62
     7
100
AcDbLine
 10
890.9859160708
 20
1126.6971722068
 30
0.0
 11
891.8390671537
 21
1142.9762242185
 31
0.0
  0
LINE
  5
52
330
1F
100
AcDbEntity
  8
0
  6
CONTINUOUS
 62
     7
100
AcDbLine
 10
891.8674091623
 20
1142.9810698899
 30
0.0
 11
891.8390671537
 21
1142.9762242185
 31
0.0
  0
ARC
  5
53
330
1F
100
AcDbEntity
  8
0
  6
CONTINUOUS
 62
     7
100
AcDbCircle
 10
893.91572278
 20
1107.7306242764
 30
0.0
 40
35.33340160799362
100
AcDbArc
 50
87.0067799709
 51
92.9932200291
  0
LWPOLYLINE
  5
54
330
1F
100
AcDbEntity
  8
0
  6
CONTINUOUS
 62
     7
100
AcDbPolyline
 90
        7
 70
   128
 43
0.0
 10
890.9859160708
 20
1126.6971722068
 10
891.1008338259
 20
1126.6975801261
 10
891.4282570408
 20
1126.6977654593
 10
892.5937066601
 20
1126.6971750008
 10
894.317100458
 20
1126.697764528
 10
895.3595558928
 20
1126.6975791948
 10
896.4783797787
 20
1126.6971722068
  0
LINE
  5
55
330
1F
100
AcDbEntity
  8
0
  6
CONTINUOUS
 62
     7
100
AcDbLine
 10
1173.1788317488
 20
1142.9762242185
 30
0.0
 11
1174.0319679306
 21
1126.6971722068
 31
0.0
  0
LINE
  5
56
330
1F
100
AcDbEntity
  8
0
  6
CONTINUOUS
 62
     7
100
AcDbLine
 10
1173.1788317488
 20
1142.9762242185
 30
0.0
 11
897.3315159605
 21
1142.9762242185
 31
0.0
  0
LINE
  5
57
330
1F
100
AcDbEntity
  8
0
  6
CONTINUOUS
 62
     7
100
AcDbLine
 10
1174.0319679306
 20
1126.6971722068
 30
0.0
 11
896.4783797787
 21
1126.6971722068
 31
0.0
  0
LINE
  5
58
330
1F
100
AcDbEntity
  8
0
  6
CONTINUOUS
 62
     7
100
AcDbLine
 10
1178.6155651138
 20
1142.9857516484
 30
0.0
 11
1178.6712805555
 21
1142.9762260811
 31
0.0
  0
LINE
  5
59
330
1F
100
AcDbEntity
  8
0
  6
CONTINUOUS
 62
     7
100
AcDbLine
 10
1179.5244316385
 20
1126.6971722068
 30
0.0
 11
1178.6712805555
 21
1142.9762242185
 31
0.0
  0
LINE
  5
5A
330
1F
100
AcDbEntity
  8
0
  6
CONTINUOUS
 62
     7
100
AcDbLine
 10
1173.1788317488
 20
1142.9762242185
 30
0.0
 11
1174.7495929525
 21
1143.0158212604
 31
0.0
  0
ARC
  5
5B
330
1F
100
AcDbEntity
  8
0
  6
CONTINUOUS
 62
     7
100
AcDbCircle
 10
1176.5946249292
 20
1110.2733249912
 30
0.0
 40
32.7944386281403
100
AcDbArc
 50
86.7748070395
 51
93.2251929605
  0
LINE
  5
5C
330
1F
100
AcDbEntity
  8
0
  6
CONTINUOUS
 62
     7
100
AcDbLine
 10
1179.5244316385
 20
1126.6971722068
 30
0.0
 11
1174.0319679306
 21
1126.6971722068
 31
0.0
  0
LINE
  5
5D
330
1F
100
AcDbEntity
  8
0
  6
CONTINUOUS
 62
     7
100
AcDbLine
 10
1173.1788317488
 20
1142.9762242185
 30
0.0
 11
1173.1788317488
 21
1144.8623442845
 31
0.0
  0
LWPOLYLINE
  5
5E
330
1F
100
AcDbEntity
  8
0
  6
CONTINUOUS
 62
     7
100
AcDbPolyline
 90
        3
 70
   128
 43
0.0
 10
1174.1789827869
 20
1144.8764817612
 10
1173.6240039394
 20
1144.8650954114
 10
1173.1788317488
 20
1144.8623442845
  0
ARC
  5
5F
330
1F
100
AcDbEntity
  8
0
  6
CONTINUOUS
 62
     7
100
AcDbCircle
 10
1172.3187673012
 20
1143.2881830924
 30
0.0
 40
2.446036450023007
100
AcDbArc
 50
353.6069589837
 51
40.4915314591
  0
LINE
  5
60
330
1F
100
AcDbEntity
  8
0
  6
CONTINUOUS
 62
     7
100
AcDbLine
 10
897.3315159605
 20
1142.9762260811
 30
0.0
 11
897.3315159605
 21
1144.8623442845
 31
0.0
  0
LINE
  5
61
330
1F
100
AcDbEntity
  8
0
  6
CONTINUOUS
 62
     7
100
AcDbLine
 10
897.3315159605
 20
1144.8623442845
 30
0.0
 11
1173.1788317488
 21
1144.8623442845
 31
0.0
  0
LWPOLYLINE
  5
62
330
1F
100
AcDbEntity
  8
0
  6
CONTINUOUS
 62
     7
100
AcDbPolyline
 90
        3
 70
   128
 43
0.0
 10
896.3313649223
 20
1144.8764817612
 10
896.8863437698
 20
1144.8650954114
 10
897.3315159605
 20
1144.8623442845
  0
ARC
  5
63
330
1F
100
AcDbEntity
  8
0
  6
CONTINUOUS
 62
     7
100
AcDbCircle
 10
898.191575242
 20
1143.2881846767
 30
0.0
 40
2.446031492435641
100
AcDbArc
 50
139.5084181867
 51
186.3930913705
  0
LINE
  5
64
330
1F
100
AcDbEntity
  8
0
  6
CONTINUOUS
 62
     7
100
AcDbLine
 10
1176.4017741011
 20
1144.8954276564
 30
0.0
 11
1176.7189006136
 21
1144.8764817612
 31
0.0
  0
LINE
  5
65
330
1F
100
AcDbEntity
  8
0
  6
CONTINUOUS
 62
     7
100
AcDbLine
 10
1177.2344360874
 20
1144.752168824
 30
0.0
 11
1176.7189006136
 21
1144.8764826926
 31
0.0
  0
LINE
  5
66
330
1F
100
AcDbEntity
  8
0
  6
CONTINUOUS
 62
     7
100
AcDbLine
 10
893.9406971262
 20
1144.8854084881
 30
0.0
 11
893.7914470957
 21
1144.8764817612
 31
0.0
  0
LINE
  5
67
330
1F
100
AcDbEntity
  8
0
  6
CONTINUOUS
 62
     7
100
AcDbLine
 10
893.4875081108
 20
1144.7908978732
 30
0.0
 11
893.7914470957
 21
1144.8764817612
 31
0.0
  0
LWPOLYLINE
  5
68
330
1F
100
AcDbEntity
  8
0
  6
CONTINUOUS
 62
     7
100
AcDbPolyline
 90
        7
 70
   128
 43
0.0
 10
1175.8491794394
 20
1144.9602253558
 10
1175.7189730928
 20
1144.9602272185
 10
1175.514231138
 20
1144.9602160426
 10
1175.2134362982
 20
1144.9602281498
 10
1174.8176167534
 20
1144.9602179052
 10
1174.3275920675
 20
1144.9602262871
 10
1173.3092765139
 20
1144.9602253558
  0
LINE
  5
69
330
1F
100
AcDbEntity
  8
0
  6
CONTINUOUS
 62
     7
100
AcDbLine
 10
1176.7189006136
 20
1144.8764817612
 30
0.0
 11
1175.8491794394
 21
1144.9602253558
 31
0.0
  0
LINE
  5
6A
330
1F
100
AcDbEntity
  8
0
  6
CONTINUOUS
 62
     7
100
AcDbLine
 10
1173.3092765139
 20
1144.9602253558
 30
0.0
 11
1174.1789827869
 21
1144.8764817612
 31
0.0
  0
LINE
  5
6B
330
1F
100
AcDbEntity
  8
0
  6
CONTINUOUS
 62
     7
100
AcDbLine
 10
893.7914470957
 20
1144.8764817612
 30
0.0
 11
894.6611682699
 21
1144.9602253558
 31
0.0
  0
LINE
  5
6C
330
1F
100
AcDbEntity
  8
0
  6
CONTINUOUS
 62
     7
100
AcDbLine
 10
894.6611682699
 20
1144.9602253558
 30
0.0
 11
897.2010711954
 21
1144.9602253558
 31
0.0
  0
LINE
  5
6D
330
1F
100
AcDbEntity
  8
0
  6
CONTINUOUS
 62
     7
100
AcDbLine
 10
897.2010711954
 20
1144.9602253558
 30
0.0
 11
896.3313649223
 21
1144.8764817612
 31
0.0
  0
LINE
  5
6E
330
1F
100
AcDbEntity
  8
0
  6
CONTINUOUS
 62
     7
100
AcDbLine
 10
1158.7900842355
 20
1144.9602253558
 30
0.0
 11
1158.7339143084
 21
1146.0320509793
 31
0.0
  0
LINE
  5
6F
330
1F
100
AcDbEntity
  8
0
  6
CONTINUOUS
 62
     7
100
AcDbLine
 10
1158.7900842355
 20
1144.9602253558
 30
0.0
 11
1173.3092765139
 21
1144.9602253558
 31
0.0
  0
LINE
  5
70
330
1F
100
AcDbEntity
  8
0
  6
CONTINUOUS
 62
     7
100
AcDbLine
 10
911.7202634738
 20
1144.9602253558
 30
0.0
 11
897.2010711954
 21
1144.9602253558
 31
0.0
  0
LINE
  5
71
330
1F
100
AcDbEntity
  8
0
  6
CONTINUOUS
 62
     7
100
AcDbLine
 10
911.7202634738
 20
1144.9602253558
 30
0.0
 11
911.7764334009
 21
1146.0320509793
 31
0.0
  0
LINE
  5
72
330
1F
100
AcDbEntity
  8
0
  6
CONTINUOUS
 62
     7
100
AcDbLine
 10
1158.7339143084
 20
1146.0320509793
 30
0.0
 11
911.7764334009
 21
1146.0320509793
 31
0.0
  0
ARC
  5
73
330
1F
100
AcDbEntity
  8
0
  6
CONTINUOUS
 62
     7
100
AcDbCircle
 10
1158.7347224955
 20
1145.7328278428
 30
0.0
 40
0.2992242279130818
100
AcDbArc
 50
3.1236526083
 51
90.15475273
  0
LINE
  5
74
330
1F
100
AcDbEntity
  8
0
  6
CONTINUOUS
 62
     7
100
AcDbLine
 10
1159.0748454259
 20
1144.9602253558
 30
0.0
 11
1159.0335021542
 21
1145.7491328763
 31
0.0
  0
LINE
  5
75
330
1F
100
AcDbEntity
  8
0
  6
CONTINUOUS
 62
     7
100
AcDbLine
 10
911.4355022834
 20
1144.9602253558
 30
0.0
 11
911.4768455551
 21
1145.7491328763
 31
0.0
  0
ARC
  5
76
330
1F
100
AcDbEntity
  8
0
  6
CONTINUOUS
 62
     7
100
AcDbCircle
 10
911.7756252138
 20
1145.7328278428
 30
0.0
 40
0.2992242279128308
100
AcDbArc
 50
89.8452472699
 51
176.8763473917
  0
LWPOLYLINE
  5
77
330
1F
100
AcDbEntity
  8
0
  6
CONTINUOUS
 62
     7
100
AcDbPolyline
 90
        3
 70
   128
 43
0.0
 10
1176.8657217548
 20
1144.8623442845
 10
1176.8194685505
 20
1144.8667978691
 10
1176.7189006136
 20
1144.8764817612
  0
ARC
  5
78
330
1F
100
AcDbEntity
  8
0
  6
CONTINUOUS
 62
     7
100
AcDbCircle
 10
1176.7431190419
 20
1142.9878345455
 30
0.0
 40
1.87851488868864
100
AcDbArc
 50
9.5230092868
 51
86.2578871915
  0
LWPOLYLINE
  5
79
330
1F
100
AcDbEntity
  8
0
  6
CONTINUOUS
 62
     7
100
AcDbPolyline
 90
        3
 70
   128
 43
0.0
 10
893.6446259544
 20
1144.8623442845
 10
893.6908791588
 20
1144.8667978691
 10
893.7914470957
 20
1144.8764817612
  0
ARC
  5
7A
330
1F
100
AcDbEntity
  8
0
  6
CONTINUOUS
 62
     7
100
AcDbCircle
 10
893.76827833
 20
1142.9862183306
 30
0.0
 40
1.880196400629657
100
AcDbArc
 50
93.7708168608
 51
170.6128579822
  0
LWPOLYLINE
  5
7B
330
1F
100
AcDbEntity
  8
0
  6
CONTINUOUS
 62
     7
100
AcDbPolyline
 90
        3
 70
   128
 43
0.0
 10
1158.7092007325
 20
1146.4420573609
 10
1158.7261135505
 20
1146.1600212203
 10
1158.7339143084
 20
1146.0320509793
  0
ARC
  5
7C
330
1F
100
AcDbEntity
  8
0
  6
CONTINUOUS
 62
     7
100
AcDbCircle
 10
1158.7418866669
 20
1146.1728961839
 30
0.0
 40
0.2711385429786239
100
AcDbArc
 50
10.1419035674
 51
96.9238846555
  0
LWPOLYLINE
  5
7D
330
1F
100
AcDbEntity
  8
0
  6
CONTINUOUS
 62
     7
100
AcDbPolyline
 90
        3
 70
   128
 43
0.0
 10
1159.0335021542
 20
1145.7491328763
 10
1159.0239877627
 20
1145.9306327449
 10
1159.0087885783
 20
1146.2206400754
  0
ARC
  5
7E
330
1F
100
AcDbEntity
  8
0
  6
CONTINUOUS
 62
     7
100
AcDbCircle
 10
911.7684610424
 20
1146.1728961839
 30
0.0
 40
0.2711385429788877
100
AcDbArc
 50
83.0761153446
 51
169.8580964326
  0
LWPOLYLINE
  5
7F
330
1F
100
AcDbEntity
  8
0
  6
CONTINUOUS
 62
     7
100
AcDbPolyline
 90
        3
 70
   128
 43
0.0
 10
911.8011469768
 20
1146.4420573609
 10
911.7842341588
 20
1146.1600854816
 10
911.7764334009
 20
1146.0320509793
  0
LWPOLYLINE
  5
80
330
1F
100
AcDbEntity
  8
0
  6
CONTINUOUS
 62
     7
100
AcDbPolyline
 90
        3
 70
   128
 43
0.0
 10
911.4768455551
 20
1145.7491328763
 10
911.4863599465
 20
1145.9306355389
 10
911.501559131
 20
1146.2206400754
  0
ARC
  5
81
330
1F
100
AcDbEntity
  8
0
  6
CONTINUOUS
 62
     7
100
AcDbCircle
 10
1162.0033086363
 20
1145.7661583504
 30
0.0
 40
3.362734951540465
100
AcDbArc
 50
140.2356382682
 51
168.4047439704
  0
ARC
  5
82
330
1F
100
AcDbEntity
  8
0
  6
CONTINUOUS
 62
     7
100
AcDbCircle
 10
908.5071584868
 20
1145.7662040706
 30
0.0
 40
3.362608785125856
100
AcDbArc
 50
11.5949018669
 51
39.7651577666
  0
LINE
  5
83
330
1F
100
AcDbEntity
  8
0
  6
CONTINUOUS
 62
     7
100
AcDbLine
 10
911.0936323927
 20
1147.9181710454
 30
0.0
 11
1159.4167153166
 21
1147.9181710454
 31
0.0
  0
ARC
  5
84
330
1F
100
AcDbEntity
  8
0
  6
CONTINUOUS
 62
     7
100
AcDbCircle
 10
1164.5775033204
 20
1145.7726804254
 30
0.0
 40
5.586703117769928
100
AcDbArc
 50
157.424325344
 51
175.400904707
  0
ARC
  5
85
330
1F
100
AcDbEntity
  8
0
  6
CONTINUOUS
 62
     7
100
AcDbCircle
 10
905.0910772286
 20
1145.5692040526
 30
0.0
 40
6.443496497402466
100
AcDbArc
 50
5.802503711
 51
21.3727559983
  0
LINE
  5
86
330
1F
100
AcDbEntity
  8
0
  6
CONTINUOUS
 62
     7
100
AcDbLine
 10
1159.4189355896
 20
1147.9182874607
 30
0.0
 11
1159.549127035
 21
1145.4340543421
 31
0.0
  0
ARC
  5
87
330
1F
100
AcDbEntity
  8
0
  6
CONTINUOUS
 62
     7
100
AcDbCircle
 10
1155.8260014278
 20
1148.6835947476
 30
0.0
 40
4.941911117443675
100
AcDbArc
 50
311.1118841299
 51
318.8855252605
  0
LINE
  5
88
330
1F
100
AcDbEntity
  8
0
  6
CONTINUOUS
 62
     7
100
AcDbLine
 10
1159.550013654
 20
1144.9602253558
 30
0.0
 11
1159.550013654
 21
1145.4340543421
 31
0.0
  0
ARC
  5
89
330
1F
100
AcDbEntity
  8
0
  6
CONTINUOUS
 62
     7
100
AcDbCircle
 10
912.1725180068
 20
1146.1636560258
 30
0.0
 40
1.414164276677365
100
AcDbArc
 50
211.068417509
 51
238.5519378167
  0
LINE
  5
8A
330
1F
100
AcDbEntity
  8
0
  6
CONTINUOUS
 62
     7
100
AcDbLine
 10
911.0925222562
 20
1147.9182297187
 30
0.0
 11
910.9612132238
 21
1145.433860627
 31
0.0
  0
LINE
  5
8B
330
1F
100
AcDbEntity
  8
0
  6
CONTINUOUS
 62
     7
100
AcDbLine
 10
910.9603340552
 20
1144.9602253558
 30
0.0
 11
910.9603340552
 21
1145.4338615583
 31
0.0
  0
ARC
  5
8C
330
1F
100
AcDbEntity
  8
0
  6
CONTINUOUS
 62
     7
100
AcDbCircle
 10
904.9685557702
 20
1145.460217266
 30
0.0
 40
0.4999919102213384
100
AcDbArc
 50
269.999887384
 51
357.0009588668
  0
LWPOLYLINE
  5
8D
330
1F
100
AcDbEntity
  8
0
  6
CONTINUOUS
 62
     7
100
AcDbPolyline
 90
        5
 70
   128
 43
0.0
 10
905.4678628967
 20
1145.4340580674
 10
905.8861533926
 20
1145.4304482611
 10
907.0760260151
 20
1145.4308161335
 10
908.8572512196
 20
1145.4304706128
 10
910.9603340552
 20
1145.4340580674
  0
ARC
  5
8E
330
1F
100
AcDbEntity
  8
0
  6
CONTINUOUS
 62
     7
100
AcDbCircle
 10
1162.2958592391
 20
1459.9117403923
 30
0.0
 40
314.4896811682472
100
AcDbArc
 50
269.4995760654
 51
270.5004045072
  0
ARC
  5
8F
330
1F
100
AcDbEntity
  8
0
  6
CONTINUOUS
 62
     7
100
AcDbCircle
 10
1165.5417897392
 20
1145.4602152049
 30
0.0
 40
0.4999898491238494
100
AcDbArc
 50
182.9993513445
 51
270.000364713
  0
LINE
  5
90
330
1F
100
AcDbEntity
  8
0
  6
CONTINUOUS
 62
     7
100
AcDbLine
 10
912.1826167033
 20
1168.6971744346
 30
0.0
 11
906.6870312021
 21
1168.6971744346
 31
0.0
  0
LINE
  5
91
330
1F
100
AcDbEntity
  8
0
  6
CONTINUOUS
 62
     7
100
AcDbLine
 10
912.1826167033
 20
1168.6971707093
 30
0.0
 11
911.0936323927
 21
1147.9181710454
 31
0.0
  0
LINE
  5
92
330
1F
100
AcDbEntity
  8
0
  6
CONTINUOUS
 62
     7
100
AcDbLine
 10
905.4679076002
 20
1145.4347453835
 30
0.0
 11
905.587876849
 21
1147.7240247475
 31
0.0
  0
LINE
  5
93
330
1F
100
AcDbEntity
  8
0
  6
CONTINUOUS
 62
     7
100
AcDbLine
 10
905.587876849
 20
1147.7240256788
 30
0.0
 11
906.6870312021
 21
1168.6971744346
 31
0.0
  0
LINE
  5
94
330
1F
100
AcDbEntity
  8
0
  6
CONTINUOUS
 62
     7
100
AcDbLine
 10
1165.0424848126
 20
1145.4340534108
 30
0.0
 11
1164.9224261568
 21
1147.7246748107
 31
0.0
  0
LINE
  5
95
330
1F
100
AcDbEntity
  8
0
  6
CONTINUOUS
 62
     7
100
AcDbLine
 10
1158.327731006
 20
1168.6971707093
 30
0.0
 11
1159.4167153166
 21
1147.9181710454
 31
0.0
  0
LINE
  5
96
330
1F
100
AcDbEntity
  8
0
  6
CONTINUOUS
 62
     7
100
AcDbLine
 10
1158.327731006
 20
1168.6971744346
 30
0.0
 11
1163.8233165072
 21
1168.6971744346
 31
0.0
  0
LINE
  5
97
330
1F
100
AcDbEntity
  8
0
  6
CONTINUOUS
 62
     7
100
AcDbLine
 10
1164.9224261568
 20
1147.7246748107
 30
0.0
 11
1163.8233165072
 21
1168.6971744346
 31
0.0
  0
LINE
  5
98
330
1F
100
AcDbEntity
  8
0
  6
CONTINUOUS
 62
     7
100
AcDbLine
 10
1158.327731006
 20
1168.6971707093
 30
0.0
 11
912.1826167033
 21
1168.6971707093
 31
0.0
  0
LINE
  5
99
330
1F
100
AcDbEntity
  8
0
  6
CONTINUOUS
 62
     7
100
AcDbLine
 10
904.9996386097
 20
1146.0270851674
 30
0.0
 11
904.9437890575
 21
1144.9615198942
 31
0.0
  0
ARC
  5
9A
330
1F
100
AcDbEntity
  8
0
  6
CONTINUOUS
 62
     7
100
AcDbCircle
 10
902.678974553
 20
1147.7819840472
 30
0.0
 40
2.909493382407529
100
AcDbArc
 50
322.9032286697
 51
358.8597050778
  0
ARC
  5
9B
330
1F
100
AcDbEntity
  8
0
  6
CONTINUOUS
 62
     7
100
AcDbCircle
 10
1167.8802306307
 20
1147.7989031981
 30
0.0
 40
2.95871110800477
100
AcDbArc
 50
181.4529989942
 51
216.7874313919
  0
LINE
  5
9C
330
1F
100
AcDbEntity
  8
0
  6
CONTINUOUS
 62
     7
100
AcDbLine
 10
1165.5107090996
 20
1146.0270851674
 30
0.0
 11
1165.5665586517
 21
1144.9615198942
 31
0.0
  0
ARC
  5
9D
330
1F
100
AcDbEntity
  8
0
  6
CONTINUOUS
 62
     7
100
AcDbCircle
 10
903.2076491276
 20
1144.7266038609
 30
0.0
 40
2.214153999284067
100
AcDbArc
 50
35.9691154252
 51
43.4206970702
  0
ARC
  5
9E
330
1F
100
AcDbEntity
  8
0
  6
CONTINUOUS
 62
     7
100
AcDbCircle
 10
903.5906856725
 20
1147.829280603
 30
0.0
 40
1.999970380555784
100
AcDbArc
 50
307.777019143
 51
356.9872111289
  0
ARC
  5
9F
330
1F
100
AcDbEntity
  8
0
  6
CONTINUOUS
 62
     7
100
AcDbCircle
 10
1167.3031907424
 20
1144.7261953351
 30
0.0
 40
2.214792269172789
100
AcDbArc
 50
136.5803781621
 51
144.0298093425
  0
ARC
  5
A0
330
1F
100
AcDbEntity
  8
0
  6
CONTINUOUS
 62
     7
100
AcDbCircle
 10
1166.9197032362
 20
1147.8293091519
 30
0.0
 40
2.000018184066184
100
AcDbArc
 50
183.0325318309
 51
232.2225489859
  0
LINE
  5
A1
330
1F
100
AcDbEntity
  8
0
  6
CONTINUOUS
 62
     7
100
AcDbLine
 10
903.8110921906
 20
1145.5555779683
 30
0.0
 11
897.6281384752
 21
1144.9602253558
 31
0.0
  0
LWPOLYLINE
  5
A2
330
1F
100
AcDbEntity
  8
0
  6
CONTINUOUS
 62
     7
100
AcDbPolyline
 90
        3
 70
   128
 43
0.0
 10
904.9996386097
 20
1146.0270851674
 10
904.3660412357
 20
1145.6796906712
 10
903.8110921906
 20
1145.5555779683
  0
LWPOLYLINE
  5
A3
330
1F
100
AcDbEntity
  8
0
  6
CONTINUOUS
 62
     7
100
AcDbPolyline
 90
        3
 70
   128
 43
0.0
 10
1165.5107090996
 20
1146.0270851674
 10
1166.1443064735
 20
1145.6796934651
 10
1166.6992555187
 20
1145.5555779683
  0
LINE
  5
A4
330
1F
100
AcDbEntity
  8
0
  6
CONTINUOUS
 62
     7
100
AcDbLine
 10
1166.6992555187
 20
1145.5555779683
 30
0.0
 11
1172.8822092341
 21
1144.9602253558
 31
0.0
  0
ARC
  5
A5
330
1F
100
AcDbEntity
  8
0
  6
CONTINUOUS
 62
     7
100
AcDbCircle
 10
889.9449362105
 20
1144.2897026061
 30
0.0
 40
13.92381851706872
100
AcDbArc
 50
5.2162130154
 51
6.3864196824
  0
LINE
  5
A6
330
1F
100
AcDbEntity
  8
0
  6
CONTINUOUS
 62
     7
100
AcDbLine
 10
903.7823478506
 20
1145.8384960713
 30
0.0
 11
894.6611682699
 21
1144.9602253558
 31
0.0
  0
ARC
  5
A7
330
1F
100
AcDbEntity
  8
0
  6
CONTINUOUS
 62
     7
100
AcDbCircle
 10
1182.9055557987
 20
1144.0575888045
 30
0.0
 40
16.27538449009971
100
AcDbArc
 50
173.72098172
 51
174.7190124885
  0
LINE
  5
A8
330
1F
100
AcDbEntity
  8
0
  6
CONTINUOUS
 62
     7
100
AcDbLine
 10
1166.7279998587
 20
1145.8384960713
 30
0.0
 11
1175.8491794394
 21
1144.9602253558
 31
0.0
  0
LWPOLYLINE
  5
A9
330
1F
100
AcDbEntity
  8
0
  6
CONTINUOUS
 62
     7
100
AcDbPolyline
 90
        3
 70
   128
 43
0.0
 10
1166.7279998587
 20
1145.8384960713
 10
1166.191587858
 20
1145.9665296422
 10
1165.6945000218
 20
1146.2485024529
  0
LWPOLYLINE
  5
AA
330
1F
100
AcDbEntity
  8
0
  6
CONTINUOUS
 62
     7
100
AcDbPolyline
 90
        3
 70
   128
 43
0.0
 10
903.7823478506
 20
1145.8384960713
 10
904.3187598513
 20
1145.9665296422
 10
904.8158476875
 20
1146.2485024529
  0
LINE
  5
AB
330
1F
100
AcDbEntity
  8
0
  6
CONTINUOUS
 62
     7
100
AcDbLine
 10
895.2144632862
 20
1147.0753297033
 30
0.0
 11
892.0378486441
 21
1146.7694582241
 31
0.0
  0
LINE
  5
AC
330
1F
100
AcDbEntity
  8
0
  6
CONTINUOUS
 62
     7
100
AcDbLine
 10
895.5182234572
 20
1145.0427517118
 30
0.0
 11
895.2144632862
 21
1147.0753297033
 31
0.0
  0
LINE
  5
AD
330
1F
100
AcDbEntity
  8
0
  6
CONTINUOUS
 62
     7
100
AcDbLine
 10
892.0378486441
 20
1146.7694582241
 30
0.0
 11
891.8390671537
 21
1142.9762242185
 31
0.0
  0
LINE
  5
AE
330
1F
100
AcDbEntity
  8
0
  6
CONTINUOUS
 62
     7
100
AcDbLine
 10
1174.9921242521
 20
1145.0427517118
 30
0.0
 11
1175.2958844231
 21
1147.0753297033
 31
0.0
  0
LINE
  5
AF
330
1F
100
AcDbEntity
  8
0
  6
CONTINUOUS
 62
     7
100
AcDbLine
 10
1175.2958844231
 20
1147.0753297033
 30
0.0
 11
1178.4724990652
 21
1146.7694582241
 31
0.0
  0
LINE
  5
B0
330
1F
100
AcDbEntity
  8
0
  6
CONTINUOUS
 62
     7
100
AcDbLine
 10
1178.4724990652
 20
1146.7694582241
 30
0.0
 11
1178.6712805555
 21
1142.9762242185
 31
0.0
  0
LINE
  5
B1
330
1F
100
AcDbEntity
  8
0
  6
CONTINUOUS
 62
     7
100
AcDbLine
 10
895.0741986559
 20
1148.0138709592
 30
0.0
 11
892.0880059527
 21
1147.7263334962
 31
0.0
  0
LWPOLYLINE
  5
B2
330
1F
100
AcDbEntity
  8
0
  6
CONTINUOUS
 62
     7
100
AcDbPolyline
 90
        5
 70
   128
 43
0.0
 10
895.0741986559
 20
1148.0138709592
 10
895.0847337769
 20
1147.9432841586
 10
895.114878826
 20
1147.7416630657
 10
895.160267763
 20
1147.4379215213
 10
895.2144632862
 20
1147.0753297033
  0
LWPOLYLINE
  5
B3
330
1F
100
AcDbEntity
  8
0
  6
CONTINUOUS
 62
     7
100
AcDbPolyline
 90
        5
 70
   128
 43
0.0
 10
892.0378486441
 20
1146.7694582241
 10
892.0571456478
 20
1147.1376556726
 10
892.0733730124
 20
1147.4471760737
 10
892.0842061565
 20
1147.6537732231
 10
892.0880059527
 20
1147.7263334962
  0
LINE
  5
B4
330
1F
100
AcDbEntity
  8
0
  6
CONTINUOUS
 62
     7
100
AcDbLine
 10
1175.4361490534
 20
1148.0138709592
 30
0.0
 11
1178.4223417566
 21
1147.7263334962
 31
0.0
  0
LWPOLYLINE
  5
B5
330
1F
100
AcDbEntity
  8
0
  6
CONTINUOUS
 62
     7
100
AcDbPolyline
 90
        9
 70
   128
 43
0.0
 10
1175.4361490534
 20
1148.0138709592
 10
1175.4334966467
 20
1147.996085492
 10
1175.4256139324
 20
1147.943366115
 10
1175.4127989338
 20
1147.8576071383
 10
1175.3955135868
 20
1147.7418893771
 10
1175.3743539379
 20
1147.6003683927
 10
1175.3501097487
 20
1147.4381273435
 10
1175.3236303852
 20
1147.2609935151
 10
1175.2958844231
 20
1147.0753297033
  0
LWPOLYLINE
  5
B6
330
1F
100
AcDbEntity
  8
0
  6
CONTINUOUS
 62
     7
100
AcDbPolyline
 90
        9
 70
   128
 43
0.0
 10
1178.4724990652
 20
1146.7694582241
 10
1178.4625748919
 20
1146.958748606
 10
1178.4531126545
 20
1147.1393432291
 10
1178.4444401787
 20
1147.304753569
 10
1178.4368703888
 20
1147.4490387188
 10
1178.4307013081
 20
1147.5670177313
 10
1178.4261117504
 20
1147.6544512259
 10
1178.423295431
 20
1147.7082006456
 10
1178.4223417566
 20
1147.7263334962
  0
LINE
  5
B7
330
1F
100
AcDbEntity
  8
0
  6
CONTINUOUS
 62
     8
100
AcDbLine
 10
892.0706908033
 20
1143.0158212604
 30
0.0
 11
891.8674091623
 21
1142.9810698899
 31
0.0
  0
LINE
  5
B8
330
1F
100
AcDbEntity
  8
0
  6
CONTINUOUS
 62
     8
100
AcDbLine
 10
1178.4396569059
 20
1143.015823123
 30
0.0
 11
1178.6155651138
 21
1142.9857516484
 31
0.0
  0
ARC
  5
B9
330
1F
100
AcDbEntity
  8
0
  6
CONTINUOUS
 62
     8
100
AcDbCircle
 10
1175.5072379732
 20
1119.4433205975
 30
0.0
 40
25.4678218271933
100
AcDbArc
 50
87.9871192159
 51
92.9895748508
  0
ARC
  5
BA
330
1F
100
AcDbEntity
  8
0
  6
CONTINUOUS
 62
     8
100
AcDbCircle
 10
1176.452805445
 20
1142.9231758097
 30
0.0
 40
1.989010283338788
100
AcDbArc
 50
2.6697270766
 51
66.8602813984
  0
ARC
  5
BB
330
1F
100
AcDbEntity
  8
0
  6
CONTINUOUS
 62
     8
100
AcDbCircle
 10
895.0464744649
 20
1120.8967922031
 30
0.0
 40
24.01408867294496
100
AcDbArc
 50
86.9328849662
 51
92.6392334195
  0
ARC
  5
BC
330
1F
100
AcDbEntity
  8
0
  6
CONTINUOUS
 62
     8
100
AcDbCircle
 10
893.9070732427
 20
1143.0030419297
 30
0.0
 40
1.836426904267766
100
AcDbArc
 50
103.2069044834
 51
179.6012868126
  0
ARC
  5
BD
330
1F
100
AcDbEntity
  8
0
  6
CONTINUOUS
 62
     7
100
AcDbCircle
 10
912.180044694
 20
919.3792481967
 30
0.0
 40
5.493014090530601
100
AcDbArc
 50
89.9731722361
 51
180.0267500857
  0
LINE
  5
BE
330
1F
100
AcDbEntity
  8
0
  6
CONTINUOUS
 62
     7
100
AcDbLine
 10
906.6870312021
 20
919.3766836345
 30
0.0
 11
905.5879066513
 21
920.4758081853
 31
0.0
  0
LINE
  5
BF
330
1F
100
AcDbEntity
  8
0
  6
CONTINUOUS
 62
     7
100
AcDbLine
 10
905.5879215525
 20
920.4769183218
 30
0.0
 11
905.4678628967
 21
920.5980796635
 31
0.0
  0
ARC
  5
C0
330
1F
100
AcDbEntity
  8
0
  6
CONTINUOUS
 62
     7
100
AcDbCircle
 10
910.9601418646
 20
920.599151024
 30
0.0
 40
5.49227907240654
100
AcDbArc
 50
89.9887457936
 51
180.0111764967
  0
LINE
  5
C1
330
1F
100
AcDbEntity
  8
0
  6
CONTINUOUS
 62
     7
100
AcDbLine
 10
910.9612206743
 20
926.0914299905
 30
0.0
 11
911.0914121197
 21
925.9612385451
 31
0.0
  0
LINE
  5
C2
330
1F
100
AcDbEntity
  8
0
  6
CONTINUOUS
 62
     7
100
AcDbLine
 10
911.0936323927
 20
925.9612385451
 30
0.0
 11
912.1826167033
 21
924.8722616851
 31
0.0
  0
ARC
  5
C3
330
1F
100
AcDbEntity
  8
0
  6
CONTINUOUS
 62
     7
100
AcDbCircle
 10
1158.3303030153
 20
919.3792481967
 30
0.0
 40
5.493014090530601
100
AcDbArc
 50
359.9732499143
 51
90.0268277639
  0
LINE
  5
C4
330
1F
100
AcDbEntity
  8
0
  6
CONTINUOUS
 62
     7
100
AcDbLine
 10
1163.8233165072
 20
674.9315683066
 30
0.0
 11
1163.8233165072
 21
919.3766836345
 31
0.0
  0
ARC
  5
C5
330
1F
100
AcDbEntity
  8
0
  6
CONTINUOUS
 62
     7
100
AcDbCircle
 10
1158.3303030153
 20
674.9290037444
 30
0.0
 40
5.493014090530601
100
AcDbArc
 50
269.9731722361
 51
0.0267500857
  0
LINE
  5
C6
330
1F
100
AcDbEntity
  8
0
  6
CONTINUOUS
 62
     7
100
AcDbLine
 10
1158.327731006
 20
669.435990256
 30
0.0
 11
912.1826167033
 21
669.435990256
 31
0.0
  0
ARC
  5
C7
330
1F
100
AcDbEntity
  8
0
  6
CONTINUOUS
 62
     7
100
AcDbCircle
 10
912.180044694
 20
674.9290037444
 30
0.0
 40
5.493014090530642
100
AcDbArc
 50
179.9732499143
 51
270.0268277639
  0
LINE
  5
C8
330
1F
100
AcDbEntity
  8
0
  6
CONTINUOUS
 62
     7
100
AcDbLine
 10
906.6870312021
 20
674.9315683066
 30
0.0
 11
906.6870312021
 21
919.3766836345
 31
0.0
  0
LINE
  5
C9
330
1F
100
AcDbEntity
  8
0
  6
CONTINUOUS
 62
     7
100
AcDbLine
 10
912.1826167033
 20
924.8722616851
 30
0.0
 11
1158.327731006
 21
924.8722616851
 31
0.0
  0
LINE
  5
CA
330
1F
100
AcDbEntity
  8
0
  6
CONTINUOUS
 62
     7
100
AcDbLine
 10
912.1826167033
 20
669.435990256
 30
0.0
 11
911.0936323927
 21
668.347013396
 31
0.0
  0
LINE
  5
CB
330
1F
100
AcDbEntity
  8
0
  6
CONTINUOUS
 62
     7
100
AcDbLine
 10
911.0925222562
 20
668.347013396
 30
0.0
 11
910.9612132238
 21
668.2168070495
 31
0.0
  0
ARC
  5
CC
330
1F
100
AcDbEntity
  8
0
  6
CONTINUOUS
 62
     7
100
AcDbCircle
 10
910.9601423952
 20
673.7091014488
 30
0.0
 40
5.492279501535235
100
AcDbArc
 50
179.9980783133
 51
270.0019994089
  0
LINE
  5
CD
330
1F
100
AcDbEntity
  8
0
  6
CONTINUOUS
 62
     7
100
AcDbLine
 10
905.4679076002
 20
673.7102095305
 30
0.0
 11
905.587876849
 21
673.8312963664
 31
0.0
  0
LINE
  5
CE
330
1F
100
AcDbEntity
  8
0
  6
CONTINUOUS
 62
     7
100
AcDbLine
 10
905.587876849
 20
673.8312963664
 30
0.0
 11
906.6870312021
 21
674.9315683066
 31
0.0
  0
LINE
  5
CF
330
1F
100
AcDbEntity
  8
0
  6
CONTINUOUS
 62
     7
100
AcDbLine
 10
1159.4167153166
 20
925.9612385451
 30
0.0
 11
1158.327731006
 21
924.8722616851
 31
0.0
  0
LINE
  5
D0
330
1F
100
AcDbEntity
  8
0
  6
CONTINUOUS
 62
     7
100
AcDbLine
 10
1159.4167153166
 20
925.9612385451
 30
0.0
 11
911.0936323927
 21
925.9612385451
 31
0.0
  0
LINE
  5
D1
330
1F
100
AcDbEntity
  8
0
  6
CONTINUOUS
 62
     7
100
AcDbLine
 10
1159.549127035
 20
926.0914299905
 30
0.0
 11
1159.4178254531
 21
925.9612385451
 31
0.0
  0
ARC
  5
D2
330
1F
100
AcDbEntity
  8
0
  6
CONTINUOUS
 62
     7
100
AcDbCircle
 10
1159.5504379599
 20
920.5993831396
 30
0.0
 40
5.492047007303436
100
AcDbArc
 50
359.986401485
 51
90.0136762247
  0
LINE
  5
D3
330
1F
100
AcDbEntity
  8
0
  6
CONTINUOUS
 62
     7
100
AcDbLine
 10
1164.9224261568
 20
920.4780284583
 30
0.0
 11
1165.0424848126
 21
920.5980796635
 31
0.0
  0
LINE
  5
D4
330
1F
100
AcDbEntity
  8
0
  6
CONTINUOUS
 62
     7
100
AcDbLine
 10
1163.8233165072
 20
919.3766836345
 30
0.0
 11
1164.922441058
 21
920.4758081853
 31
0.0
  0
LINE
  5
D5
330
1F
100
AcDbEntity
  8
0
  6
CONTINUOUS
 62
     7
100
AcDbLine
 10
1164.922441058
 20
673.8324437558
 30
0.0
 11
1164.922441058
 21
920.4758081853
 31
0.0
  0
LINE
  5
D6
330
1F
100
AcDbEntity
  8
0
  6
CONTINUOUS
 62
     7
100
AcDbLine
 10
1164.9224261568
 20
673.8313336193
 30
0.0
 11
1163.8233165072
 21
674.9315683066
 31
0.0
  0
LINE
  5
D7
330
1F
100
AcDbEntity
  8
0
  6
CONTINUOUS
 62
     7
100
AcDbLine
 10
905.5879066513
 20
673.8301862299
 30
0.0
 11
905.5879066513
 21
920.4758081853
 31
0.0
  0
LINE
  5
D8
330
1F
100
AcDbEntity
  8
0
  6
CONTINUOUS
 62
     7
100
AcDbLine
 10
1165.0424848126
 20
673.7101722776
 30
0.0
 11
1164.9224261568
 21
673.8313336193
 31
0.0
  0
ARC
  5
D9
330
1F
100
AcDbEntity
  8
0
  6
CONTINUOUS
 62
     7
100
AcDbCircle
 10
1159.5504645068
 20
673.7088422545
 30
0.0
 40
5.492020466759657
100
AcDbArc
 50
269.9860467572
 51
0.0138755331
  0
LINE
  5
DA
330
1F
100
AcDbEntity
  8
0
  6
CONTINUOUS
 62
     7
100
AcDbLine
 10
1159.4189355896
 20
668.347013396
 30
0.0
 11
1159.549127035
 21
668.2168219506
 31
0.0
  0
LINE
  5
DB
330
1F
100
AcDbEntity
  8
0
  6
CONTINUOUS
 62
     7
100
AcDbLine
 10
1158.327731006
 20
669.435990256
 30
0.0
 11
1159.4167153166
 21
668.347013396
 31
0.0
  0
LINE
  5
DC
330
1F
100
AcDbEntity
  8
0
  6
CONTINUOUS
 62
     7
100
AcDbLine
 10
911.0936323927
 20
668.347013396
 30
0.0
 11
1159.4167153166
 21
668.347013396
 31
0.0
  0
ARC
  5
DD
330
1F
100
AcDbEntity
  8
0
  6
CONTINUOUS
 62
     7
100
AcDbCircle
 10
910.9154065676
 20
926.6090495436
 30
0.0
 40
0.5196275834931583
100
AcDbArc
 50
275.0573511963
 51
357.9607752406
  0
LINE
  5
DE
330
1F
100
AcDbEntity
  8
0
  6
CONTINUOUS
 62
     7
100
AcDbLine
 10
911.501559131
 20
926.5495214879
 30
0.0
 11
911.4355693386
 21
926.6155038297
 31
0.0
  0
ARC
  5
DF
330
1F
100
AcDbEntity
  8
0
  6
CONTINUOUS
 62
     7
100
AcDbCircle
 10
910.9534145942
 20
926.4945969304
 30
0.0
 40
0.5508894082743243
100
AcDbArc
 50
284.511875025
 51
5.72198776
  0
ARC
  5
E0
330
1F
100
AcDbEntity
  8
0
  6
CONTINUOUS
 62
     7
100
AcDbCircle
 10
1159.555480323
 20
667.8146678544
 30
0.0
 40
0.5495460458541952
100
AcDbArc
 50
104.3917001742
 51
185.8421626107
  0
ARC
  5
E1
330
1F
100
AcDbEntity
  8
0
  6
CONTINUOUS
 62
     7
100
AcDbCircle
 10
1159.5984008238
 20
667.6957475745
 30
0.0
 40
0.5233897936049986
100
AcDbArc
 50
95.3913793774
 51
177.6165469776
  0
LINE
  5
E2
330
1F
100
AcDbEntity
  8
0
  6
CONTINUOUS
 62
     7
100
AcDbLine
 10
1159.0747783707
 20
667.6927481114
 30
0.0
 11
1159.0087885783
 21
667.7587304532
 31
0.0
  0
ARC
  5
E3
330
1F
100
AcDbEntity
  8
0
  6
CONTINUOUS
 62
     7
100
AcDbCircle
 10
910.9153896682
 20
667.6991808205
 30
0.0
 40
0.5196505663961176
100
AcDbArc
 50
2.0349390119
 51
84.9410024718
  0
ARC
  5
E4
330
1F
100
AcDbEntity
  8
0
  6
CONTINUOUS
 62
     7
100
AcDbCircle
 10
910.9649753208
 20
667.8217132055
 30
0.0
 40
0.5402675378152667
100
AcDbArc
 50
353.3054094012
 51
76.4617044987
  0
LINE
  5
E5
330
1F
100
AcDbEntity
  8
0
  6
CONTINUOUS
 62
     7
100
AcDbLine
 10
911.4355693386
 20
667.6927481114
 30
0.0
 11
911.501559131
 21
667.7587304532
 31
0.0
  0
LINE
  5
E6
330
1F
100
AcDbEntity
  8
0
  6
CONTINUOUS
 62
     7
100
AcDbLine
 10
895.5182234572
 20
785.9469263151
 30
0.0
 11
895.2144632862
 21
786.0544847592
 31
0.0
  0
ARC
  5
E7
330
1F
100
AcDbEntity
  8
0
  6
CONTINUOUS
 62
     7
100
AcDbCircle
 10
897.0792145413
 20
786.8255676409
 30
0.0
 40
2.017886531411546
100
AcDbArc
 50
173.5252867309
 51
202.4653105752
  0
LINE
  5
E8
330
1F
100
AcDbEntity
  8
0
  6
CONTINUOUS
 62
     7
100
AcDbLine
 10
895.0741986559
 20
807.2551379248
 30
0.0
 11
895.0741986559
 21
787.0531140163
 31
0.0
  0
ARC
  5
E9
330
1F
100
AcDbEntity
  8
0
  6
CONTINUOUS
 62
     7
100
AcDbCircle
 10
897.0792145413
 20
807.4826843002
 30
0.0
 40
2.017886531411966
100
AcDbArc
 50
157.5346894248
 51
186.4747132691
  0
LINE
  5
EA
330
1F
100
AcDbEntity
  8
0
  6
CONTINUOUS
 62
     7
100
AcDbLine
 10
895.5182234572
 20
808.361325626
 30
0.0
 11
895.2144632862
 21
808.2537671819
 31
0.0
  0
LINE
  5
EB
330
1F
100
AcDbEntity
  8
0
  6
CONTINUOUS
 62
     7
100
AcDbLine
 10
895.5182234572
 20
808.361325626
 30
0.0
 11
895.5182234572
 21
785.9469263151
 31
0.0
  0
LINE
  5
EC
330
1F
100
AcDbEntity
  8
0
  6
CONTINUOUS
 62
     7
100
AcDbLine
 10
892.0880059527
 20
807.2551379248
 30
0.0
 11
895.0741986559
 21
807.2551379248
 31
0.0
  0
ARC
  5
ED
330
1F
100
AcDbEntity
  8
0
  6
CONTINUOUS
 62
     7
100
AcDbCircle
 10
886.7519518365
 20
807.4877026727
 30
0.0
 40
5.341119722699904
100
AcDbArc
 50
357.5044197931
 51
8.2462412771
  0
LINE
  5
EE
330
1F
100
AcDbEntity
  8
0
  6
CONTINUOUS
 62
     7
100
AcDbLine
 10
892.0378486441
 20
808.2537671819
 30
0.0
 11
895.2144632862
 21
808.2537671819
 31
0.0
  0
LINE
  5
EF
330
1F
100
AcDbEntity
  8
0
  6
CONTINUOUS
 62
     7
100
AcDbLine
 10
895.0741986559
 20
787.0531140163
 30
0.0
 11
892.0880059527
 21
787.0531140163
 31
0.0
  0
LINE
  5
F0
330
1F
100
AcDbEntity
  8
0
  6
CONTINUOUS
 62
     7
100
AcDbLine
 10
892.0880059527
 20
807.2551379248
 30
0.0
 11
892.0880059527
 21
787.0531140163
 31
0.0
  0
LINE
  5
F1
330
1F
100
AcDbEntity
  8
0
  6
CONTINUOUS
 62
     7
100
AcDbLine
 10
895.2144632862
 20
786.0544847592
 30
0.0
 11
892.0378486441
 21
786.0544847592
 31
0.0
  0
ARC
  5
F2
330
1F
100
AcDbEntity
  8
0
  6
CONTINUOUS
 62
     7
100
AcDbCircle
 10
886.7519518365
 20
786.8205492684
 30
0.0
 40
5.341119722695479
100
AcDbArc
 50
351.7537587229
 51
2.4955802069
  0
LINE
  5
F3
330
1F
100
AcDbEntity
  8
0
  6
CONTINUOUS
 62
     7
100
AcDbLine
 10
1174.9921242521
 20
808.361325626
 30
0.0
 11
1175.2958844231
 21
808.2537671819
 31
0.0
  0
ELLIPSE
  5
F4
330
1F
100
AcDbEntity
  8
0
  6
CONTINUOUS
 62
     7
100
AcDbEllipse
 10
1175.2881435917
 20
807.255138066
 30
0.0
 11
0.0
 21
1.0
 31
0.0
210
0.0
220
0.0
230
1.0
 40
0.1480122568
 41
4.712388980384691
 42
6.230825429620504
  0
LINE
  5
F5
330
1F
100
AcDbEntity
  8
0
  6
CONTINUOUS
 62
     7
100
AcDbLine
 10
1175.4361490534
 20
807.2551379248
 30
0.0
 11
1175.4361490534
 21
787.0531140163
 31
0.0
  0
ELLIPSE
  5
F6
330
1F
100
AcDbEntity
  8
0
  6
CONTINUOUS
 62
     7
100
AcDbEllipse
 10
1175.2881435917
 20
787.0531138751
 30
0.0
 11
0.0
 21
1.0
 31
0.0
210
0.0
220
0.0
230
1.0
 40
0.1480122568
 41
3.193952531149055
 42
4.712388980384691
  0
LINE
  5
F7
330
1F
100
AcDbEntity
  8
0
  6
CONTINUOUS
 62
     7
100
AcDbLine
 10
1174.9921242521
 20
785.9469263151
 30
0.0
 11
1175.2958844231
 21
786.0544847592
 31
0.0
  0
LINE
  5
F8
330
1F
100
AcDbEntity
  8
0
  6
CONTINUOUS
 62
     7
100
AcDbLine
 10
1174.9921242521
 20
808.361325626
 30
0.0
 11
1174.9921242521
 21
785.9469263151
 31
0.0
  0
LINE
  5
F9
330
1F
100
AcDbEntity
  8
0
  6
CONTINUOUS
 62
     7
100
AcDbLine
 10
1178.4223417566
 20
807.2551379248
 30
0.0
 11
1178.4223417566
 21
787.0531140163
 31
0.0
  0
LINE
  5
FA
330
1F
100
AcDbEntity
  8
0
  6
CONTINUOUS
 62
     7
100
AcDbLine
 10
1175.4361490534
 20
787.0531140163
 30
0.0
 11
1178.4223417566
 21
787.0531140163
 31
0.0
  0
LINE
  5
FB
330
1F
100
AcDbEntity
  8
0
  6
CONTINUOUS
 62
     7
100
AcDbLine
 10
1178.4223417566
 20
807.2551379248
 30
0.0
 11
1175.4361490534
 21
807.2551379248
 31
0.0
  0
LINE
  5
FC
330
1F
100
AcDbEntity
  8
0
  6
CONTINUOUS
 62
     7
100
AcDbLine
 10
1178.4724990652
 20
808.2537671819
 30
0.0
 11
1175.2958844231
 21
808.2537671819
 31
0.0
  0
ELLIPSE
  5
FD
330
1F
100
AcDbEntity
  8
0
  6
CONTINUOUS
 62
     7
100
AcDbEllipse
 10
1178.4752616497
 20
807.255138066
 30
0.0
 11
0.0
 21
1.0
 31
0.0
210
0.0
220
0.0
230
1.0
 40
0.0529172061
 41
0.0523598775643389
 42
1.570796326794897
  0
LINE
  5
FE
330
1F
100
AcDbEntity
  8
0
  6
CONTINUOUS
 62
     7
100
AcDbLine
 10
1175.2958844231
 20
786.0544847592
 30
0.0
 11
1178.4724990652
 21
786.0544847592
 31
0.0
  0
ELLIPSE
  5
FF
330
1F
100
AcDbEntity
  8
0
  6
CONTINUOUS
 62
     7
100
AcDbEllipse
 10
1178.4752616497
 20
787.0531138751
 30
0.0
 11
0.0
 21
1.0
 31
0.0
210
0.0
220
0.0
230
1.0
 40
0.0529172061
 41
1.570796326794897
 42
3.089232776029746
  0
LWPOLYLINE
  5
100
330
1F
100
AcDbEntity
  8
0
  6
CONTINUOUS
 62
     7
100
AcDbPolyline
 90
        3
 70
   128
 43
0.0
 10
1158.7339143084
 20
927.766812247
 10
1158.7261135505
 20
927.2304002463
 10
1158.7092007325
 20
926.7332975089
  0
LWPOLYLINE
  5
101
330
1F
100
AcDbEntity
  8
0
  6
CONTINUOUS
 62
     7
100
AcDbPolyline
 90
        4
 70
   128
 43
0.0
 10
1159.4184065984
 20
925.9612981498
 10
1158.9508379624
 20
926.1669639766
 10
1158.7834979222
 20
926.408094567
 10
1158.7092007325
 20
926.7332975089
  0
LWPOLYLINE
  5
102
330
1F
100
AcDbEntity
  8
0
  6
CONTINUOUS
 62
     7
100
AcDbPolyline
 90
        4
 70
   128
 43
0.0
 10
911.0919411109
 20
925.9612981498
 10
911.559524648
 20
926.1669788777
 10
911.7284293101
 20
926.4016572654
 10
911.8011469768
 20
926.7332975089
  0
LWPOLYLINE
  5
103
330
1F
100
AcDbEntity
  8
0
  6
CONTINUOUS
 62
     7
100
AcDbPolyline
 90
        3
 70
   128
 43
0.0
 10
911.7764334009
 20
927.766812247
 10
911.7842341588
 20
927.2305641591
 10
911.8011469768
 20
926.7332975089
  0
LINE
  5
104
330
1F
100
AcDbEntity
  8
0
  6
CONTINUOUS
 62
     7
100
AcDbLine
 10
911.7764334009
 20
927.766812247
 30
0.0
 11
1158.7339143084
 21
927.766812247
 31
0.0
  0
LWPOLYLINE
  5
105
330
1F
100
AcDbEntity
  8
0
  6
CONTINUOUS
 62
     7
100
AcDbPolyline
 90
        4
 70
   128
 43
0.0
 10
1158.7092007325
 20
667.5749544322
 10
1158.7756450103
 20
667.9059390246
 10
1158.9500482009
 20
668.1415561854
 10
1159.4184364007
 20
668.3469537913
  0
LWPOLYLINE
  5
106
330
1F
100
AcDbEntity
  8
0
  6
CONTINUOUS
 62
     7
100
AcDbPolyline
 90
        3
 70
   128
 43
0.0
 10
1158.7092007325
 20
667.5749544322
 10
1158.7261135505
 20
667.077687782
 10
1158.7339143084
 20
666.5414396941
  0
LINE
  5
107
330
1F
100
AcDbEntity
  8
0
  6
CONTINUOUS
 62
     7
100
AcDbLine
 10
1158.7339143084
 20
666.5414396941
 30
0.0
 11
911.7764334009
 21
666.5414396941
 31
0.0
  0
LWPOLYLINE
  5
108
330
1F
100
AcDbEntity
  8
0
  6
CONTINUOUS
 62
     7
100
AcDbPolyline
 90
        3
 70
   128
 43
0.0
 10
911.8011469768
 20
667.5749544322
 10
911.7842341588
 20
667.0778516948
 10
911.7764334009
 20
666.5414396941
  0
LWPOLYLINE
  5
109
330
1F
100
AcDbEntity
  8
0
  6
CONTINUOUS
 62
     7
100
AcDbPolyline
 90
        4
 70
   128
 43
0.0
 10
911.8011469768
 20
667.5749544322
 10
911.7346952484
 20
667.905968827
 10
911.5602771566
 20
668.1415859878
 10
911.091903858
 20
668.3469537913
  0
ARC
  5
10A
330
1F
100
AcDbEntity
  8
0
  6
CONTINUOUS
 62
     7
100
AcDbCircle
 10
1159.5564137043
 20
926.4942365544
 30
0.0
 40
0.5504086685874
100
AcDbArc
 50
174.2352943993
 51
255.5318195007
  0
LINE
  5
10B
330
1F
100
AcDbEntity
  8
0
  6
CONTINUOUS
 62
     7
100
AcDbLine
 10
1159.0087885783
 20
926.5495214879
 30
0.0
 11
1159.0748454259
 21
926.6155783355
 31
0.0
  0
ARC
  5
10C
330
1F
100
AcDbEntity
  8
0
  6
CONTINUOUS
 62
     7
100
AcDbCircle
 10
1159.5990038792
 20
926.6129681462
 30
0.0
 40
0.5239021487992674
100
AcDbArc
 50
179.7634291635
 51
264.5378380156
  0
ARC
  5
10D
330
1F
100
AcDbEntity
  8
0
  6
CONTINUOUS
 62
     7
100
AcDbCircle
 10
911.7647030575
 20
926.4566286809
 30
0.0
 40
0.2790587745552628
100
AcDbArc
 50
82.4959741496
 51
160.5563872021
  0
ARC
  5
10E
330
1F
100
AcDbEntity
  8
0
  6
CONTINUOUS
 62
     7
100
AcDbCircle
 10
1158.7456446518
 20
667.8516232602
 30
0.0
 40
0.279058774555225
100
AcDbArc
 50
262.4959741496
 51
340.5563872021
  0
ARC
  5
10F
330
1F
100
AcDbEntity
  8
0
  6
CONTINUOUS
 62
     7
100
AcDbCircle
 10
911.7647030575
 20
667.8516232602
 30
0.0
 40
0.279058774555152
100
AcDbArc
 50
199.4436127979
 51
277.5040258504
  0
ARC
  5
110
330
1F
100
AcDbEntity
  8
0
  6
CONTINUOUS
 62
     7
100
AcDbCircle
 10
1158.7456383208
 20
926.4566183602
 30
0.0
 40
0.279068180109474
100
AcDbArc
 50
19.4451782119
 51
97.5024604364
  0
ARC
  5
111
330
1F
100
AcDbEntity
  8
0
  6
CONTINUOUS
 62
     7
100
AcDbCircle
 10
904.9496714957
 20
673.6639642429
 30
0.0
 40
0.5202140816631922
100
AcDbArc
 50
4.9979846144
 51
87.9197590046
  0
LINE
  5
112
330
1F
100
AcDbEntity
  8
0
  6
CONTINUOUS
 62
     7
100
AcDbLine
 10
904.9996386097
 20
674.2403630435
 30
0.0
 11
904.9437890575
 21
674.1845209419
 31
0.0
  0
ARC
  5
113
330
1F
100
AcDbEntity
  8
0
  6
CONTINUOUS
 62
     7
100
AcDbCircle
 10
905.0545777339
 20
673.6922450903
 30
0.0
 40
0.5508644097848648
100
AcDbArc
 50
14.5016873898
 51
95.7237709705
  0
ARC
  5
114
330
1F
100
AcDbEntity
  8
0
  6
CONTINUOUS
 62
     7
100
AcDbCircle
 10
1165.4547737166
 20
920.614583537
 30
0.0
 40
0.5495487201832383
100
AcDbArc
 50
194.3919402146
 51
275.8419225704
  0
ARC
  5
115
330
1F
100
AcDbEntity
  8
0
  6
CONTINUOUS
 62
     7
100
AcDbCircle
 10
1165.5635591887
 20
920.6473534523
 30
0.0
 40
0.5233897936048044
100
AcDbArc
 50
185.3913793774
 51
267.6165469776
  0
LINE
  5
116
330
1F
100
AcDbEntity
  8
0
  6
CONTINUOUS
 62
     7
100
AcDbLine
 10
1165.5666182564
 20
920.1237980544
 30
0.0
 11
1165.5107090996
 21
920.0678888976
 31
0.0
  0
ARC
  5
117
330
1F
100
AcDbEntity
  8
0
  6
CONTINUOUS
 62
     7
100
AcDbCircle
 10
904.9496217047
 20
920.6443674856
 30
0.0
 40
0.5202956259428881
100
AcDbArc
 50
272.0854015136
 51
354.9066721313
  0
ARC
  5
118
330
1F
100
AcDbEntity
  8
0
  6
CONTINUOUS
 62
     7
100
AcDbCircle
 10
905.062632979
 20
920.6044583424
 30
0.0
 40
0.5402546248770937
100
AcDbArc
 50
263.3040081726
 51
346.4621290425
  0
LINE
  5
119
330
1F
100
AcDbEntity
  8
0
  6
CONTINUOUS
 62
     7
100
AcDbLine
 10
904.9437890575
 20
920.1237309992
 30
0.0
 11
904.9996386097
 21
920.0678888976
 31
0.0
  0
LINE
  5
11A
330
1F
100
AcDbEntity
  8
0
  6
CONTINUOUS
 62
     7
100
AcDbLine
 10
903.7823478506
 20
919.7930071771
 30
0.0
 11
903.7823478506
 21
674.515244764
 31
0.0
  0
LWPOLYLINE
  5
11B
330
1F
100
AcDbEntity
  8
0
  6
CONTINUOUS
 62
     7
100
AcDbPolyline
 90
        3
 70
   128
 43
0.0
 10
904.8158476875
 20
919.7683010518
 10
904.3187598513
 20
919.7852064192
 10
903.7823478506
 20
919.7930071771
  0
LWPOLYLINE
  5
11C
330
1F
100
AcDbEntity
  8
0
  6
CONTINUOUS
 62
     7
100
AcDbPolyline
 90
        4
 70
   128
 43
0.0
 10
904.8158476875
 20
919.7683010518
 10
905.1468620823
 20
919.8347527801
 10
905.3824941443
 20
920.0091634213
 10
905.5878619478
 20
920.47753672
  0
LWPOLYLINE
  5
11D
330
1F
100
AcDbEntity
  8
0
  6
CONTINUOUS
 62
     7
100
AcDbPolyline
 90
        4
 70
   128
 43
0.0
 10
905.5878917502
 20
673.8303128898
 10
905.3823302315
 20
674.2981646478
 10
905.1476220415
 20
674.4671885192
 10
904.8158476875
 20
674.5399508893
  0
LWPOLYLINE
  5
11E
330
1F
100
AcDbEntity
  8
0
  6
CONTINUOUS
 62
     7
100
AcDbPolyline
 90
        3
 70
   128
 43
0.0
 10
903.7823478506
 20
674.515244764
 10
904.3187598513
 20
674.5230455219
 10
904.8158476875
 20
674.5399508893
  0
LWPOLYLINE
  5
11F
330
1F
100
AcDbEntity
  8
0
  6
CONTINUOUS
 62
     7
100
AcDbPolyline
 90
        4
 70
   128
 43
0.0
 10
1164.9224857615
 20
673.8307450234
 10
1165.1281515883
 20
674.29832111
 10
1165.3692970799
 20
674.4656536996
 10
1165.6945000218
 20
674.5399508893
  0
LWPOLYLINE
  5
120
330
1F
100
AcDbEntity
  8
0
  6
CONTINUOUS
 62
     7
100
AcDbPolyline
 90
        4
 70
   128
 43
0.0
 10
1165.6945000218
 20
919.7683010518
 10
1165.3635005282
 20
919.8347453296
 10
1165.1278833674
 20
920.0091410696
 10
1164.9224857615
 20
920.47753672
  0
LWPOLYLINE
  5
121
330
1F
100
AcDbEntity
  8
0
  6
CONTINUOUS
 62
     7
100
AcDbPolyline
 90
        3
 70
   128
 43
0.0
 10
1165.6945000218
 20
919.7683010518
 10
1166.1917517708
 20
919.7852138698
 10
1166.7279998587
 20
919.7930071771
  0
LINE
  5
122
330
1F
100
AcDbEntity
  8
0
  6
CONTINUOUS
 62
     7
100
AcDbLine
 10
1166.7279998587
 20
919.8160220205
 30
0.0
 11
1166.7279998587
 21
674.4922299206
 31
0.0
  0
LWPOLYLINE
  5
123
330
1F
100
AcDbEntity
  8
0
  6
CONTINUOUS
 62
     7
100
AcDbPolyline
 90
        3
 70
   128
 43
0.0
 10
1166.7279998587
 20
674.515244764
 10
1166.191587858
 20
674.5230455219
 10
1165.6945000218
 20
674.5399508893
  0
ARC
  5
124
330
1F
100
AcDbEntity
  8
0
  6
CONTINUOUS
 62
     7
100
AcDbCircle
 10
1165.455424879
 20
673.692736895
 30
0.0
 40
0.5504096143715528
100
AcDbArc
 50
84.2353789275
 51
165.5317349724
  0
LINE
  5
125
330
1F
100
AcDbEntity
  8
0
  6
CONTINUOUS
 62
     7
100
AcDbLine
 10
1165.5107090996
 20
674.2403630435
 30
0.0
 11
1165.5665586517
 21
674.1845209419
 31
0.0
  0
ARC
  5
126
330
1F
100
AcDbEntity
  8
0
  6
CONTINUOUS
 62
     7
100
AcDbCircle
 10
1165.5594497361
 20
673.6639005125
 30
0.0
 40
0.5190309421653803
100
AcDbArc
 50
91.9577397671
 51
174.8860992891
  0
ARC
  5
127
330
1F
100
AcDbEntity
  8
0
  6
CONTINUOUS
 62
     7
100
AcDbCircle
 10
905.09258013
 20
674.5035506161
 30
0.0
 40
0.27911614889006
100
AcDbArc
 50
172.5065622923
 51
250.5499402685
  0
ARC
  5
128
330
1F
100
AcDbEntity
  8
0
  6
CONTINUOUS
 62
     7
100
AcDbCircle
 10
1165.4177675793
 20
919.804701325
 30
0.0
 40
0.2791161488899849
100
AcDbArc
 50
352.5065622923
 51
70.5499402684
  0
ARC
  5
129
330
1F
100
AcDbEntity
  8
0
  6
CONTINUOUS
 62
     7
100
AcDbCircle
 10
905.0925524693
 20
919.8047320568
 30
0.0
 40
0.2790779606802935
100
AcDbArc
 50
109.4468058931
 51
187.5008327552
  0
LINE
  5
12A
330
1F
100
AcDbEntity
  8
0
  6
CONTINUOUS
 62
     7
100
AcDbLine
 10
892.0378486441
 20
808.2537671819
 30
0.0
 11
891.8390671537
 21
808.4506487742
 31
0.0
  0
LINE
  5
12B
330
1F
100
AcDbEntity
  8
0
  6
CONTINUOUS
 62
     7
100
AcDbLine
 10
892.0378486441
 20
786.0544847592
 30
0.0
 11
891.8390671537
 21
785.8576031669
 31
0.0
  0
LINE
  5
12C
330
1F
100
AcDbEntity
  8
0
  6
CONTINUOUS
 62
     7
100
AcDbLine
 10
891.8390671537
 20
658.0804709613
 30
0.0
 11
891.8390671537
 21
785.8576031669
 31
0.0
  0
LINE
  5
12D
330
1F
100
AcDbEntity
  8
0
  6
CONTINUOUS
 62
     7
100
AcDbLine
 10
890.9859160708
 20
657.2273198783
 30
0.0
 11
891.8390671537
 21
658.0804709613
 31
0.0
  0
LINE
  5
12E
330
1F
100
AcDbEntity
  8
0
  6
CONTINUOUS
 62
     7
100
AcDbLine
 10
890.9859160708
 20
937.0809320628
 30
0.0
 11
890.9859160708
 21
657.2273198783
 31
0.0
  0
LINE
  5
12F
330
1F
100
AcDbEntity
  8
0
  6
CONTINUOUS
 62
     7
100
AcDbLine
 10
891.8390671537
 20
936.2277809798
 30
0.0
 11
890.9859160708
 21
937.0809320628
 31
0.0
  0
LINE
  5
130
330
1F
100
AcDbEntity
  8
0
  6
CONTINUOUS
 62
     7
100
AcDbLine
 10
891.8390671537
 20
808.4506487742
 30
0.0
 11
891.8390671537
 21
936.2277809798
 31
0.0
  0
ARC
  5
131
330
1F
100
AcDbEntity
  8
0
  6
CONTINUOUS
 62
     7
100
AcDbCircle
 10
1165.4177675793
 20
674.5035506161
 30
0.0
 40
0.2791161488899621
100
AcDbArc
 50
289.4500597316
 51
7.4934377077
  0
LINE
  5
132
330
1F
100
AcDbEntity
  8
0
  6
CONTINUOUS
 62
     7
100
AcDbLine
 10
1178.6712805555
 20
936.2277809798
 30
0.0
 11
1179.5244316385
 21
937.0809320628
 31
0.0
  0
LINE
  5
133
330
1F
100
AcDbEntity
  8
0
  6
CONTINUOUS
 62
     7
100
AcDbLine
 10
1179.5244316385
 20
937.0809320628
 30
0.0
 11
1179.5244316385
 21
657.2273198783
 31
0.0
  0
LINE
  5
134
330
1F
100
AcDbEntity
  8
0
  6
CONTINUOUS
 62
     7
100
AcDbLine
 10
1179.5244316385
 20
657.2273198783
 30
0.0
 11
1178.6712805555
 21
658.0804709613
 31
0.0
  0
LINE
  5
135
330
1F
100
AcDbEntity
  8
0
  6
CONTINUOUS
 62
     7
100
AcDbLine
 10
1178.6712805555
 20
658.0804709613
 30
0.0
 11
1178.6712805555
 21
785.8576031669
 31
0.0
  0
LINE
  5
136
330
1F
100
AcDbEntity
  8
0
  6
CONTINUOUS
 62
     7
100
AcDbLine
 10
1178.4724990652
 20
786.0544847592
 30
0.0
 11
1178.6712805555
 21
785.8576031669
 31
0.0
  0
LINE
  5
137
330
1F
100
AcDbEntity
  8
0
  6
CONTINUOUS
 62
     7
100
AcDbLine
 10
1178.4724990652
 20
808.2537671819
 30
0.0
 11
1178.6712805555
 21
808.4506487742
 31
0.0
  0
LINE
  5
138
330
1F
100
AcDbEntity
  8
0
  6
CONTINUOUS
 62
     7
100
AcDbLine
 10
1178.6712805555
 20
808.4506487742
 30
0.0
 11
1178.6712805555
 21
936.2277809798
 31
0.0
  0
LINE
  5
139
330
1F
100
AcDbEntity
  8
0
  6
CONTINUOUS
 62
     7
100
AcDbLine
 10
893.6446259544
 20
808.361325626
 30
0.0
 11
895.5182234572
 21
808.361325626
 31
0.0
  0
ARC
  5
13A
330
1F
100
AcDbEntity
  8
0
  6
CONTINUOUS
 62
     7
100
AcDbCircle
 10
893.2121949515
 20
817.9135079941
 30
0.0
 40
9.561965517848723
100
AcDbArc
 50
261.7436043953
 51
272.592032431
  0
LINE
  5
13B
330
1F
100
AcDbEntity
  8
0
  6
CONTINUOUS
 62
     7
100
AcDbLine
 10
893.6446259544
 20
785.9469263151
 30
0.0
 11
895.5182234572
 21
785.9469263151
 31
0.0
  0
ARC
  5
13C
330
1F
100
AcDbEntity
  8
0
  6
CONTINUOUS
 62
     7
100
AcDbCircle
 10
893.2235217782
 20
776.1657859198
 30
0.0
 40
9.790201027545251
100
AcDbArc
 50
87.5347862737
 51
98.1295769001
  0
LINE
  5
13D
330
1F
100
AcDbEntity
  8
0
  6
CONTINUOUS
 62
     7
100
AcDbLine
 10
1176.8657217548
 20
808.361325626
 30
0.0
 11
1174.9921242521
 21
808.361325626
 31
0.0
  0
ARC
  5
13E
330
1F
100
AcDbEntity
  8
0
  6
CONTINUOUS
 62
     7
100
AcDbCircle
 10
1177.2868259311
 20
818.1424660213
 30
0.0
 40
9.790201027544477
100
AcDbArc
 50
267.5347862737
 51
278.1295769001
  0
LINE
  5
13F
330
1F
100
AcDbEntity
  8
0
  6
CONTINUOUS
 62
     7
100
AcDbLine
 10
1176.8657217548
 20
785.9469263151
 30
0.0
 11
1174.9921242521
 21
785.9469263151
 31
0.0
  0
ELLIPSE
  5
140
330
1F
100
AcDbEntity
  8
0
  6
CONTINUOUS
 62
     7
100
AcDbEllipse
 10
1176.6740280823
 20
785.842110412
 30
0.0
 11
1.999999930965487
 21
0.01007353861189131
 31
0.0
210
0.0
220
0.0
230
1.0
 40
0.0521651845
 41
0.0520971335575606
 42
1.474540473932109
  0
LWPOLYLINE
  5
141
330
1F
100
AcDbEntity
  8
0
  6
CONTINUOUS
 62
     7
100
AcDbPolyline
 90
        3
 70
   128
 43
0.0
 10
911.501559131
 20
926.5495214879
 10
911.483349912
 20
927.1831188619
 10
911.4768455551
 20
927.7380530059
  0
ARC
  5
142
330
1F
100
AcDbEntity
  8
0
  6
CONTINUOUS
 62
     7
100
AcDbCircle
 10
911.7118815695
 20
926.8644573683
 30
0.0
 40
0.9046608569610451
100
AcDbArc
 50
85.9081978496
 51
105.0585312307
  0
LWPOLYLINE
  5
143
330
1F
100
AcDbEntity
  8
0
  6
CONTINUOUS
 62
     7
100
AcDbPolyline
 90
        3
 70
   128
 43
0.0
 10
1159.0335021542
 20
666.5701989352
 10
1159.0239877627
 20
667.2697786509
 10
1159.0087885783
 20
667.7587304532
  0
ARC
  5
144
330
1F
100
AcDbEntity
  8
0
  6
CONTINUOUS
 62
     7
100
AcDbCircle
 10
1158.7984661398
 20
667.4437945728
 30
0.0
 40
0.9046608569589002
100
AcDbArc
 50
265.9081978496
 51
285.0585312307
  0
LWPOLYLINE
  5
145
330
1F
100
AcDbEntity
  8
0
  6
CONTINUOUS
 62
     7
100
AcDbPolyline
 90
        3
 70
   128
 43
0.0
 10
911.4768455551
 20
666.5701989352
 10
911.4863599465
 20
667.2697786509
 10
911.501559131
 20
667.7587304532
  0
ARC
  5
146
330
1F
100
AcDbEntity
  8
0
  6
CONTINUOUS
 62
     7
100
AcDbCircle
 10
911.7118815695
 20
667.4437945728
 30
0.0
 40
0.9046608569567256
100
AcDbArc
 50
254.9414687693
 51
274.0918021505
  0
LWPOLYLINE
  5
147
330
1F
100
AcDbEntity
  8
0
  6
CONTINUOUS
 62
     7
100
AcDbPolyline
 90
        3
 70
   128
 43
0.0
 10
1159.0087885783
 20
926.5495214879
 10
1159.0269977973
 20
927.1831188619
 10
1159.0335021542
 20
927.7380530059
  0
ARC
  5
148
330
1F
100
AcDbEntity
  8
0
  6
CONTINUOUS
 62
     7
100
AcDbCircle
 10
1158.7984661398
 20
926.8644573683
 30
0.0
 40
0.9046608569587904
100
AcDbArc
 50
74.9414687693
 51
94.0918021504
  0
LINE
  5
149
330
1F
100
AcDbEntity
  8
0
  6
CONTINUOUS
 62
     7
100
AcDbLine
 10
911.4355022834
 20
935.9311733663
 30
0.0
 11
911.4355022834
 21
926.5907380998
 31
0.0
  0
LINE
  5
14A
330
1F
100
AcDbEntity
  8
0
  6
CONTINUOUS
 62
     7
100
AcDbLine
 10
911.4768455551
 20
927.7380530059
 30
0.0
 11
911.4355022834
 21
935.9311733663
 31
0.0
  0
LINE
  5
14B
330
1F
100
AcDbEntity
  8
0
  6
CONTINUOUS
 62
     7
100
AcDbLine
 10
1159.0748454259
 20
658.3770785748
 30
0.0
 11
1159.0748454259
 21
667.7175138413
 31
0.0
  0
LINE
  5
14C
330
1F
100
AcDbEntity
  8
0
  6
CONTINUOUS
 62
     7
100
AcDbLine
 10
1159.0748454259
 20
658.3770785748
 30
0.0
 11
1159.0335021542
 21
666.5701989352
 31
0.0
  0
LINE
  5
14D
330
1F
100
AcDbEntity
  8
0
  6
CONTINUOUS
 62
     7
100
AcDbLine
 10
911.4355022834
 20
658.3770785748
 30
0.0
 11
911.4355022834
 21
667.7175138413
 31
0.0
  0
LINE
  5
14E
330
1F
100
AcDbEntity
  8
0
  6
CONTINUOUS
 62
     7
100
AcDbLine
 10
911.4355022834
 20
658.3770785748
 30
0.0
 11
911.4768455551
 21
666.5701989352
 31
0.0
  0
LWPOLYLINE
  5
14F
330
1F
100
AcDbEntity
  8
0
  6
CONTINUOUS
 62
     7
100
AcDbPolyline
 90
        3
 70
   128
 43
0.0
 10
1165.5107090996
 20
674.2403630435
 10
1166.1443064735
 20
674.2221612751
 10
1166.6992555187
 20
674.2156569182
  0
ARC
  5
150
330
1F
100
AcDbEntity
  8
0
  6
CONTINUOUS
 62
     7
100
AcDbCircle
 10
1165.9086042474
 20
674.4370508473
 30
0.0
 40
0.8210631551426496
100
AcDbArc
 50
344.3569758524
 51
3.8586449817
  0
LWPOLYLINE
  5
151
330
1F
100
AcDbEntity
  8
0
  6
CONTINUOUS
 62
     7
100
AcDbPolyline
 90
        3
 70
   128
 43
0.0
 10
1166.6992555187
 20
920.0925950229
 10
1165.9996609018
 20
920.083088082
 10
1165.5107090996
 20
920.0678888976
  0
ARC
  5
152
330
1F
100
AcDbEntity
  8
0
  6
CONTINUOUS
 62
     7
100
AcDbCircle
 10
1165.9085652614
 20
919.8711955823
 30
0.0
 40
0.8211021832785067
100
AcDbArc
 50
356.1414030857
 51
15.6426609484
  0
LWPOLYLINE
  5
153
330
1F
100
AcDbEntity
  8
0
  6
CONTINUOUS
 62
     7
100
AcDbPolyline
 90
        3
 70
   128
 43
0.0
 10
904.9996386097
 20
674.2403630435
 10
904.3660412357
 20
674.2221612751
 10
903.8110921906
 20
674.2156569182
  0
ARC
  5
154
330
1F
100
AcDbEntity
  8
0
  6
CONTINUOUS
 62
     7
100
AcDbCircle
 10
904.6847805389
 20
674.4506569461
 30
0.0
 40
0.9047410364800418
100
AcDbArc
 50
175.9062762965
 51
195.0548051463
  0
ARC
  5
155
330
1F
100
AcDbEntity
  8
0
  6
CONTINUOUS
 62
     7
100
AcDbCircle
 10
904.6847805389
 20
919.857594995
 30
0.0
 40
0.90474103648073
100
AcDbArc
 50
164.9451948537
 51
184.0937237035
  0
LWPOLYLINE
  5
156
330
1F
100
AcDbEntity
  8
0
  6
CONTINUOUS
 62
     7
100
AcDbPolyline
 90
        3
 70
   128
 43
0.0
 10
903.8110921906
 20
920.0925950229
 10
904.5106868074
 20
920.083088082
 10
904.9996386097
 20
920.0678888976
  0
LINE
  5
157
330
1F
100
AcDbEntity
  8
0
  6
CONTINUOUS
 62
     7
100
AcDbLine
 10
1159.0335021542
 20
927.7380530059
 30
0.0
 11
1159.0748454259
 21
935.9311733663
 31
0.0
  0
LINE
  5
158
330
1F
100
AcDbEntity
  8
0
  6
CONTINUOUS
 62
     7
100
AcDbLine
 10
1159.0748454259
 20
935.9311733663
 30
0.0
 11
1159.0748454259
 21
926.6155783355
 31
0.0
  0
LINE
  5
159
330
1F
100
AcDbEntity
  8
0
  6
CONTINUOUS
 62
     7
100
AcDbLine
 10
904.9685547875
 20
674.1844538867
 30
0.0
 11
897.6281384752
 21
674.1844538867
 31
0.0
  0
LINE
  5
15A
330
1F
100
AcDbEntity
  8
0
  6
CONTINUOUS
 62
     7
100
AcDbLine
 10
903.8110921906
 20
674.2156569182
 30
0.0
 11
897.6281384752
 21
674.1844538867
 31
0.0
  0
LINE
  5
15B
330
1F
100
AcDbEntity
  8
0
  6
CONTINUOUS
 62
     7
100
AcDbLine
 10
1172.8822092341
 20
920.1237980544
 30
0.0
 11
1166.6992555187
 21
920.0925950229
 31
0.0
  0
LINE
  5
15C
330
1F
100
AcDbEntity
  8
0
  6
CONTINUOUS
 62
     7
100
AcDbLine
 10
1165.5666182564
 20
920.1237980544
 30
0.0
 11
1172.8822092341
 21
920.1237980544
 31
0.0
  0
LINE
  5
15D
330
1F
100
AcDbEntity
  8
0
  6
CONTINUOUS
 62
     7
100
AcDbLine
 10
897.6281384752
 20
920.1237980544
 30
0.0
 11
903.8110921906
 21
920.0925950229
 31
0.0
  0
LINE
  5
15E
330
1F
100
AcDbEntity
  8
0
  6
CONTINUOUS
 62
     7
100
AcDbLine
 10
904.9685547875
 20
920.1237980544
 30
0.0
 11
897.6281384752
 21
920.1237980544
 31
0.0
  0
LINE
  5
15F
330
1F
100
AcDbEntity
  8
0
  6
CONTINUOUS
 62
     7
100
AcDbLine
 10
1166.6992555187
 20
674.2156569182
 30
0.0
 11
1172.8822092341
 21
674.1844538867
 31
0.0
  0
LINE
  5
160
330
1F
100
AcDbEntity
  8
0
  6
CONTINUOUS
 62
     7
100
AcDbLine
 10
1165.5417929218
 20
674.1844538867
 30
0.0
 11
1172.8822092341
 21
674.1844538867
 31
0.0
  0
LINE
  5
161
330
1F
100
AcDbEntity
  8
0
  6
CONTINUOUS
 62
     7
100
AcDbLine
 10
1158.7339143084
 20
927.766812247
 30
0.0
 11
1158.7900842355
 21
938.8981435716
 31
0.0
  0
LWPOLYLINE
  5
162
330
1F
100
AcDbEntity
  8
0
  6
CONTINUOUS
 62
     7
100
AcDbPolyline
 90
        6
 70
   128
 43
0.0
 10
1158.7900842355
 20
938.8981435716
 10
1158.8118995355
 20
938.8877574622
 10
1158.8287080453
 20
938.8722602546
 10
1158.8816444204
 20
938.7463305413
 10
1159.0364078806
 20
937.4359522283
 10
1159.0748454259
 20
935.9311733663
  0
LINE
  5
163
330
1F
100
AcDbEntity
  8
0
  6
CONTINUOUS
 62
     7
100
AcDbLine
 10
911.7764334009
 20
927.766812247
 30
0.0
 11
911.7202634738
 21
938.8981435716
 31
0.0
  0
LWPOLYLINE
  5
164
330
1F
100
AcDbEntity
  8
0
  6
CONTINUOUS
 62
     7
100
AcDbPolyline
 90
        6
 70
   128
 43
0.0
 10
911.7202634738
 20
938.8981435716
 10
911.698053293
 20
938.8878021657
 10
911.6816322134
 20
938.8724092662
 10
911.6275558994
 20
938.7423072278
 10
911.4739398287
 20
937.4359522283
 10
911.4355022834
 20
935.9311733663
  0
LINE
  5
165
330
1F
100
AcDbEntity
  8
0
  6
CONTINUOUS
 62
     7
100
AcDbLine
 10
1158.7900842355
 20
655.4101083695
 30
0.0
 11
1158.7339143084
 21
666.5414396941
 31
0.0
  0
LWPOLYLINE
  5
166
330
1F
100
AcDbEntity
  8
0
  6
CONTINUOUS
 62
     7
100
AcDbPolyline
 90
        6
 70
   128
 43
0.0
 10
1158.7900842355
 20
655.4101083695
 10
1158.8122795151
 20
655.4204348742
 10
1158.8287154959
 20
655.4358426749
 10
1158.8827918099
 20
655.5659447133
 10
1159.0364078806
 20
656.8722997128
 10
1159.0748454259
 20
658.3770785748
  0
LINE
  5
167
330
1F
100
AcDbEntity
  8
0
  6
CONTINUOUS
 62
     7
100
AcDbLine
 10
911.7202634738
 20
655.4101083695
 30
0.0
 11
911.7764334009
 21
666.5414396941
 31
0.0
  0
LWPOLYLINE
  5
168
330
1F
100
AcDbEntity
  8
0
  6
CONTINUOUS
 62
     7
100
AcDbPolyline
 90
        7
 70
   128
 43
0.0
 10
911.7202634738
 20
655.4101083695
 10
911.7064798997
 20
655.4170970141
 10
911.6929719971
 20
655.4290775477
 10
911.666805558
 20
655.4680440843
 10
911.5332837031
 20
656.1219964444
 10
911.4745284246
 20
656.8723295152
 10
911.4355022834
 20
658.3770785748
  0
LWPOLYLINE
  5
169
330
1F
100
AcDbEntity
  8
0
  6
CONTINUOUS
 62
     7
100
AcDbPolyline
 90
        3
 70
   128
 43
0.0
 10
1173.1788317488
 20
939.9146709859
 10
1173.7444798277
 20
939.8684177815
 10
1174.1789827869
 20
939.7678498446
  0
LINE
  5
16A
330
1F
100
AcDbEntity
  8
0
  6
CONTINUOUS
 62
     7
100
AcDbLine
 10
1174.1789827869
 20
939.7678498446
 30
0.0
 11
1173.3092765139
 21
938.8981435716
 31
0.0
  0
LINE
  5
16B
330
1F
100
AcDbEntity
  8
0
  6
CONTINUOUS
 62
     7
100
AcDbLine
 10
1173.3092765139
 20
938.8981435716
 30
0.0
 11
1158.7900842355
 21
938.8981435716
 31
0.0
  0
LINE
  5
16C
330
1F
100
AcDbEntity
  8
0
  6
CONTINUOUS
 62
     7
100
AcDbLine
 10
897.2010711954
 20
938.8981435716
 30
0.0
 11
911.7202634738
 21
938.8981435716
 31
0.0
  0
LINE
  5
16D
330
1F
100
AcDbEntity
  8
0
  6
CONTINUOUS
 62
     7
100
AcDbLine
 10
896.3313649223
 20
939.7678498446
 30
0.0
 11
897.2010711954
 21
938.8981435716
 31
0.0
  0
LWPOLYLINE
  5
16E
330
1F
100
AcDbEntity
  8
0
  6
CONTINUOUS
 62
     7
100
AcDbPolyline
 90
        3
 70
   128
 43
0.0
 10
897.3315159605
 20
939.9146709859
 10
896.7658678816
 20
939.8684177815
 10
896.3313649223
 20
939.7678498446
  0
LINE
  5
16F
330
1F
100
AcDbEntity
  8
0
  6
CONTINUOUS
 62
     7
100
AcDbLine
 10
1173.1788317488
 20
939.9146709859
 30
0.0
 11
897.3315159605
 21
939.9146709859
 31
0.0
  0
LINE
  5
170
330
1F
100
AcDbEntity
  8
0
  6
CONTINUOUS
 62
     7
100
AcDbLine
 10
1158.7900842355
 20
655.4101083695
 30
0.0
 11
1173.3092765139
 21
655.4101083695
 31
0.0
  0
LINE
  5
171
330
1F
100
AcDbEntity
  8
0
  6
CONTINUOUS
 62
     7
100
AcDbLine
 10
1173.3092765139
 20
655.4101083695
 30
0.0
 11
1174.1789827869
 21
654.5404020965
 31
0.0
  0
LWPOLYLINE
  5
172
330
1F
100
AcDbEntity
  8
0
  6
CONTINUOUS
 62
     7
100
AcDbPolyline
 90
        3
 70
   128
 43
0.0
 10
1174.1789827869
 20
654.5404020965
 10
1173.6240039394
 20
654.4221464812
 10
1173.1788317488
 20
654.3935809552
  0
LINE
  5
173
330
1F
100
AcDbEntity
  8
0
  6
CONTINUOUS
 62
     7
100
AcDbLine
 10
897.3315159605
 20
654.3935809552
 30
0.0
 11
1173.1788317488
 21
654.3935809552
 31
0.0
  0
LWPOLYLINE
  5
174
330
1F
100
AcDbEntity
  8
0
  6
CONTINUOUS
 62
     7
100
AcDbPolyline
 90
        3
 70
   128
 43
0.0
 10
896.3313649223
 20
654.5404020965
 10
896.8863437698
 20
654.4221464812
 10
897.3315159605
 20
654.3935809552
  0
LINE
  5
175
330
1F
100
AcDbEntity
  8
0
  6
CONTINUOUS
 62
     7
100
AcDbLine
 10
897.2010711954
 20
655.4101083695
 30
0.0
 11
896.3313649223
 21
654.5404020965
 31
0.0
  0
LINE
  5
176
330
1F
100
AcDbEntity
  8
0
  6
CONTINUOUS
 62
     7
100
AcDbLine
 10
911.7202634738
 20
655.4101083695
 30
0.0
 11
897.2010711954
 21
655.4101083695
 31
0.0
  0
LINE
  5
177
330
1F
100
AcDbEntity
  8
0
  6
CONTINUOUS
 62
     7
100
AcDbLine
 10
1176.8657217548
 20
658.0804709613
 30
0.0
 11
1176.8657217548
 21
785.9469263151
 31
0.0
  0
LWPOLYLINE
  5
178
330
1F
100
AcDbEntity
  8
0
  6
CONTINUOUS
 62
     7
100
AcDbPolyline
 90
        3
 70
   128
 43
0.0
 10
1176.8657217548
 20
658.0804709613
 10
1176.8194685505
 20
657.5148228824
 10
1176.7189006136
 20
657.0803199231
  0
LINE
  5
179
330
1F
100
AcDbEntity
  8
0
  6
CONTINUOUS
 62
     7
100
AcDbLine
 10
1176.7189006136
 20
657.0803199231
 30
0.0
 11
1175.8491794394
 21
657.9500261962
 31
0.0
  0
LINE
  5
17A
330
1F
100
AcDbEntity
  8
0
  6
CONTINUOUS
 62
     7
100
AcDbLine
 10
1175.8491794394
 20
657.9500261962
 30
0.0
 11
1175.8491794394
 21
674.4692150771
 31
0.0
  0
LINE
  5
17B
330
1F
100
AcDbEntity
  8
0
  6
CONTINUOUS
 62
     7
100
AcDbLine
 10
1166.7279998587
 20
674.4922299206
 30
0.0
 11
1175.8491794394
 21
674.4922299206
 31
0.0
  0
LINE
  5
17C
330
1F
100
AcDbEntity
  8
0
  6
CONTINUOUS
 62
     7
100
AcDbLine
 10
1175.8491794394
 20
919.8160220205
 30
0.0
 11
1166.7279998587
 21
919.8160220205
 31
0.0
  0
LINE
  5
17D
330
1F
100
AcDbEntity
  8
0
  6
CONTINUOUS
 62
     7
100
AcDbLine
 10
1175.8491794394
 20
919.8160220205
 30
0.0
 11
1175.8491794394
 21
936.3582257449
 31
0.0
  0
LINE
  5
17E
330
1F
100
AcDbEntity
  8
0
  6
CONTINUOUS
 62
     7
100
AcDbLine
 10
1175.8491794394
 20
936.3582257449
 30
0.0
 11
1176.7189006136
 21
937.227932018
 31
0.0
  0
LWPOLYLINE
  5
17F
330
1F
100
AcDbEntity
  8
0
  6
CONTINUOUS
 62
     7
100
AcDbPolyline
 90
        3
 70
   128
 43
0.0
 10
1176.7189006136
 20
937.227932018
 10
1176.8371562288
 20
936.6729531705
 10
1176.8657217548
 20
936.2277809798
  0
LINE
  5
180
330
1F
100
AcDbEntity
  8
0
  6
CONTINUOUS
 62
     7
100
AcDbLine
 10
1176.8657217548
 20
808.361325626
 30
0.0
 11
1176.8657217548
 21
936.2277809798
 31
0.0
  0
LWPOLYLINE
  5
181
330
1F
100
AcDbEntity
  8
0
  6
CONTINUOUS
 62
     7
100
AcDbPolyline
 90
        6
 70
   128
 43
0.0
 10
1175.8491794394
 20
674.4692150771
 10
1175.8390913532
 20
674.4471688091
 10
1175.8238772677
 20
674.4309414446
 10
1175.6973813103
 20
674.3776548922
 10
1174.3869880961
 20
674.222891432
 10
1172.8822092341
 20
674.1844538867
  0
LWPOLYLINE
  5
182
330
1F
100
AcDbEntity
  8
0
  6
CONTINUOUS
 62
     7
100
AcDbPolyline
 90
        6
 70
   128
 43
0.0
 10
1175.8491794394
 20
919.839036864
 10
1175.8388529347
 20
919.8612470447
 10
1175.8234600351
 20
919.8776681244
 10
1175.6933579968
 20
919.9317444384
 10
1174.3870029972
 20
920.0853605091
 10
1172.8822092341
 20
920.1237980544
  0
LINE
  5
183
330
1F
100
AcDbEntity
  8
0
  6
CONTINUOUS
 62
     7
100
AcDbLine
 10
894.6612725781
 20
919.839036864
 30
0.0
 11
903.7823478506
 21
919.7930071771
 31
0.0
  0
LWPOLYLINE
  5
184
330
1F
100
AcDbEntity
  8
0
  6
CONTINUOUS
 62
     7
100
AcDbPolyline
 90
        6
 70
   128
 43
0.0
 10
894.6611682699
 20
919.839036864
 10
894.6715394781
 20
919.860852164
 10
894.6870366858
 20
919.8776606738
 10
894.8129813002
 20
919.9305970489
 10
896.1233596132
 20
920.0853605091
 10
897.6281384752
 20
920.1237980544
  0
LINE
  5
185
330
1F
100
AcDbEntity
  8
0
  6
CONTINUOUS
 62
     7
100
AcDbLine
 10
903.7823478506
 20
674.515244764
 30
0.0
 11
894.6611682699
 21
674.4692150771
 31
0.0
  0
LWPOLYLINE
  5
186
330
1F
100
AcDbEntity
  8
0
  6
CONTINUOUS
 62
     7
100
AcDbPolyline
 90
        6
 70
   128
 43
0.0
 10
894.6611682699
 20
674.4692150771
 10
894.6714798735
 20
674.4470123469
 10
894.6868876741
 20
674.4305838167
 10
894.8169897125
 20
674.3765075027
 10
896.1233447121
 20
674.2227275192
 10
897.6281384752
 20
674.1844538867
  0
LINE
  5
187
330
1F
100
AcDbEntity
  8
0
  6
CONTINUOUS
 62
     7
100
AcDbLine
 10
893.6446259544
 20
808.361325626
 30
0.0
 11
893.6446259544
 21
936.2277809798
 31
0.0
  0
LWPOLYLINE
  5
188
330
1F
100
AcDbEntity
  8
0
  6
CONTINUOUS
 62
     7
100
AcDbPolyline
 90
        3
 70
   128
 43
0.0
 10
893.7914470957
 20
937.227932018
 10
893.6731914805
 20
936.6729531705
 10
893.6446259544
 20
936.2277809798
  0
LINE
  5
189
330
1F
100
AcDbEntity
  8
0
  6
CONTINUOUS
 62
     7
100
AcDbLine
 10
894.6611682699
 20
936.3582257449
 30
0.0
 11
893.7914470957
 21
937.227932018
 31
0.0
  0
LINE
  5
18A
330
1F
100
AcDbEntity
  8
0
  6
CONTINUOUS
 62
     7
100
AcDbLine
 10
894.6611682699
 20
919.8160220205
 30
0.0
 11
894.6611682699
 21
936.3582257449
 31
0.0
  0
LINE
  5
18B
330
1F
100
AcDbEntity
  8
0
  6
CONTINUOUS
 62
     7
100
AcDbLine
 10
894.6611682699
 20
657.9500261962
 30
0.0
 11
894.6611682699
 21
674.4692150771
 31
0.0
  0
LINE
  5
18C
330
1F
100
AcDbEntity
  8
0
  6
CONTINUOUS
 62
     7
100
AcDbLine
 10
893.7914470957
 20
657.0803199231
 30
0.0
 11
894.6611682699
 21
657.9500261962
 31
0.0
  0
LWPOLYLINE
  5
18D
330
1F
100
AcDbEntity
  8
0
  6
CONTINUOUS
 62
     7
100
AcDbPolyline
 90
        3
 70
   128
 43
0.0
 10
893.6446259544
 20
658.0804709613
 10
893.6908791588
 20
657.5148228824
 10
893.7914470957
 20
657.0803199231
  0
LINE
  5
18E
330
1F
100
AcDbEntity
  8
0
  6
CONTINUOUS
 62
     7
100
AcDbLine
 10
893.6446259544
 20
658.0804709613
 30
0.0
 11
893.6446259544
 21
785.9469263151
 31
0.0
  0
LINE
  5
18F
330
1F
100
AcDbEntity
  8
0
  6
CONTINUOUS
 62
     7
100
AcDbLine
 10
905.4678628967
 20
673.7092856585
 30
0.0
 11
904.9685547875
 21
673.7092856585
 31
0.0
  0
LINE
  5
190
330
1F
100
AcDbEntity
  8
0
  6
CONTINUOUS
 62
     7
100
AcDbLine
 10
904.9685547875
 20
674.1844538867
 30
0.0
 11
904.9685547875
 21
673.7092856585
 31
0.0
  0
LINE
  5
191
330
1F
100
AcDbEntity
  8
0
  6
CONTINUOUS
 62
     7
100
AcDbLine
 10
910.9603340552
 20
667.7175138413
 30
0.0
 11
911.4355022834
 21
667.7175138413
 31
0.0
  0
LINE
  5
192
330
1F
100
AcDbEntity
  8
0
  6
CONTINUOUS
 62
     7
100
AcDbLine
 10
910.9603340552
 20
667.7175138413
 30
0.0
 11
910.9603340552
 21
668.2168070495
 31
0.0
  0
LINE
  5
193
330
1F
100
AcDbEntity
  8
0
  6
CONTINUOUS
 62
     7
100
AcDbLine
 10
910.9603340552
 20
926.0914299905
 30
0.0
 11
910.9603340552
 21
926.5907380998
 31
0.0
  0
LINE
  5
194
330
1F
100
AcDbEntity
  8
0
  6
CONTINUOUS
 62
     7
100
AcDbLine
 10
911.4348838852
 20
926.5907380998
 30
0.0
 11
910.9603340552
 21
926.5907380998
 31
0.0
  0
LINE
  5
195
330
1F
100
AcDbEntity
  8
0
  6
CONTINUOUS
 62
     7
100
AcDbLine
 10
904.9685547875
 20
920.5989662826
 30
0.0
 11
904.9685547875
 21
920.1237980544
 31
0.0
  0
LINE
  5
196
330
1F
100
AcDbEntity
  8
0
  6
CONTINUOUS
 62
     7
100
AcDbLine
 10
904.9685547875
 20
920.5989662826
 30
0.0
 11
905.4678628967
 21
920.5989662826
 31
0.0
  0
LINE
  5
197
330
1F
100
AcDbEntity
  8
0
  6
CONTINUOUS
 62
     7
100
AcDbLine
 10
1159.0748454259
 20
926.5907380998
 30
0.0
 11
1159.550013654
 21
926.5907380998
 31
0.0
  0
LINE
  5
198
330
1F
100
AcDbEntity
  8
0
  6
CONTINUOUS
 62
     7
100
AcDbLine
 10
1159.550013654
 20
926.0914299905
 30
0.0
 11
1159.550013654
 21
926.5907380998
 31
0.0
  0
ARC
  5
199
330
1F
100
AcDbEntity
  8
0
  6
CONTINUOUS
 62
     7
100
AcDbCircle
 10
910.960850233
 20
673.7098092875
 30
0.0
 40
5.992295468380949
100
AcDbArc
 50
180.0050067171
 51
269.9950645283
  0
ARC
  5
19A
330
1F
100
AcDbEntity
  8
0
  6
CONTINUOUS
 62
     7
100
AcDbCircle
 10
910.960708683
 20
920.5985842038
 30
0.0
 40
5.992153907700033
100
AcDbArc
 50
90.0035821156
 51
179.996346639
  0
LINE
  5
19B
330
1F
100
AcDbEntity
  8
0
  6
CONTINUOUS
 62
     7
100
AcDbLine
 10
1165.5417929218
 20
920.5989662826
 30
0.0
 11
1165.0424848126
 21
920.5989662826
 31
0.0
  0
LINE
  5
19C
330
1F
100
AcDbEntity
  8
0
  6
CONTINUOUS
 62
     7
100
AcDbLine
 10
1165.5417929218
 20
920.5989662826
 30
0.0
 11
1165.5417929218
 21
920.1237980544
 31
0.0
  0
LINE
  5
19D
330
1F
100
AcDbEntity
  8
0
  6
CONTINUOUS
 62
     7
100
AcDbLine
 10
1159.550013654
 20
667.7175138413
 30
0.0
 11
1159.550013654
 21
668.2168219506
 31
0.0
  0
LINE
  5
19E
330
1F
100
AcDbEntity
  8
0
  6
CONTINUOUS
 62
     7
100
AcDbLine
 10
1159.550013654
 20
667.7175138413
 30
0.0
 11
1159.0748454259
 21
667.7175138413
 31
0.0
  0
LINE
  5
19F
330
1F
100
AcDbEntity
  8
0
  6
CONTINUOUS
 62
     7
100
AcDbLine
 10
1165.5417929218
 20
674.1844538867
 30
0.0
 11
1165.5417929218
 21
673.7092856585
 31
0.0
  0
LINE
  5
1A0
330
1F
100
AcDbEntity
  8
0
  6
CONTINUOUS
 62
     7
100
AcDbLine
 10
1165.0424848126
 20
673.7092856585
 30
0.0
 11
1165.5417929218
 21
673.7092856585
 31
0.0
  0
ARC
  5
1A1
330
1F
100
AcDbEntity
  8
0
  6
CONTINUOUS
 62
     7
100
AcDbCircle
 10
1159.5496511073
 20
920.5985962848
 30
0.0
 40
5.992141825923129
100
AcDbArc
 50
0.0035378517
 51
89.9965333937
  0
ARC
  5
1A2
330
1F
100
AcDbEntity
  8
0
  6
CONTINUOUS
 62
     7
100
AcDbCircle
 10
1159.5496403976
 20
673.7096663661
 30
0.0
 40
5.992152536343834
100
AcDbArc
 50
270.0035690046
 51
359.9963597499
  0
ARC
  5
1A3
330
1F
100
AcDbEntity
  8
0
  6
CONTINUOUS
 62
     7
100
AcDbCircle
 10
1173.5617954056
 20
936.6107580563
 30
0.0
 40
2.301281878888171
100
AcDbArc
 50
353.6999316226
 51
96.2997322342
  0
ARC
  5
1A4
330
1F
100
AcDbEntity
  8
0
  6
CONTINUOUS
 62
     7
100
AcDbCircle
 10
1168.1051812824
 20
931.1541471326
 30
0.0
 40
2.752633414395727
100
AcDbArc
 50
22.7144191451
 51
87.2853661146
  0
ARC
  5
1A5
330
1F
100
AcDbEntity
  8
0
  6
CONTINUOUS
 62
     7
100
AcDbCircle
 10
1165.9286898067
 20
935.8216110738
 30
0.0
 40
2.999999999999886
100
AcDbArc
 50
269.7402128278
 51
320.2597871723
  0
ARC
  5
1A6
330
1F
100
AcDbEntity
  8
0
  6
CONTINUOUS
 62
     7
100
AcDbCircle
 10
1168.1051742423
 20
931.1541323538
 30
0.0
 40
2.752653026191346
100
AcDbArc
 50
142.7147670695
 51
207.2853609962
  0
ARC
  5
1A7
330
1F
100
AcDbEntity
  8
0
  6
CONTINUOUS
 62
     7
100
AcDbCircle
 10
1165.1477002364
 20
926.9304263179
 30
0.0
 40
3.005602200144798
100
AcDbArc
 50
29.7905056409
 51
80.2093908814
  0
LWPOLYLINE
  5
1A8
330
1F
100
AcDbEntity
  8
0
  6
CONTINUOUS
 62
     7
100
AcDbPolyline
 90
        3
 70
   128
 43
0.0
 10
1167.7561054752
 20
928.4237001359
 10
1167.9512510822
 20
928.4057889401
 10
1168.1051800774
 20
928.4014676034
  0
ARC
  5
1A9
330
1F
100
AcDbEntity
  8
0
  6
CONTINUOUS
 62
     7
100
AcDbCircle
 10
1168.1017081034
 20
931.1604520039
 30
0.0
 40
2.758986585078468
100
AcDbArc
 50
270.0721023821
 51
327.2137294893
  0
ARC
  5
1AA
330
1F
100
AcDbEntity
  8
0
  6
CONTINUOUS
 62
     7
100
AcDbCircle
 10
1173.2355765498
 20
930.7052738954
 30
0.0
 40
3.000000000000355
100
AcDbArc
 50
149.7402128278
 51
200.2597871722
  0
ARC
  5
1AB
330
1F
100
AcDbEntity
  8
0
  6
CONTINUOUS
 62
     7
100
AcDbCircle
 10
1173.5617909461
 20
657.6974983443
 30
0.0
 40
2.301285822147117
100
AcDbArc
 50
263.7003903095
 51
6.2999458338
  0
ARC
  5
1AC
330
1F
100
AcDbEntity
  8
0
  6
CONTINUOUS
 62
     7
100
AcDbCircle
 10
1168.1051812824
 20
663.1541048085
 30
0.0
 40
2.752633414395727
100
AcDbArc
 50
272.7146338854
 51
337.2855808549
  0
ARC
  5
1AD
330
1F
100
AcDbEntity
  8
0
  6
CONTINUOUS
 62
     7
100
AcDbCircle
 10
1173.2355765498
 20
663.6029780457
 30
0.0
 40
3.000000000000149
100
AcDbArc
 50
159.7402128278
 51
210.2597871722
  0
ARC
  5
1AE
330
1F
100
AcDbEntity
  8
0
  6
CONTINUOUS
 62
     7
100
AcDbCircle
 10
1168.1017131096
 20
663.1478091028
 30
0.0
 40
2.758977413221029
100
AcDbArc
 50
32.7861667876
 51
89.928001341
  0
LWPOLYLINE
  5
1AF
330
1F
100
AcDbEntity
  8
0
  6
CONTINUOUS
 62
     7
100
AcDbPolyline
 90
        3
 70
   128
 43
0.0
 10
1168.1051800774
 20
665.9067843377
 10
1167.9093341158
 20
665.8997956931
 10
1167.7561054752
 20
665.8845518052
  0
ARC
  5
1B0
330
1F
100
AcDbEntity
  8
0
  6
CONTINUOUS
 62
     7
100
AcDbCircle
 10
1165.1476579229
 20
667.3778860531
 30
0.0
 40
3.005668945366851
100
AcDbArc
 50
279.791208089
 51
330.2088953887
  0
ARC
  5
1B1
330
1F
100
AcDbEntity
  8
0
  6
CONTINUOUS
 62
     7
100
AcDbCircle
 10
1168.1051742423
 20
663.1541195873
 30
0.0
 40
2.752653026191078
100
AcDbArc
 50
152.7146390038
 51
217.2852329305
  0
ARC
  5
1B2
330
1F
100
AcDbEntity
  8
0
  6
CONTINUOUS
 62
     7
100
AcDbCircle
 10
1165.9286898067
 20
658.4866408673
 30
0.0
 40
3.000000000000407
100
AcDbArc
 50
39.7402128278
 51
90.2597871723
  0
ARC
  5
1B3
330
1F
100
AcDbEntity
  8
0
  6
CONTINUOUS
 62
     7
100
AcDbCircle
 10
896.9485523037
 20
936.6107580563
 30
0.0
 40
2.301281878887743
100
AcDbArc
 50
83.7002677658
 51
186.3000683774
  0
ARC
  5
1B4
330
1F
100
AcDbEntity
  8
0
  6
CONTINUOUS
 62
     7
100
AcDbCircle
 10
902.4087138244
 20
931.160587888
 30
0.0
 40
2.759122563551477
100
AcDbArc
 50
212.7878081767
 51
269.9263599519
  0
LINE
  5
1B5
330
1F
100
AcDbEntity
  8
0
  6
CONTINUOUS
 62
     7
100
AcDbLine
 10
902.7514408157
 20
928.4234021127
 30
0.0
 11
902.4051676319
 21
928.4014676034
 31
0.0
  0
ARC
  5
1B6
330
1F
100
AcDbEntity
  8
0
  6
CONTINUOUS
 62
     7
100
AcDbCircle
 10
905.3682825792
 20
926.9176949373
 30
0.0
 40
3.019108297664984
100
AcDbArc
 50
99.8549073383
 51
150.0842652119
  0
ARC
  5
1B7
330
1F
100
AcDbEntity
  8
0
  6
CONTINUOUS
 62
     7
100
AcDbCircle
 10
902.4065106
 20
931.1539105118
 30
0.0
 40
2.751363004156945
100
AcDbArc
 50
332.7059798988
 51
37.2533874951
  0
ARC
  5
1B8
330
1F
100
AcDbEntity
  8
0
  6
CONTINUOUS
 62
     7
100
AcDbCircle
 10
904.592260999
 20
935.8381681083
 30
0.0
 40
3.018747609376469
100
AcDbArc
 50
219.8530586318
 51
270.0805054443
  0
ARC
  5
1B9
330
1F
100
AcDbEntity
  8
0
  6
CONTINUOUS
 62
     7
100
AcDbCircle
 10
902.4047019089
 20
931.1553905187
 30
0.0
 40
2.75136945315601
100
AcDbArc
 50
92.7061977311
 51
157.2535144714
  0
ARC
  5
1BA
330
1F
100
AcDbEntity
  8
0
  6
CONTINUOUS
 62
     7
100
AcDbCircle
 10
897.2551726233
 20
930.706182897
 30
0.0
 40
3.018708262897781
100
AcDbArc
 50
339.8528510774
 51
30.0807420439
  0
ARC
  5
1BB
330
1F
100
AcDbEntity
  8
0
  6
CONTINUOUS
 62
     7
100
AcDbCircle
 10
896.9485567632
 20
657.6974983443
 30
0.0
 40
2.301285822146816
100
AcDbArc
 50
173.7000541662
 51
276.2996096906
  0
ARC
  5
1BC
330
1F
100
AcDbEntity
  8
0
  6
CONTINUOUS
 62
     7
100
AcDbCircle
 10
902.4065106
 20
663.1543414293
 30
0.0
 40
2.751363004156764
100
AcDbArc
 50
322.7466125049
 51
27.2940201012
  0
ARC
  5
1BD
330
1F
100
AcDbEntity
  8
0
  6
CONTINUOUS
 62
     7
100
AcDbCircle
 10
905.3682576497
 20
667.3905213605
 30
0.0
 40
3.019068913600105
100
AcDbArc
 50
209.9153844326
 51
260.1454430172
  0
LINE
  5
1BE
330
1F
100
AcDbEntity
  8
0
  6
CONTINUOUS
 62
     7
100
AcDbLine
 10
902.4051676319
 20
665.9067843377
 30
0.0
 11
902.7514408157
 21
665.8848498284
 31
0.0
  0
ARC
  5
1BF
330
1F
100
AcDbEntity
  8
0
  6
CONTINUOUS
 62
     7
100
AcDbCircle
 10
902.4087188402
 20
663.1476548699
 30
0.0
 40
2.759131753171783
100
AcDbArc
 50
90.0737439595
 51
147.2120879119
  0
ARC
  5
1C0
330
1F
100
AcDbEntity
  8
0
  6
CONTINUOUS
 62
     7
100
AcDbCircle
 10
897.2685113127
 20
663.6035190709
 30
0.0
 40
3.005688055274012
100
AcDbArc
 50
329.7913950861
 51
20.2087773601
  0
ARC
  5
1C1
330
1F
100
AcDbEntity
  8
0
  6
CONTINUOUS
 62
     7
100
AcDbCircle
 10
902.4051664269
 20
663.1541048085
 30
0.0
 40
2.752633414395578
100
AcDbArc
 50
202.7144191451
 51
267.2853661146
  0
ARC
  5
1C2
330
1F
100
AcDbEntity
  8
0
  6
CONTINUOUS
 62
     7
100
AcDbCircle
 10
904.5842757625
 20
658.4810122181
 30
0.0
 40
3.005616063755224
100
AcDbArc
 50
89.7904975011
 51
140.2093249413
  0
ARC
  5
1C3
330
1F
100
AcDbEntity
  8
0
  6
CONTINUOUS
 62
     7
100
AcDbCircle
 10
1172.8385626508
 20
935.8875118819
 30
0.0
 40
4.105331758427507
100
AcDbArc
 50
19.05690971
 51
70.94309029
  0
ARC
  5
1C4
330
1F
100
AcDbEntity
  8
0
  6
CONTINUOUS
 62
     7
100
AcDbCircle
 10
1172.8382303254
 20
658.4210802506
 30
0.0
 40
4.105761817163335
100
AcDbArc
 50
289.059743089
 51
340.9399207677
  0
ARC
  5
1C5
330
1F
100
AcDbEntity
  8
0
  6
CONTINUOUS
 62
     7
100
AcDbCircle
 10
905.3616975893
 20
926.9290049578
 30
0.0
 40
3.048045725920921
100
AcDbArc
 50
99.0557476355
 51
150.8772490525
  0
ARC
  5
1C6
330
1F
100
AcDbEntity
  8
0
  6
CONTINUOUS
 62
     7
100
AcDbCircle
 10
1165.1508518056
 20
926.9321458695
 30
0.0
 40
3.044605055987847
100
AcDbArc
 50
28.5189687037
 51
81.1848041751
  0
ARC
  5
1C7
330
1F
100
AcDbEntity
  8
0
  6
CONTINUOUS
 62
     7
100
AcDbCircle
 10
1173.243633346
 20
663.603627788
 30
0.0
 40
3.054711352097514
100
AcDbArc
 50
159.152177018
 51
210.8455357176
  0
ARC
  5
1C8
330
1F
100
AcDbEntity
  8
0
  6
CONTINUOUS
 62
     7
100
AcDbCircle
 10
897.2594874248
 20
663.6042599178
 30
0.0
 40
3.061241802233135
100
AcDbArc
 50
329.2136593504
 51
20.788627914
  0
ARC
  5
1C9
330
1F
100
AcDbEntity
  8
0
  6
CONTINUOUS
 62
     7
100
AcDbCircle
 10
1165.927311253
 20
658.4798568539
 30
0.0
 40
3.053079355373582
100
AcDbArc
 50
39.1725847331
 51
89.974188142
  0
ARC
  5
1CA
330
1F
100
AcDbEntity
  8
0
  6
CONTINUOUS
 62
     7
100
AcDbCircle
 10
904.5856244021
 20
935.8338387613
 30
0.0
 40
3.058525287548466
100
AcDbArc
 50
219.2210191422
 51
269.925753733
  0
ARC
  5
1CB
330
1F
100
AcDbEntity
  8
0
  6
CONTINUOUS
 62
     7
100
AcDbCircle
 10
897.2602988609
 20
930.7040629984
 30
0.0
 40
3.060508404856827
100
AcDbArc
 50
339.2047382913
 51
30.7929744443
  0
ARC
  5
1CC
330
1F
100
AcDbEntity
  8
0
  6
CONTINUOUS
 62
     7
100
AcDbCircle
 10
1165.9274210858
 20
935.8281640569
 30
0.0
 40
3.052848277578501
100
AcDbArc
 50
270.0237524725
 51
320.8294746524
  0
ARC
  5
1CD
330
1F
100
AcDbEntity
  8
0
  6
CONTINUOUS
 62
     7
100
AcDbCircle
 10
1173.2439092142
 20
930.7046000234
 30
0.0
 40
3.054960573785099
100
AcDbArc
 50
149.1567285341
 51
200.8455587303
  0
ARC
  5
1CE
330
1F
100
AcDbEntity
  8
0
  6
CONTINUOUS
 62
     7
100
AcDbCircle
 10
1165.1508166444
 20
667.3761537029
 30
0.0
 40
3.044658692367245
100
AcDbArc
 50
278.2253626323
 51
331.4805596321
  0
ARC
  5
1CF
330
1F
100
AcDbEntity
  8
0
  6
CONTINUOUS
 62
     7
100
AcDbCircle
 10
905.411671808
 20
667.4520076198
 30
0.0
 40
3.135035199882388
100
AcDbArc
 50
209.2824091085
 51
261.1328643877
  0
ARC
  5
1D0
330
1F
100
AcDbEntity
  8
0
  6
CONTINUOUS
 62
     7
100
AcDbCircle
 10
904.5858662196
 20
658.4738639893
 30
0.0
 40
3.059059899379474
100
AcDbArc
 50
90.0787625043
 51
140.7738758387
  0
ARC
  5
1D1
330
1F
100
AcDbEntity
  8
0
  6
CONTINUOUS
 62
     7
100
AcDbCircle
 10
897.6667595344
 20
935.8925374059
 30
0.0
 40
4.098941969314938
100
AcDbArc
 50
109.0134483145
 51
160.9865516855
  0
ARC
  5
1D2
330
1F
100
AcDbEntity
  8
0
  6
CONTINUOUS
 62
     7
100
AcDbCircle
 10
897.667130599
 20
658.4160934365
 30
0.0
 40
4.099421094074556
100
AcDbArc
 50
199.0169624159
 51
250.9833737274
  0
ARC
  5
1D3
330
1F
100
AcDbEntity
  8
0
  6
CONTINUOUS
 62
     7
100
AcDbCircle
 10
1173.1606208864
 20
936.2095637008
 30
0.0
 40
5.51299567112616
100
AcDbArc
 50
16.7518299409
 51
73.2484014305
  0
ARC
  5
1D4
330
1F
100
AcDbEntity
  8
0
  6
CONTINUOUS
 62
     7
100
AcDbCircle
 10
1171.7445504701
 20
955.1082399406
 30
0.0
 40
18.5593526491585
100
AcDbArc
 50
285.5467113709
 51
291.1456673146
  0
ARC
  5
1D5
330
1F
100
AcDbEntity
  8
0
  6
CONTINUOUS
 62
     7
100
AcDbCircle
 10
1193.1342906408
 20
934.4371750101
 30
0.0
 40
19.69060156586495
100
AcDbArc
 50
159.0157371908
 51
164.2927781377
  0
ARC
  5
1D6
330
1F
100
AcDbEntity
  8
0
  6
CONTINUOUS
 62
     7
100
AcDbCircle
 10
1173.1606208864
 20
658.0986882403
 30
0.0
 40
5.512995671126127
100
AcDbArc
 50
286.7515985695
 51
343.2481700591
  0
ARC
  5
1D7
330
1F
100
AcDbEntity
  8
0
  6
CONTINUOUS
 62
     7
100
AcDbCircle
 10
1192.0592658011
 20
659.5145940842
 30
0.0
 40
18.55928626313099
100
AcDbArc
 50
195.5462615907
 51
201.1452230808
  0
ARC
  5
1D8
330
1F
100
AcDbEntity
  8
0
  6
CONTINUOUS
 62
     7
100
AcDbCircle
 10
1171.3895961779
 20
638.1291298012
 30
0.0
 40
19.68625225931322
100
AcDbArc
 50
69.0151538469
 51
74.2933614817
  0
ARC
  5
1D9
330
1F
100
AcDbEntity
  8
0
  6
CONTINUOUS
 62
     7
100
AcDbCircle
 10
898.7631982605
 20
955.1008692838
 30
0.0
 40
18.55154073108147
100
AcDbArc
 50
248.8536071646
 51
254.454908164
  0
ARC
  5
1DA
330
1F
100
AcDbEntity
  8
0
  6
CONTINUOUS
 62
     7
100
AcDbCircle
 10
897.3481644074
 20
936.2111261227
 30
0.0
 40
5.51104932843776
100
AcDbArc
 50
106.7407260267
 51
163.2590426019
  0
ARC
  5
1DB
330
1F
100
AcDbEntity
  8
0
  6
CONTINUOUS
 62
     7
100
AcDbCircle
 10
878.4510819082
 20
934.7936578569
 30
0.0
 40
18.55928626312076
100
AcDbArc
 50
15.5462615907
 51
21.1452230808
  0
ARC
  5
1DC
330
1F
100
AcDbEntity
  8
0
  6
CONTINUOUS
 62
     7
100
AcDbCircle
 10
878.4510819082
 20
659.5145940842
 30
0.0
 40
18.55928626316399
100
AcDbArc
 50
338.8547769192
 51
344.4537384093
  0
ARC
  5
1DD
330
1F
100
AcDbEntity
  8
0
  6
CONTINUOUS
 62
     7
100
AcDbCircle
 10
897.3482261069
 20
658.0971875182
 30
0.0
 40
5.511126185443356
100
AcDbArc
 50
196.7413868988
 51
253.2588444726
  0
ARC
  5
1DE
330
1F
100
AcDbEntity
  8
0
  6
CONTINUOUS
 62
     7
100
AcDbCircle
 10
898.7657972392
 20
639.2000120005
 30
0.0
 40
18.55935264921837
100
AcDbArc
 50
105.546711371
 51
111.1456673146
  0
LINE
  5
1DF
330
1F
100
AcDbEntity
  8
0
  6
CONTINUOUS
 62
     7
100
AcDbLine
 10
1174.7495929525
 20
941.488606137
 30
0.0
 11
1173.1788317488
 21
941.7202446877
 31
0.0
  0
LINE
  5
1E0
330
1F
100
AcDbEntity
  8
0
  6
CONTINUOUS
 62
     7
100
AcDbLine
 10
1173.1788317488
 20
939.9146709859
 30
0.0
 11
1173.1788317488
 21
941.7202446877
 31
0.0
  0
LINE
  5
1E1
330
1F
100
AcDbEntity
  8
0
  6
CONTINUOUS
 62
     7
100
AcDbLine
 10
1178.4396569059
 20
656.5096948564
 30
0.0
 11
1178.6712805555
 21
658.0804709613
 31
0.0
  0
LINE
  5
1E2
330
1F
100
AcDbEntity
  8
0
  6
CONTINUOUS
 62
     7
100
AcDbLine
 10
1176.8657217548
 20
658.0804709613
 30
0.0
 11
1178.6712805555
 21
658.0804709613
 31
0.0
  0
LINE
  5
1E3
330
1F
100
AcDbEntity
  8
0
  6
CONTINUOUS
 62
     7
100
AcDbLine
 10
1173.1788317488
 20
652.5880072534
 30
0.0
 11
1174.7495929525
 21
652.8196458041
 31
0.0
  0
LINE
  5
1E4
330
1F
100
AcDbEntity
  8
0
  6
CONTINUOUS
 62
     7
100
AcDbLine
 10
1173.1788317488
 20
652.5880072534
 30
0.0
 11
1173.1788317488
 21
654.3935809552
 31
0.0
  0
LINE
  5
1E5
330
1F
100
AcDbEntity
  8
0
  6
CONTINUOUS
 62
     7
100
AcDbLine
 10
1178.6712805555
 20
936.2277809798
 30
0.0
 11
1178.4396569059
 21
937.7985570847
 31
0.0
  0
LINE
  5
1E6
330
1F
100
AcDbEntity
  8
0
  6
CONTINUOUS
 62
     7
100
AcDbLine
 10
1178.6712805555
 20
936.2277809798
 30
0.0
 11
1176.8657217548
 21
936.2277809798
 31
0.0
  0
LINE
  5
1E7
330
1F
100
AcDbEntity
  8
0
  6
CONTINUOUS
 62
     7
100
AcDbLine
 10
892.0706908033
 20
656.5096948564
 30
0.0
 11
891.8390671537
 21
658.0804709613
 31
0.0
  0
LINE
  5
1E8
330
1F
100
AcDbEntity
  8
0
  6
CONTINUOUS
 62
     7
100
AcDbLine
 10
893.6446259544
 20
658.0804709613
 30
0.0
 11
891.8390671537
 21
658.0804709613
 31
0.0
  0
LINE
  5
1E9
330
1F
100
AcDbEntity
  8
0
  6
CONTINUOUS
 62
     7
100
AcDbLine
 10
891.8390671537
 20
936.2277809798
 30
0.0
 11
893.6446259544
 21
936.2277809798
 31
0.0
  0
LINE
  5
1EA
330
1F
100
AcDbEntity
  8
0
  6
CONTINUOUS
 62
     7
100
AcDbLine
 10
891.8390671537
 20
936.2277809798
 30
0.0
 11
892.0706908033
 21
937.7985570847
 31
0.0
  0
LINE
  5
1EB
330
1F
100
AcDbEntity
  8
0
  6
CONTINUOUS
 62
     7
100
AcDbLine
 10
895.7607547567
 20
941.488606137
 30
0.0
 11
897.3315159605
 21
941.7202446877
 31
0.0
  0
LINE
  5
1EC
330
1F
100
AcDbEntity
  8
0
  6
CONTINUOUS
 62
     7
100
AcDbLine
 10
897.3315159605
 20
939.9146709859
 30
0.0
 11
897.3315159605
 21
941.7202446877
 31
0.0
  0
LINE
  5
1ED
330
1F
100
AcDbEntity
  8
0
  6
CONTINUOUS
 62
     7
100
AcDbLine
 10
897.3315159605
 20
652.5880072534
 30
0.0
 11
897.3315159605
 21
654.3935809552
 31
0.0
  0
LINE
  5
1EE
330
1F
100
AcDbEntity
  8
0
  6
CONTINUOUS
 62
     7
100
AcDbLine
 10
897.3315159605
 20
652.5880072534
 30
0.0
 11
895.7607547567
 21
652.8196458041
 31
0.0
  0
LINE
  5
1EF
330
1F
100
AcDbEntity
  8
0
  6
CONTINUOUS
 62
     7
100
AcDbLine
 10
897.3315159605
 20
941.7202446877
 30
0.0
 11
1173.1788317488
 21
941.7202446877
 31
0.0
  0
LINE
  5
1F0
330
1F
100
AcDbEntity
  8
0
  6
CONTINUOUS
 62
     7
100
AcDbLine
 10
1173.1788317488
 20
652.5880072534
 30
0.0
 11
897.3315159605
 21
652.5880072534
 31
0.0
  0
ARC
  5
1F1
330
1F
100
AcDbEntity
  8
0
  6
CONTINUOUS
 62
     7
100
AcDbCircle
 10
1174.0338579848
 20
657.2254447202
 30
0.0
 40
5.490573973945706
100
AcDbArc
 50
269.9802767196
 51
0.0195678356
  0
LINE
  5
1F2
330
1F
100
AcDbEntity
  8
0
  6
CONTINUOUS
 62
     7
100
AcDbLine
 10
1173.1788317488
 20
652.5880072534
 30
0.0
 11
1174.0319679306
 21
651.7348710715
 31
0.0
  0
LINE
  5
1F3
330
1F
100
AcDbEntity
  8
0
  6
CONTINUOUS
 62
     7
100
AcDbLine
 10
1174.0319679306
 20
942.5733808696
 30
0.0
 11
1173.1788317488
 21
941.7202446877
 31
0.0
  0
ARC
  5
1F4
330
1F
100
AcDbEntity
  8
0
  6
CONTINUOUS
 62
     7
100
AcDbCircle
 10
1174.0338579848
 20
937.0828072209
 30
0.0
 40
5.490573973945933
100
AcDbArc
 50
359.9804321644
 51
90.0197232804
  0
ARC
  5
1F5
330
1F
100
AcDbEntity
  8
0
  6
CONTINUOUS
 62
     7
100
AcDbCircle
 10
896.4764965814
 20
937.082800364
 30
0.0
 40
5.490580828480605
100
AcDbArc
 50
89.9803482977
 51
180.0194962575
  0
LINE
  5
1F6
330
1F
100
AcDbEntity
  8
0
  6
CONTINUOUS
 62
     7
100
AcDbLine
 10
896.4783797787
 20
942.5733808696
 30
0.0
 11
897.3315159605
 21
941.7202446877
 31
0.0
  0
LINE
  5
1F7
330
1F
100
AcDbEntity
  8
0
  6
CONTINUOUS
 62
     7
100
AcDbLine
 10
897.3315159605
 20
652.5880072534
 30
0.0
 11
896.4783797787
 21
651.7348710715
 31
0.0
  0
ARC
  5
1F8
330
1F
100
AcDbEntity
  8
0
  6
CONTINUOUS
 62
     7
100
AcDbCircle
 10
896.4764783824
 20
657.2254333781
 30
0.0
 40
5.490562635772473
100
AcDbArc
 50
179.9803137657
 51
270.0198416791
  0
LINE
  5
1F9
330
1F
100
AcDbEntity
  8
0
  6
CONTINUOUS
 62
     7
100
AcDbLine
 10
896.4783797787
 20
942.5733808696
 30
0.0
 11
1174.0319679306
 21
942.5733808696
 31
0.0
  0
LINE
  5
1FA
330
1F
100
AcDbEntity
  8
0
  6
CONTINUOUS
 62
     7
100
AcDbLine
 10
1174.0319679306
 20
651.7348710715
 30
0.0
 11
896.4783797787
 21
651.7348710715
 31
0.0
  0
LWPOLYLINE
  5
1FB
330
1F
100
AcDbEntity
  8
0
  6
CONTINUOUS
 62
     7
100
AcDbPolyline
 90
        3
 70
   128
 43
0.0
 10
677.107830295
 20
654.7339681804
 10
677.1557012067
 20
654.3647472083
 10
677.2432455287
 20
654.0259693086
  0
LWPOLYLINE
  5
1FC
330
1F
100
AcDbEntity
  8
0
  6
CONTINUOUS
 62
     7
100
AcDbPolyline
 90
        3
 70
   128
 43
0.0
 10
677.2432455287
 20
940.2822826325
 10
677.1506627516
 20
939.8843322217
 10
677.0985440776
 20
939.4530628144
  0
LINE
  5
1FD
330
1F
100
AcDbEntity
  8
0
  6
CONTINUOUS
 62
     7
100
AcDbLine
 10
678.6873682827
 20
652.6335899054
 30
0.0
 11
679.0114806459
 21
652.6029382169
 31
0.0
  0
LINE
  5
1FE
330
1F
100
AcDbEntity
  8
0
  6
CONTINUOUS
 62
     7
100
AcDbLine
 10
679.0114806459
 20
941.7053137242
 30
0.0
 11
678.6873682827
 21
941.6746620356
 31
0.0
  0
LWPOLYLINE
  5
1FF
330
1F
100
AcDbEntity
  8
0
  6
CONTINUOUS
 62
     7
100
AcDbPolyline
 90
        3
 70
   128
 43
0.0
 10
675.695420006
 20
674.222891432
 10
675.7893774152
 20
674.2419425666
 10
675.9279610083
 20
674.2470760166
  0
LWPOLYLINE
  5
200
330
1F
100
AcDbEntity
  8
0
  6
CONTINUOUS
 62
     7
100
AcDbPolyline
 90
        8
 70
   128
 43
0.0
 10
677.0278660074
 20
922.4734727561
 10
677.0279107109
 20
923.4314982116
 10
677.027936788
 20
924.8461995542
 10
677.0279041917
 20
925.8733663976
 10
677.0217015833
 20
926.0487232625
 10
676.9795191899
 20
926.1137221276
 10
676.8395479262
 20
926.0827724158
 10
676.5642592177
 20
926.0644737899
  0
LWPOLYLINE
  5
201
330
1F
100
AcDbEntity
  8
0
  6
CONTINUOUS
 62
     7
100
AcDbPolyline
 90
        9
 70
   128
 43
0.0
 10
676.5642592177
 20
668.2437781512
 10
676.6393703834
 20
668.2343606173
 10
676.7095101491
 20
668.2160470902
 10
676.7723520712
 20
668.1910280406
 10
676.8265634269
 20
668.1622837007
 10
676.9078278408
 20
668.1061957299
 10
676.9572540612
 20
668.0688236176
 10
676.9960697234
 20
668.1035433232
 10
677.0097052172
 20
668.2197425782
  0
LINE
  5
202
330
1F
100
AcDbEntity
  8
0
  6
CONTINUOUS
 62
     7
100
AcDbLine
 10
676.7075729982
 20
926.1274311959
 30
0.0
 11
676.6497751192
 21
926.1039767682
 31
0.0
  0
LINE
  5
203
330
1F
100
AcDbEntity
  8
0
  6
CONTINUOUS
 62
     7
100
AcDbLine
 10
679.0196520702
 20
936.2277809798
 30
0.0
 11
695.2987040818
 21
937.0809320628
 31
0.0
  0
LINE
  5
204
330
1F
100
AcDbEntity
  8
0
  6
CONTINUOUS
 62
     7
100
AcDbLine
 10
695.2987040818
 20
657.2273198783
 30
0.0
 11
679.0196520702
 21
658.0804709613
 31
0.0
  0
LINE
  5
205
330
1F
100
AcDbEntity
  8
0
  6
CONTINUOUS
 62
     7
100
AcDbLine
 10
679.0196520702
 20
658.0804709613
 30
0.0
 11
679.0196520702
 21
785.8576031669
 31
0.0
  0
LINE
  5
206
330
1F
100
AcDbEntity
  8
0
  6
CONTINUOUS
 62
     7
100
AcDbLine
 10
675.2264180646
 20
786.0544847592
 30
0.0
 11
679.0196520702
 21
785.8576031669
 31
0.0
  0
ELLIPSE
  5
207
330
1F
100
AcDbEntity
  8
0
  6
CONTINUOUS
 62
     7
100
AcDbEllipse
 10
675.2792628177
 20
787.0531138751
 30
0.0
 11
1.009720442056505
 21
0.0
 31
0.0
210
0.0
220
0.0
230
1.0
 40
0.9903731353
 41
3.141592653589793
 42
4.66002910282497
  0
LINE
  5
208
330
1F
100
AcDbEntity
  8
0
  6
CONTINUOUS
 62
     7
100
AcDbLine
 10
674.2695427925
 20
807.2551379248
 30
0.0
 11
674.2695427925
 21
787.0531140163
 31
0.0
  0
ELLIPSE
  5
209
330
1F
100
AcDbEntity
  8
0
  6
CONTINUOUS
 62
     7
100
AcDbEllipse
 10
675.2792628177
 20
807.255138066
 30
0.0
 11
1.009720442056505
 21
0.0
 31
0.0
210
0.0
220
0.0
230
1.0
 40
0.9903731353
 41
1.623156204354635
 42
3.141592653589793
  0
LINE
  5
20A
330
1F
100
AcDbEntity
  8
0
  6
CONTINUOUS
 62
     7
100
AcDbLine
 10
675.2264180646
 20
808.2537671819
 30
0.0
 11
679.0196520702
 21
808.4506487742
 31
0.0
  0
LINE
  5
20B
330
1F
100
AcDbEntity
  8
0
  6
CONTINUOUS
 62
     7
100
AcDbLine
 10
679.0196520702
 20
808.4506487742
 30
0.0
 11
679.0196520702
 21
936.2277809798
 31
0.0
  0
LINE
  5
20C
330
1F
100
AcDbEntity
  8
0
  6
CONTINUOUS
 62
     7
100
AcDbLine
 10
695.2987040818
 20
937.0809320628
 30
0.0
 11
695.2987040818
 21
657.2273198783
 31
0.0
  0
LINE
  5
20D
330
1F
100
AcDbEntity
  8
0
  6
CONTINUOUS
 62
     7
100
AcDbLine
 10
678.9800531656
 20
656.5096948564
 30
0.0
 11
679.0196502075
 21
658.0804709613
 31
0.0
  0
LINE
  5
20E
330
1F
100
AcDbEntity
  8
0
  6
CONTINUOUS
 62
     7
100
AcDbLine
 10
679.0196520702
 20
652.5880072534
 30
0.0
 11
695.2987040818
 21
651.7348710715
 31
0.0
  0
LINE
  5
20F
330
1F
100
AcDbEntity
  8
0
  6
CONTINUOUS
 62
     7
100
AcDbLine
 10
679.0196520702
 20
652.5880072534
 30
0.0
 11
679.0101265029
 21
652.6437375962
 31
0.0
  0
ARC
  5
210
330
1F
100
AcDbEntity
  8
0
  6
CONTINUOUS
 62
     7
100
AcDbCircle
 10
711.7222757977
 20
654.6646703302
 30
0.0
 40
32.79416314559147
100
AcDbArc
 50
176.7747929559
 51
183.2252070441
  0
LINE
  5
211
330
1F
100
AcDbEntity
  8
0
  6
CONTINUOUS
 62
     7
100
AcDbLine
 10
695.2987040818
 20
657.2273198783
 30
0.0
 11
695.2987040818
 21
651.7348710715
 31
0.0
  0
LINE
  5
212
330
1F
100
AcDbEntity
  8
0
  6
CONTINUOUS
 62
     7
100
AcDbLine
 10
679.0196520702
 20
936.2277809798
 30
0.0
 11
678.9800550283
 21
937.7985570847
 31
0.0
  0
ARC
  5
213
330
1F
100
AcDbEntity
  8
0
  6
CONTINUOUS
 62
     7
100
AcDbCircle
 10
711.7222757977
 20
939.6435816109
 30
0.0
 40
32.79416314559318
100
AcDbArc
 50
176.7747929559
 51
183.2252070441
  0
LINE
  5
214
330
1F
100
AcDbEntity
  8
0
  6
CONTINUOUS
 62
     7
100
AcDbLine
 10
679.0101246402
 20
941.6645143449
 30
0.0
 11
679.0196502075
 21
941.7202446877
 31
0.0
  0
LINE
  5
215
330
1F
100
AcDbEntity
  8
0
  6
CONTINUOUS
 62
     7
100
AcDbLine
 10
695.2987040818
 20
942.5733808696
 30
0.0
 11
679.0196520702
 21
941.7202446877
 31
0.0
  0
LINE
  5
216
330
1F
100
AcDbEntity
  8
0
  6
CONTINUOUS
 62
     7
100
AcDbLine
 10
695.2987040818
 20
942.5733808696
 30
0.0
 11
695.2987040818
 21
937.0809320628
 31
0.0
  0
ARC
  5
217
330
1F
100
AcDbEntity
  8
0
  6
CONTINUOUS
 62
     7
100
AcDbCircle
 10
678.6745045542
 20
658.8323006569
 30
0.0
 40
2.342617936651408
100
AcDbArc
 50
228.4070150846
 51
277.4945105502
  0
LWPOLYLINE
  5
218
330
1F
100
AcDbEntity
  8
0
  6
CONTINUOUS
 62
     7
100
AcDbPolyline
 90
        3
 70
   128
 43
0.0
 10
677.1335320041
 20
658.0804709613
 10
677.1290784196
 20
657.5148228824
 10
677.1193945274
 20
657.0803199231
  0
LINE
  5
219
330
1F
100
AcDbEntity
  8
0
  6
CONTINUOUS
 62
     7
100
AcDbLine
 10
677.1335320041
 20
658.0804709613
 30
0.0
 11
679.0196520702
 21
658.0804709613
 31
0.0
  0
LINE
  5
21A
330
1F
100
AcDbEntity
  8
0
  6
CONTINUOUS
 62
     7
100
AcDbLine
 10
679.0196520702
 20
936.2277809798
 30
0.0
 11
677.1335320041
 21
936.2277809798
 31
0.0
  0
LWPOLYLINE
  5
21B
330
1F
100
AcDbEntity
  8
0
  6
CONTINUOUS
 62
     7
100
AcDbPolyline
 90
        3
 70
   128
 43
0.0
 10
677.1193945274
 20
937.227932018
 10
677.1307808772
 20
936.6729531705
 10
677.1335320041
 20
936.2277809798
  0
ARC
  5
21C
330
1F
100
AcDbEntity
  8
0
  6
CONTINUOUS
 62
     7
100
AcDbCircle
 10
678.7077298266
 20
935.3676605683
 30
0.0
 40
2.446102796151947
100
AcDbArc
 50
83.6079964783
 51
130.4913327842
  0
LINE
  5
21D
330
1F
100
AcDbEntity
  8
0
  6
CONTINUOUS
 62
     7
100
AcDbLine
 10
677.1335320041
 20
658.0804709613
 30
0.0
 11
677.1335320041
 21
785.9469263151
 31
0.0
  0
ELLIPSE
  5
21E
330
1F
100
AcDbEntity
  8
0
  6
CONTINUOUS
 62
     7
100
AcDbEllipse
 10
679.1243241306
 20
785.842110412
 30
0.0
 11
1.999999931706157
 21
-0.1043356303283645
 31
0.0
210
0.0
220
0.0
230
1.0
 40
0.0050094303
 41
1.623417535391589
 42
3.045860875785989
  0
LINE
  5
21F
330
1F
100
AcDbEntity
  8
0
  6
CONTINUOUS
 62
     7
100
AcDbLine
 10
677.1335320041
 20
808.361325626
 30
0.0
 11
677.1335320041
 21
936.2277809798
 31
0.0
  0
ARC
  5
220
330
1F
100
AcDbEntity
  8
0
  6
CONTINUOUS
 62
     7
100
AcDbCircle
 10
672.3922431457
 20
928.4349464436
 30
0.0
 40
120.16719284515
100
AcDbArc
 50
272.2612359309
 51
273.1615561245
  0
LINE
  5
221
330
1F
100
AcDbEntity
  8
0
  6
CONTINUOUS
 62
     7
100
AcDbLine
 10
675.2264180646
 20
808.2537671819
 30
0.0
 11
674.9205465854
 21
808.2537671819
 31
0.0
  0
LINE
  5
222
330
1F
100
AcDbEntity
  8
0
  6
CONTINUOUS
 62
     7
100
AcDbLine
 10
676.9531245769
 20
808.361325626
 30
0.0
 11
674.9205465854
 21
808.2537671819
 31
0.0
  0
LINE
  5
223
330
1F
100
AcDbEntity
  8
0
  6
CONTINUOUS
 62
     7
100
AcDbLine
 10
677.1335320041
 20
808.361325626
 30
0.0
 11
676.9531245769
 21
808.361325626
 31
0.0
  0
LINE
  5
224
330
1F
100
AcDbEntity
  8
0
  6
CONTINUOUS
 62
     7
100
AcDbLine
 10
677.1335320041
 20
785.9469263151
 30
0.0
 11
676.9531245769
 21
785.9469263151
 31
0.0
  0
LINE
  5
225
330
1F
100
AcDbEntity
  8
0
  6
CONTINUOUS
 62
     7
100
AcDbLine
 10
676.9531245769
 20
785.9469263151
 30
0.0
 11
674.9205465854
 21
786.0544847592
 31
0.0
  0
LINE
  5
226
330
1F
100
AcDbEntity
  8
0
  6
CONTINUOUS
 62
     7
100
AcDbLine
 10
674.9205465854
 20
786.0544847592
 30
0.0
 11
675.2264180646
 21
786.0544847592
 31
0.0
  0
ELLIPSE
  5
227
330
1F
100
AcDbEntity
  8
0
  6
CONTINUOUS
 62
     7
100
AcDbEllipse
 10
674.9723782534
 20
787.0531138751
 30
0.0
 11
0.0
 21
1.0
 31
0.0
210
0.0
220
0.0
230
1.0
 40
0.9903731353
 41
1.570796326794897
 42
3.089232776029854
  0
LINE
  5
228
330
1F
100
AcDbEntity
  8
0
  6
CONTINUOUS
 62
     7
100
AcDbLine
 10
673.9820053295
 20
787.0531140163
 30
0.0
 11
674.2695427925
 21
787.0531140163
 31
0.0
  0
LINE
  5
229
330
1F
100
AcDbEntity
  8
0
  6
CONTINUOUS
 62
     7
100
AcDbLine
 10
674.2695427925
 20
807.2551379248
 30
0.0
 11
673.9820053295
 21
807.2551379248
 31
0.0
  0
ELLIPSE
  5
22A
330
1F
100
AcDbEntity
  8
0
  6
CONTINUOUS
 62
     7
100
AcDbEllipse
 10
674.9723782534
 20
807.255138066
 30
0.0
 11
0.0
 21
1.0
 31
0.0
210
0.0
220
0.0
230
1.0
 40
0.9903731353
 41
0.0523598775599454
 42
1.570796326794897
  0
LINE
  5
22B
330
1F
100
AcDbEntity
  8
0
  6
CONTINUOUS
 62
     7
100
AcDbLine
 10
677.2549988196
 20
654.0588114678
 30
0.0
 11
677.1193945274
 21
654.5404020965
 31
0.0
  0
LINE
  5
22C
330
1F
100
AcDbEntity
  8
0
  6
CONTINUOUS
 62
     7
100
AcDbLine
 10
677.1193945274
 20
654.5404020965
 30
0.0
 11
677.1068207414
 21
654.750851196
 31
0.0
  0
LINE
  5
22D
330
1F
100
AcDbEntity
  8
0
  6
CONTINUOUS
 62
     7
100
AcDbLine
 10
677.1004514263
 20
939.4507531344
 30
0.0
 11
677.1193945274
 21
939.7678498446
 31
0.0
  0
LINE
  5
22E
330
1F
100
AcDbEntity
  8
0
  6
CONTINUOUS
 62
     7
100
AcDbLine
 10
677.2437074647
 20
940.2834002196
 30
0.0
 11
677.1193935961
 21
939.7678498446
 31
0.0
  0
LINE
  5
22F
330
1F
100
AcDbEntity
  8
0
  6
CONTINUOUS
 62
     7
100
AcDbLine
 10
673.9820053295
 20
807.2551379248
 30
0.0
 11
673.9820053295
 21
787.0531140163
 31
0.0
  0
LWPOLYLINE
  5
230
330
1F
100
AcDbEntity
  8
0
  6
CONTINUOUS
 62
     7
100
AcDbPolyline
 90
        7
 70
   128
 43
0.0
 10
677.0356509328
 20
657.9500261962
 10
677.0356490702
 20
656.9316808402
 10
677.0356602461
 20
656.441715759
 10
677.0356481389
 20
656.0458366095
 10
677.0356583834
 20
655.7451013743
 10
677.0356500015
 20
655.540314716
 10
677.0356509328
 20
655.4101083695
  0
LINE
  5
231
330
1F
100
AcDbEntity
  8
0
  6
CONTINUOUS
 62
     7
100
AcDbLine
 10
677.1193945274
 20
657.0803199231
 30
0.0
 11
677.0356509328
 21
657.9500261962
 31
0.0
  0
LINE
  5
232
330
1F
100
AcDbEntity
  8
0
  6
CONTINUOUS
 62
     7
100
AcDbLine
 10
677.0356509328
 20
655.4101083695
 30
0.0
 11
677.1193945274
 21
654.5404020965
 31
0.0
  0
LWPOLYLINE
  5
233
330
1F
100
AcDbEntity
  8
0
  6
CONTINUOUS
 62
     7
100
AcDbPolyline
 90
        7
 70
   128
 43
0.0
 10
677.0356509328
 20
938.8981435716
 10
677.0356490702
 20
938.7679223239
 10
677.0356602461
 20
938.5631803691
 10
677.0356481389
 20
938.2623855292
 10
677.0356583834
 20
937.8665659844
 10
677.0356500015
 20
937.3765561997
 10
677.0356509328
 20
936.3582257449
  0
LINE
  5
234
330
1F
100
AcDbEntity
  8
0
  6
CONTINUOUS
 62
     7
100
AcDbLine
 10
677.1193945274
 20
939.7678498446
 30
0.0
 11
677.0356509328
 21
938.8981435716
 31
0.0
  0
LINE
  5
235
330
1F
100
AcDbEntity
  8
0
  6
CONTINUOUS
 62
     7
100
AcDbLine
 10
677.0356509328
 20
936.3582257449
 30
0.0
 11
677.1193945274
 21
937.227932018
 31
0.0
  0
LINE
  5
236
330
1F
100
AcDbEntity
  8
0
  6
CONTINUOUS
 62
     7
100
AcDbLine
 10
677.0356509328
 20
657.9500261962
 30
0.0
 11
677.0356509328
 21
674.4692150771
 31
0.0
  0
LINE
  5
237
330
1F
100
AcDbEntity
  8
0
  6
CONTINUOUS
 62
     7
100
AcDbLine
 10
676.1573802174
 20
674.4922299206
 30
0.0
 11
677.0356509328
 21
674.4922299206
 31
0.0
  0
LINE
  5
238
330
1F
100
AcDbEntity
  8
0
  6
CONTINUOUS
 62
     7
100
AcDbLine
 10
677.0356509328
 20
919.8160220205
 30
0.0
 11
676.1573802174
 21
919.8160220205
 31
0.0
  0
LINE
  5
239
330
1F
100
AcDbEntity
  8
0
  6
CONTINUOUS
 62
     7
100
AcDbLine
 10
677.0356509328
 20
919.8160220205
 30
0.0
 11
677.0356509328
 21
936.3582257449
 31
0.0
  0
LINE
  5
23A
330
1F
100
AcDbEntity
  8
0
  6
CONTINUOUS
 62
     7
100
AcDbLine
 10
676.4402983204
 20
674.2156569182
 30
0.0
 11
677.0356509328
 21
674.1844538867
 31
0.0
  0
ARC
  5
23B
330
1F
100
AcDbEntity
  8
0
  6
CONTINUOUS
 62
     7
100
AcDbCircle
 10
676.4565221087
 20
674.5143054224
 30
0.0
 40
0.2990888503053929
100
AcDbArc
 50
184.2184917032
 51
266.8905191348
  0
LINE
  5
23C
330
1F
100
AcDbEntity
  8
0
  6
CONTINUOUS
 62
     7
100
AcDbLine
 10
677.0356509328
 20
920.1237980544
 30
0.0
 11
676.4402983204
 21
920.0925950229
 31
0.0
  0
ARC
  5
23D
330
1F
100
AcDbEntity
  8
0
  6
CONTINUOUS
 62
     7
100
AcDbCircle
 10
676.4565231403
 20
919.7939460593
 30
0.0
 40
0.2990893649040486
100
AcDbArc
 50
93.10967342
 51
175.7828585038
  0
ARC
  5
23E
330
1F
100
AcDbEntity
  8
0
  6
CONTINUOUS
 62
     7
100
AcDbCircle
 10
679.0080417432
 20
654.5161836682
 30
0.0
 40
1.878514888687936
100
AcDbArc
 50
183.7421128085
 51
260.4769907133
  0
LWPOLYLINE
  5
23F
330
1F
100
AcDbEntity
  8
0
  6
CONTINUOUS
 62
     7
100
AcDbPolyline
 90
        3
 70
   128
 43
0.0
 10
677.1193945274
 20
654.5404020965
 10
677.1307808772
 20
654.4221464812
 10
677.1335320041
 20
654.3935809552
  0
LWPOLYLINE
  5
240
330
1F
100
AcDbEntity
  8
0
  6
CONTINUOUS
 62
     7
100
AcDbPolyline
 90
        3
 70
   128
 43
0.0
 10
677.1335320041
 20
939.9146709859
 10
677.1290784196
 20
939.8684177815
 10
677.1193945274
 20
939.7678498446
  0
ARC
  5
241
330
1F
100
AcDbEntity
  8
0
  6
CONTINUOUS
 62
     7
100
AcDbCircle
 10
679.0080417432
 20
939.7920682729
 30
0.0
 40
1.878514888687801
100
AcDbArc
 50
99.5230092867
 51
176.2578871915
  0
ARC
  5
242
330
1F
100
AcDbEntity
  8
0
  6
CONTINUOUS
 62
     7
100
AcDbCircle
 10
676.5115136517
 20
671.0622514931
 30
0.0
 40
3.56066043711088
100
AcDbArc
 50
102.3924251219
 51
128.9657076919
  0
ARC
  5
243
330
1F
100
AcDbEntity
  8
0
  6
CONTINUOUS
 62
     7
100
AcDbCircle
 10
676.423201407
 20
923.0622603818
 30
0.0
 40
3.362575051035803
100
AcDbArc
 50
230.2349546794
 51
258.4054275592
  0
LWPOLYLINE
  5
244
330
1F
100
AcDbEntity
  8
0
  6
CONTINUOUS
 62
     7
100
AcDbPolyline
 90
        3
 70
   128
 43
0.0
 10
675.7473738358
 20
919.7683010518
 10
676.0294099764
 20
919.7852138698
 10
676.1573802174
 20
919.7930071771
  0
LWPOLYLINE
  5
245
330
1F
100
AcDbEntity
  8
0
  6
CONTINUOUS
 62
     7
100
AcDbPolyline
 90
        3
 70
   128
 43
0.0
 10
676.1573802174
 20
674.515244764
 10
676.0293466464
 20
674.5230455219
 10
675.7473738358
 20
674.5399508893
  0
ARC
  5
246
330
1F
100
AcDbEntity
  8
0
  6
CONTINUOUS
 62
     7
100
AcDbCircle
 10
676.0165528836
 20
674.5072781628
 30
0.0
 40
0.2711546917393294
100
AcDbArc
 50
173.0793410756
 51
259.8548707015
  0
LWPOLYLINE
  5
247
330
1F
100
AcDbEntity
  8
0
  6
CONTINUOUS
 62
     7
100
AcDbPolyline
 90
        3
 70
   128
 43
0.0
 10
675.9687911213
 20
674.2403630435
 10
676.3161828235
 20
674.2221612751
 10
676.4402983204
 20
674.2156569182
  0
ARC
  5
248
330
1F
100
AcDbEntity
  8
0
  6
CONTINUOUS
 62
     7
100
AcDbCircle
 10
676.0165517198
 20
919.8009746385
 30
0.0
 40
0.2711536399885371
100
AcDbArc
 50
100.1449192271
 51
186.9208689958
  0
LWPOLYLINE
  5
249
330
1F
100
AcDbEntity
  8
0
  6
CONTINUOUS
 62
     7
100
AcDbPolyline
 90
        3
 70
   128
 43
0.0
 10
676.4402983204
 20
920.0925950229
 10
676.2587984518
 20
920.083088082
 10
675.9687911213
 20
920.0678888976
  0
LINE
  5
24A
330
1F
100
AcDbEntity
  8
0
  6
CONTINUOUS
 62
     7
100
AcDbLine
 10
677.0356509328
 20
920.5989662826
 30
0.0
 11
676.5618228779
 21
920.5989662826
 31
0.0
  0
ARC
  5
24B
330
1F
100
AcDbEntity
  8
0
  6
CONTINUOUS
 62
     7
100
AcDbCircle
 10
673.312281541
 20
916.8749540563
 30
0.0
 40
4.941911117483147
100
AcDbArc
 50
41.11188413
 51
48.8855252605
  0
ARC
  5
24C
330
1F
100
AcDbEntity
  8
0
  6
CONTINUOUS
 62
     7
100
AcDbCircle
 10
676.4167819294
 20
925.6367325562
 30
0.0
 40
5.586834117630998
100
AcDbArc
 50
247.4245378471
 51
265.400692204
  0
LINE
  5
24D
330
1F
100
AcDbEntity
  8
0
  6
CONTINUOUS
 62
     7
100
AcDbLine
 10
674.271143736
 20
920.4780284583
 30
0.0
 11
676.5618228779
 21
920.5980796635
 31
0.0
  0
LINE
  5
24E
330
1F
100
AcDbEntity
  8
0
  6
CONTINUOUS
 62
     7
100
AcDbLine
 10
675.9687911213
 20
674.2403630435
 30
0.0
 11
675.6086086348
 21
674.2111418664
 31
0.0
  0
LINE
  5
24F
330
1F
100
AcDbEntity
  8
0
  6
CONTINUOUS
 62
     7
100
AcDbLine
 10
676.5618228779
 20
673.7092856585
 30
0.0
 11
677.0356509328
 21
673.7092856585
 31
0.0
  0
ARC
  5
250
330
1F
100
AcDbEntity
  8
0
  6
CONTINUOUS
 62
     7
100
AcDbCircle
 10
672.158930685
 20
678.5978051895
 30
0.0
 40
6.578463773843469
100
AcDbArc
 50
312.0144584315
 51
317.8436369201
  0
LINE
  5
251
330
1F
100
AcDbEntity
  8
0
  6
CONTINUOUS
 62
     7
100
AcDbLine
 10
676.5618228779
 20
673.7101722776
 30
0.0
 11
674.271201478
 21
673.8313336193
 31
0.0
  0
ARC
  5
252
330
1F
100
AcDbEntity
  8
0
  6
CONTINUOUS
 62
     7
100
AcDbCircle
 10
362.0685248782
 20
923.3447015089
 30
0.0
 40
314.5052915584758
100
AcDbArc
 50
359.4996210101
 51
0.5003984173
  0
ARC
  5
253
330
1F
100
AcDbEntity
  8
0
  6
CONTINUOUS
 62
     7
100
AcDbCircle
 10
676.5356535663
 20
926.5907420997
 30
0.0
 40
0.4999973665461238
100
AcDbArc
 50
273.0000619585
 51
359.9995416369
  0
ARC
  5
254
330
1F
100
AcDbEntity
  8
0
  6
CONTINUOUS
 62
     7
100
AcDbCircle
 10
362.1032314709
 20
670.9635504263
 30
0.0
 40
314.4705862894609
100
AcDbArc
 50
359.4995463579
 51
0.5004342147
  0
ARC
  5
255
330
1F
100
AcDbEntity
  8
0
  6
CONTINUOUS
 62
     7
100
AcDbCircle
 10
676.5356540297
 20
667.7175102811
 30
0.0
 40
0.499996903151838
100
AcDbArc
 50
0.0004079721
 51
86.9999884324
  0
LINE
  5
256
330
1F
100
AcDbEntity
  8
0
  6
CONTINUOUS
 62
     7
100
AcDbLine
 10
676.5618219466
 20
926.0914299905
 30
0.0
 11
674.07764657
 21
925.9612385451
 31
0.0
  0
LINE
  5
257
330
1F
100
AcDbEntity
  8
0
  6
CONTINUOUS
 62
     7
100
AcDbLine
 10
653.2987055794
 20
919.3766836345
 30
0.0
 11
674.2712601513
 21
920.4758081853
 31
0.0
  0
LINE
  5
258
330
1F
100
AcDbEntity
  8
0
  6
CONTINUOUS
 62
     7
100
AcDbLine
 10
653.2987018541
 20
919.3766836345
 30
0.0
 11
653.2987018541
 21
924.8722616851
 31
0.0
  0
LINE
  5
259
330
1F
100
AcDbEntity
  8
0
  6
CONTINUOUS
 62
     7
100
AcDbLine
 10
674.0777052433
 20
925.9612385451
 30
0.0
 11
653.2987018541
 21
924.8722616851
 31
0.0
  0
LINE
  5
25A
330
1F
100
AcDbEntity
  8
0
  6
CONTINUOUS
 62
     7
100
AcDbLine
 10
674.077588828
 20
668.347013396
 30
0.0
 11
676.5618219466
 21
668.2168219506
 31
0.0
  0
LINE
  5
25B
330
1F
100
AcDbEntity
  8
0
  6
CONTINUOUS
 62
     7
100
AcDbLine
 10
653.2987055794
 20
669.435990256
 30
0.0
 11
674.0777052433
 21
668.347013396
 31
0.0
  0
LINE
  5
25C
330
1F
100
AcDbEntity
  8
0
  6
CONTINUOUS
 62
     7
100
AcDbLine
 10
653.2987018541
 20
669.435990256
 30
0.0
 11
653.2987018541
 21
674.9315683066
 31
0.0
  0
LINE
  5
25D
330
1F
100
AcDbEntity
  8
0
  6
CONTINUOUS
 62
     7
100
AcDbLine
 10
674.271201478
 20
673.8313336193
 30
0.0
 11
653.2987018541
 21
674.9315683066
 31
0.0
  0
LINE
  5
25E
330
1F
100
AcDbEntity
  8
0
  6
CONTINUOUS
 62
     7
100
AcDbLine
 10
653.2987018541
 20
674.9315683066
 30
0.0
 11
653.2987018541
 21
919.3766836345
 31
0.0
  0
ARC
  5
25F
330
1F
100
AcDbEntity
  8
0
  6
CONTINUOUS
 62
     7
100
AcDbCircle
 10
674.0032617766
 20
665.3887577635
 30
0.0
 40
2.959166091025275
100
AcDbArc
 50
53.2153744853
 51
88.5441951287
  0
LINE
  5
260
330
1F
100
AcDbEntity
  8
0
  6
CONTINUOUS
 62
     7
100
AcDbLine
 10
677.0343563945
 20
667.6927481114
 30
0.0
 11
675.7752362133
 21
667.7587304532
 31
0.0
  0
ARC
  5
261
330
1F
100
AcDbEntity
  8
0
  6
CONTINUOUS
 62
     7
100
AcDbCircle
 10
674.0034791836
 20
928.9188670591
 30
0.0
 40
2.958533658423638
100
AcDbArc
 50
271.451904418
 51
306.788525968
  0
LINE
  5
262
330
1F
100
AcDbEntity
  8
0
  6
CONTINUOUS
 62
     7
100
AcDbLine
 10
675.7752362133
 20
926.5495214879
 30
0.0
 11
677.0356509328
 21
926.6155783355
 31
0.0
  0
ARC
  5
263
330
1F
100
AcDbEntity
  8
0
  6
CONTINUOUS
 62
     7
100
AcDbCircle
 10
677.0783634429
 20
665.9634227076
 30
0.0
 40
2.218393670709762
100
AcDbArc
 50
125.9740860969
 51
133.4111603182
  0
ARC
  5
264
330
1F
100
AcDbEntity
  8
0
  6
CONTINUOUS
 62
     7
100
AcDbCircle
 10
673.9729966574
 20
666.3496811296
 30
0.0
 40
2.000073427764106
100
AcDbArc
 50
37.7787647158
 51
86.9674793522
  0
ARC
  5
265
330
1F
100
AcDbEntity
  8
0
  6
CONTINUOUS
 62
     7
100
AcDbCircle
 10
677.0787731264
 20
928.3453228289
 30
0.0
 40
2.219033785282411
100
AcDbArc
 50
226.5899138592
 51
234.0248397256
  0
ARC
  5
266
330
1F
100
AcDbEntity
  8
0
  6
CONTINUOUS
 62
     7
100
AcDbCircle
 10
673.973028554
 20
927.9585080821
 30
0.0
 40
2.000009788647465
100
AcDbArc
 50
273.0320762343
 51
322.2220958603
  0
LWPOLYLINE
  5
267
330
1F
100
AcDbEntity
  8
0
  6
CONTINUOUS
 62
     7
100
AcDbPolyline
 90
        3
 70
   128
 43
0.0
 10
675.7752362133
 20
926.5495214879
 10
676.1226288468
 20
927.1831188619
 10
676.2467434124
 20
927.7380530059
  0
LINE
  5
268
330
1F
100
AcDbEntity
  8
0
  6
CONTINUOUS
 62
     7
100
AcDbLine
 10
676.2467434124
 20
927.7380530059
 30
0.0
 11
677.0356509328
 21
935.9311733663
 31
0.0
  0
LWPOLYLINE
  5
269
330
1F
100
AcDbEntity
  8
0
  6
CONTINUOUS
 62
     7
100
AcDbPolyline
 90
        3
 70
   128
 43
0.0
 10
676.2467434124
 20
666.5701989352
 10
676.0652435437
 20
667.2697786509
 10
675.7752362133
 20
667.7587304532
  0
LINE
  5
26A
330
1F
100
AcDbEntity
  8
0
  6
CONTINUOUS
 62
     7
100
AcDbLine
 10
677.0356509328
 20
658.3770785748
 30
0.0
 11
676.2467434124
 21
666.5701989352
 31
0.0
  0
ARC
  5
26B
330
1F
100
AcDbEntity
  8
0
  6
CONTINUOUS
 62
     7
100
AcDbCircle
 10
677.4964741447
 20
652.8700348677
 30
0.0
 40
13.7570462811125
100
AcDbArc
 50
95.212103501
 51
96.3965029832
  0
LINE
  5
26C
330
1F
100
AcDbEntity
  8
0
  6
CONTINUOUS
 62
     7
100
AcDbLine
 10
677.0356509328
 20
655.4101083695
 30
0.0
 11
675.9638253093
 21
666.5414396941
 31
0.0
  0
ARC
  5
26D
330
1F
100
AcDbEntity
  8
0
  6
CONTINUOUS
 62
     7
100
AcDbCircle
 10
677.4964741443
 20
941.4382170699
 30
0.0
 40
13.75704627753024
100
AcDbArc
 50
263.6034970166
 51
264.7878964991
  0
LINE
  5
26E
330
1F
100
AcDbEntity
  8
0
  6
CONTINUOUS
 62
     7
100
AcDbLine
 10
675.9638253093
 20
927.766812247
 30
0.0
 11
677.0356509328
 21
938.8981435716
 31
0.0
  0
LWPOLYLINE
  5
26F
330
1F
100
AcDbEntity
  8
0
  6
CONTINUOUS
 62
     7
100
AcDbPolyline
 90
        3
 70
   128
 43
0.0
 10
675.5538189278
 20
667.5749544322
 10
675.8358550683
 20
667.077687782
 10
675.9638253093
 20
666.5414396941
  0
LWPOLYLINE
  5
270
330
1F
100
AcDbEntity
  8
0
  6
CONTINUOUS
 62
     7
100
AcDbPolyline
 90
        3
 70
   128
 43
0.0
 10
675.9638253093
 20
927.766812247
 10
675.8357917384
 20
927.2304002463
 10
675.5538189278
 20
926.7332975089
  0
LINE
  5
271
330
1F
100
AcDbEntity
  8
0
  6
CONTINUOUS
 62
     8
100
AcDbLine
 10
679.0101265029
 20
652.6437375962
 30
0.0
 11
678.9800550283
 21
652.8196458041
 31
0.0
  0
LINE
  5
272
330
1F
100
AcDbEntity
  8
0
  6
CONTINUOUS
 62
     8
100
AcDbLine
 10
678.9800531656
 20
941.488606137
 30
0.0
 11
679.0101246402
 21
941.6645143449
 31
0.0
  0
ARC
  5
273
330
1F
100
AcDbEntity
  8
0
  6
CONTINUOUS
 62
     8
100
AcDbCircle
 10
678.9704572535
 20
654.6266023695
 30
0.0
 40
1.806982054828471
100
AcDbArc
 50
198.3137657489
 51
270.3043276335
  0
ARC
  5
274
330
1F
100
AcDbEntity
  8
0
  6
CONTINUOUS
 62
     8
100
AcDbCircle
 10
701.4103159706
 20
655.7844280958
 30
0.0
 40
24.32546323435893
100
AcDbArc
 50
176.9462681262
 51
182.4352024397
  0
ARC
  5
275
330
1F
100
AcDbEntity
  8
0
  6
CONTINUOUS
 62
     8
100
AcDbCircle
 10
702.554968435
 20
938.5561877676
 30
0.0
 40
25.47023131707257
100
AcDbArc
 50
177.987243899
 51
182.9892930483
  0
ARC
  5
276
330
1F
100
AcDbEntity
  8
0
  6
CONTINUOUS
 62
     8
100
AcDbCircle
 10
679.0726806567
 20
939.50177357
 30
0.0
 40
1.988990486751412
100
AcDbArc
 50
92.6691820382
 51
156.8601627694
  0
LINE
  5
277
330
1F
100
AcDbEntity
  8
0
  6
CONTINUOUS
 62
     8
100
AcDbLine
 10
676.1573802174
 20
919.8160220205
 30
0.0
 11
676.1573802174
 21
808.3192177385
 31
0.0
  0
LINE
  5
278
330
1F
100
AcDbEntity
  8
0
  6
CONTINUOUS
 62
     8
100
AcDbLine
 10
676.1573802174
 20
785.9890342026
 30
0.0
 11
676.1573802174
 21
674.4922299206
 31
0.0
  0
LINE
  5
279
330
1F
100
AcDbEntity
  8
0
  6
CONTINUOUS
 62
     8
100
AcDbLine
 10
674.2712601513
 20
673.8324437558
 30
0.0
 11
674.2712601513
 21
786.346834366
 31
0.0
  0
LINE
  5
27A
330
1F
100
AcDbEntity
  8
0
  6
CONTINUOUS
 62
     8
100
AcDbLine
 10
674.2712601513
 20
807.9614175751
 30
0.0
 11
674.2712601513
 21
920.4758081853
 31
0.0
  0
LWPOLYLINE
  5
27B
330
1F
100
AcDbEntity
  8
0
  6
CONTINUOUS
 62
     8
100
AcDbPolyline
 90
        3
 70
   128
 43
0.0
 10
675.6086086348
 20
674.2111418664
 10
675.1533697784
 20
674.1019834101
 10
674.2719968275
 20
673.8302532851
  0
LWPOLYLINE
  5
27C
330
1F
100
AcDbEntity
  8
0
  6
CONTINUOUS
 62
     7
100
AcDbPolyline
 90
        3
 70
   128
 43
0.0
 10
1384.7167199355
 20
939.6466587007
 10
1384.6958564472
 20
939.8363355815
 10
1384.6515785781
 20
940.0801036775
  0
LWPOLYLINE
  5
27D
330
1F
100
AcDbEntity
  8
0
  6
CONTINUOUS
 62
     7
100
AcDbPolyline
 90
        3
 70
   128
 43
0.0
 10
1384.6515785781
 20
654.2281482636
 10
1384.6958555159
 20
654.4719759643
 10
1384.7167348367
 20
654.661831659
  0
LINE
  5
27E
330
1F
100
AcDbEntity
  8
0
  6
CONTINUOUS
 62
     7
100
AcDbLine
 10
1382.8131487471
 20
652.5918517529
 30
0.0
 11
1383.1414976967
 21
652.6335899054
 31
0.0
  0
LINE
  5
27F
330
1F
100
AcDbEntity
  8
0
  6
CONTINUOUS
 62
     7
100
AcDbLine
 10
1383.1414976967
 20
941.6746620356
 30
0.0
 11
1382.8131487471
 21
941.7164001882
 31
0.0
  0
LWPOLYLINE
  5
280
330
1F
100
AcDbEntity
  8
0
  6
CONTINUOUS
 62
     7
100
AcDbPolyline
 90
        3
 70
   128
 43
0.0
 10
1385.9009049711
 20
674.2470760166
 10
1385.9649240849
 20
674.2449302494
 10
1386.0380571213
 20
674.2345962941
  0
LWPOLYLINE
  5
281
330
1F
100
AcDbEntity
  8
0
  6
CONTINUOUS
 62
     7
100
AcDbPolyline
 90
        3
 70
   128
 43
0.0
 10
1386.0381008935
 20
920.0731862604
 10
1385.9654419002
 20
920.0630236685
 10
1385.9017412987
 20
920.0609375059
  0
ARC
  5
282
330
1F
100
AcDbEntity
  8
0
  6
CONTINUOUS
 62
     7
100
AcDbCircle
 10
1403.9177316364
 20
675.5407464392
 30
0.0
 40
20.0026871333811
100
AcDbArc
 50
198.0690803393
 51
200.1959335291
  0
ARC
  5
283
330
1F
100
AcDbEntity
  8
0
  6
CONTINUOUS
 62
     7
100
AcDbCircle
 10
1428.4683164859
 20
672.2738762308
 30
0.0
 40
43.66570487768173
100
AcDbArc
 50
178.116193895
 51
183.8569896057
  0
LWPOLYLINE
  5
284
330
1F
100
AcDbEntity
  8
0
  6
CONTINUOUS
 62
     7
100
AcDbPolyline
 90
       12
 70
   128
 43
0.0
 10
1385.2627096576
 20
926.0066572844
 10
1385.1921014366
 20
926.0142717778
 10
1385.1257540164
 20
926.0273997008
 10
1385.065679985
 20
926.0441039025
 10
1385.0130863366
 20
926.0617170751
 10
1384.9319467199
 20
926.087227863
 10
1384.8801502836
 20
926.0816697299
 10
1384.8204515752
 20
925.6703380763
 10
1384.8010185984
 20
925.015908879
 10
1384.8009301227
 20
924.4904343306
 10
1384.8009673756
 20
923.1061462581
 10
1384.8010325682
 20
921.9060737907
  0
LINE
  5
285
330
1F
100
AcDbEntity
  8
0
  6
CONTINUOUS
 62
     7
100
AcDbLine
 10
1385.1393205923
 20
668.1852761924
 30
0.0
 11
1385.1790908602
 21
668.2042751729
 31
0.0
  0
LINE
  5
286
330
1F
100
AcDbEntity
  8
0
  6
CONTINUOUS
 62
     7
100
AcDbLine
 10
1382.8092157719
 20
652.5880072534
 30
0.0
 11
1382.8140614432
 21
652.6163641631
 31
0.0
  0
LINE
  5
287
330
1F
100
AcDbEntity
  8
0
  6
CONTINUOUS
 62
     7
100
AcDbLine
 10
1382.8092139092
 20
652.5880072534
 30
0.0
 11
1366.5301618976
 21
651.7348710715
 31
0.0
  0
LINE
  5
288
330
1F
100
AcDbEntity
  8
0
  6
CONTINUOUS
 62
     7
100
AcDbLine
 10
1366.5301618976
 20
657.2273198783
 30
0.0
 11
1382.8092139092
 21
658.0804709613
 31
0.0
  0
LINE
  5
289
330
1F
100
AcDbEntity
  8
0
  6
CONTINUOUS
 62
     7
100
AcDbLine
 10
1382.8488109511
 20
656.5096948564
 30
0.0
 11
1382.8092139092
 21
658.0804709613
 31
0.0
  0
ARC
  5
28A
330
1F
100
AcDbEntity
  8
0
  6
CONTINUOUS
 62
     7
100
AcDbCircle
 10
1347.4993223728
 20
654.6646703302
 30
0.0
 40
35.39760526153067
100
AcDbArc
 50
357.0122260362
 51
2.9877739638
  0
LWPOLYLINE
  5
28B
330
1F
100
AcDbEntity
  8
0
  6
CONTINUOUS
 62
     7
100
AcDbPolyline
 90
        7
 70
   128
 43
0.0
 10
1366.5301618976
 20
657.2273198783
 10
1366.5305698168
 20
656.1085257947
 10
1366.53075515
 20
655.0660703599
 10
1366.5301646915
 20
653.3426616609
 10
1366.5307542187
 20
652.1772120416
 10
1366.5305688855
 20
651.8497888266
 10
1366.5301618976
 20
651.7348710715
  0
LINE
  5
28C
330
1F
100
AcDbEntity
  8
0
  6
CONTINUOUS
 62
     7
100
AcDbLine
 10
1366.5301618976
 20
942.5733808696
 30
0.0
 11
1382.8092157719
 21
941.7202446877
 31
0.0
  0
LINE
  5
28D
330
1F
100
AcDbEntity
  8
0
  6
CONTINUOUS
 62
     7
100
AcDbLine
 10
1382.8140614432
 20
941.691887778
 30
0.0
 11
1382.8092157719
 21
941.7202446877
 31
0.0
  0
ARC
  5
28E
330
1F
100
AcDbEntity
  8
0
  6
CONTINUOUS
 62
     7
100
AcDbCircle
 10
1347.5638711751
 20
939.6435816109
 30
0.0
 40
35.33314436195496
100
AcDbArc
 50
357.0067702569
 51
2.9932297431
  0
LINE
  5
28F
330
1F
100
AcDbEntity
  8
0
  6
CONTINUOUS
 62
     7
100
AcDbLine
 10
1382.8092139092
 20
936.2277809798
 30
0.0
 11
1382.8488109511
 21
937.7985570847
 31
0.0
  0
LINE
  5
290
330
1F
100
AcDbEntity
  8
0
  6
CONTINUOUS
 62
     7
100
AcDbLine
 10
1382.8092139092
 20
936.2277809798
 30
0.0
 11
1366.5301618976
 21
937.0809320628
 31
0.0
  0
LWPOLYLINE
  5
291
330
1F
100
AcDbEntity
  8
0
  6
CONTINUOUS
 62
     7
100
AcDbPolyline
 90
        7
 70
   128
 43
0.0
 10
1366.5301618976
 20
942.5733808696
 10
1366.5305809927
 20
942.4584035098
 10
1366.5307644633
 20
942.1308908879
 10
1366.5301618976
 20
940.9655902802
 10
1366.5307635319
 20
939.2425839126
 10
1366.5305809927
 20
938.2000390708
 10
1366.5301618976
 20
937.0809320628
  0
LINE
  5
292
330
1F
100
AcDbEntity
  8
0
  6
CONTINUOUS
 62
     7
100
AcDbLine
 10
1386.6024479148
 20
808.2537671819
 30
0.0
 11
1382.8092139092
 21
808.4506487742
 31
0.0
  0
ARC
  5
293
330
1F
100
AcDbEntity
  8
0
  6
CONTINUOUS
 62
     7
100
AcDbCircle
 10
1386.5550323053
 20
807.2505859143
 30
0.0
 40
1.00430119765314
100
AcDbArc
 50
0.2596948827
 51
87.2939148173
  0
LINE
  5
294
330
1F
100
AcDbEntity
  8
0
  6
CONTINUOUS
 62
     7
100
AcDbLine
 10
1387.5593231869
 20
807.2551379248
 30
0.0
 11
1387.5593231869
 21
787.0531140163
 31
0.0
  0
ARC
  5
295
330
1F
100
AcDbEntity
  8
0
  6
CONTINUOUS
 62
     7
100
AcDbCircle
 10
1386.5550323053
 20
787.0576660268
 30
0.0
 40
1.00430119765314
100
AcDbArc
 50
272.7060851827
 51
359.7403051173
  0
LINE
  5
296
330
1F
100
AcDbEntity
  8
0
  6
CONTINUOUS
 62
     7
100
AcDbLine
 10
1386.6024479148
 20
786.0544847592
 30
0.0
 11
1382.8092139092
 21
785.8576031669
 31
0.0
  0
LINE
  5
297
330
1F
100
AcDbEntity
  8
0
  6
CONTINUOUS
 62
     7
100
AcDbLine
 10
1382.8092139092
 20
658.0804709613
 30
0.0
 11
1382.8092139092
 21
785.8576031669
 31
0.0
  0
LINE
  5
298
330
1F
100
AcDbEntity
  8
0
  6
CONTINUOUS
 62
     7
100
AcDbLine
 10
1382.8092139092
 20
808.4506487742
 30
0.0
 11
1382.8092139092
 21
936.2277809798
 31
0.0
  0
LINE
  5
299
330
1F
100
AcDbEntity
  8
0
  6
CONTINUOUS
 62
     7
100
AcDbLine
 10
1366.5301618976
 20
937.0809320628
 30
0.0
 11
1366.5301618976
 21
657.2273198783
 31
0.0
  0
LINE
  5
29A
330
1F
100
AcDbEntity
  8
0
  6
CONTINUOUS
 62
     7
100
AcDbLine
 10
1384.6953339753
 20
658.0804709613
 30
0.0
 11
1384.6953339753
 21
785.9469263151
 31
0.0
  0
LINE
  5
29B
330
1F
100
AcDbEntity
  8
0
  6
CONTINUOUS
 62
     7
100
AcDbLine
 10
1384.6953339753
 20
658.0804709613
 30
0.0
 11
1382.8092139092
 21
658.0804709613
 31
0.0
  0
ARC
  5
29C
330
1F
100
AcDbEntity
  8
0
  6
CONTINUOUS
 62
     7
100
AcDbCircle
 10
1389.4366228338
 20
665.8733054946
 30
0.0
 40
120.1671928480306
100
AcDbArc
 50
92.2612359309
 51
93.1615561244
  0
LINE
  5
29D
330
1F
100
AcDbEntity
  8
0
  6
CONTINUOUS
 62
     7
100
AcDbLine
 10
1382.8092139092
 20
936.2277809798
 30
0.0
 11
1384.6953339753
 21
936.2277809798
 31
0.0
  0
LINE
  5
29E
330
1F
100
AcDbEntity
  8
0
  6
CONTINUOUS
 62
     7
100
AcDbLine
 10
1384.6953339753
 20
808.361325626
 30
0.0
 11
1384.6953339753
 21
936.2277809798
 31
0.0
  0
ARC
  5
29F
330
1F
100
AcDbEntity
  8
0
  6
CONTINUOUS
 62
     7
100
AcDbCircle
 10
1389.2100596207
 20
923.6509074659
 30
0.0
 40
115.3779460228946
100
AcDbArc
 50
266.819757679
 51
267.7574502656
  0
LINE
  5
2A0
330
1F
100
AcDbEntity
  8
0
  6
CONTINUOUS
 62
     7
100
AcDbLine
 10
1384.6953339753
 20
808.361325626
 30
0.0
 11
1384.8757414025
 21
808.361325626
 31
0.0
  0
LINE
  5
2A1
330
1F
100
AcDbEntity
  8
0
  6
CONTINUOUS
 62
     7
100
AcDbLine
 10
1384.8757414025
 20
808.361325626
 30
0.0
 11
1386.908319394
 21
808.2537671819
 31
0.0
  0
LINE
  5
2A2
330
1F
100
AcDbEntity
  8
0
  6
CONTINUOUS
 62
     7
100
AcDbLine
 10
1386.6024479148
 20
808.2537671819
 30
0.0
 11
1386.908319394
 21
808.2537671819
 31
0.0
  0
LINE
  5
2A3
330
1F
100
AcDbEntity
  8
0
  6
CONTINUOUS
 62
     7
100
AcDbLine
 10
1386.908319394
 20
786.0544847592
 30
0.0
 11
1386.6024479148
 21
786.0544847592
 31
0.0
  0
LINE
  5
2A4
330
1F
100
AcDbEntity
  8
0
  6
CONTINUOUS
 62
     7
100
AcDbLine
 10
1384.8757414025
 20
785.9469263151
 30
0.0
 11
1386.908319394
 21
786.0544847592
 31
0.0
  0
LINE
  5
2A5
330
1F
100
AcDbEntity
  8
0
  6
CONTINUOUS
 62
     7
100
AcDbLine
 10
1384.6953339753
 20
785.9469263151
 30
0.0
 11
1384.8757414025
 21
785.9469263151
 31
0.0
  0
LWPOLYLINE
  5
2A6
330
1F
100
AcDbEntity
  8
0
  6
CONTINUOUS
 62
     7
100
AcDbPolyline
 90
        3
 70
   128
 43
0.0
 10
1384.6953339753
 20
658.0804709613
 10
1384.6997875598
 20
657.5148228824
 10
1384.709471452
 20
657.0803199231
  0
ARC
  5
2A7
330
1F
100
AcDbEntity
  8
0
  6
CONTINUOUS
 62
     7
100
AcDbCircle
 10
1383.1211361528
 20
658.9405913728
 30
0.0
 40
2.446102796151354
100
AcDbArc
 50
263.6079964783
 51
310.4913327842
  0
LWPOLYLINE
  5
2A8
330
1F
100
AcDbEntity
  8
0
  6
CONTINUOUS
 62
     7
100
AcDbPolyline
 90
        3
 70
   128
 43
0.0
 10
1384.709471452
 20
937.227932018
 10
1384.6980851022
 20
936.6729531705
 10
1384.6953339753
 20
936.2277809798
  0
ARC
  5
2A9
330
1F
100
AcDbEntity
  8
0
  6
CONTINUOUS
 62
     7
100
AcDbCircle
 10
1383.1211219165
 20
935.3675655661
 30
0.0
 40
2.446195622923179
100
AcDbArc
 50
49.5100851402
 51
96.391424417
  0
LINE
  5
2AA
330
1F
100
AcDbEntity
  8
0
  6
CONTINUOUS
 62
     7
100
AcDbLine
 10
1387.8468606499
 20
787.0531140163
 30
0.0
 11
1387.5593231869
 21
787.0531140163
 31
0.0
  0
ARC
  5
2AB
330
1F
100
AcDbEntity
  8
0
  6
CONTINUOUS
 62
     7
100
AcDbCircle
 10
1386.851051896
 20
787.0486554623
 30
0.0
 40
0.9958187350670445
100
AcDbArc
 50
273.2967819269
 51
0.2565298021
  0
LINE
  5
2AC
330
1F
100
AcDbEntity
  8
0
  6
CONTINUOUS
 62
     7
100
AcDbLine
 10
1387.5593231869
 20
807.2551379248
 30
0.0
 11
1387.8468606499
 21
807.2551379248
 31
0.0
  0
ARC
  5
2AD
330
1F
100
AcDbEntity
  8
0
  6
CONTINUOUS
 62
     7
100
AcDbCircle
 10
1386.851051896
 20
807.2595964788
 30
0.0
 40
0.9958187350671125
100
AcDbArc
 50
359.7434701979
 51
86.7032180731
  0
LINE
  5
2AE
330
1F
100
AcDbEntity
  8
0
  6
CONTINUOUS
 62
     7
100
AcDbLine
 10
1384.7183972475
 20
939.6186296164
 30
0.0
 11
1384.709471452
 21
939.7678498446
 31
0.0
  0
LINE
  5
2AF
330
1F
100
AcDbEntity
  8
0
  6
CONTINUOUS
 62
     7
100
AcDbLine
 10
1384.623887564
 20
940.0717888295
 30
0.0
 11
1384.709471452
 21
939.7678498446
 31
0.0
  0
LINE
  5
2B0
330
1F
100
AcDbEntity
  8
0
  6
CONTINUOUS
 62
     7
100
AcDbLine
 10
1384.709471452
 20
654.5404020965
 30
0.0
 11
1384.7183953849
 21
654.6895925223
 31
0.0
  0
LINE
  5
2B1
330
1F
100
AcDbEntity
  8
0
  6
CONTINUOUS
 62
     7
100
AcDbLine
 10
1384.6238884953
 20
654.2364631116
 30
0.0
 11
1384.709471452
 21
654.5404020965
 31
0.0
  0
LINE
  5
2B2
330
1F
100
AcDbEntity
  8
0
  6
CONTINUOUS
 62
     7
100
AcDbLine
 10
1387.8468606499
 20
807.2551379248
 30
0.0
 11
1387.8468606499
 21
787.0531140163
 31
0.0
  0
LINE
  5
2B3
330
1F
100
AcDbEntity
  8
0
  6
CONTINUOUS
 62
     7
100
AcDbLine
 10
1384.709471452
 20
657.0803199231
 30
0.0
 11
1384.7932150465
 21
657.9500261962
 31
0.0
  0
LINE
  5
2B4
330
1F
100
AcDbEntity
  8
0
  6
CONTINUOUS
 62
     7
100
AcDbLine
 10
1384.7932150465
 20
657.9500261962
 30
0.0
 11
1384.7932150465
 21
655.4101083695
 31
0.0
  0
LINE
  5
2B5
330
1F
100
AcDbEntity
  8
0
  6
CONTINUOUS
 62
     7
100
AcDbLine
 10
1384.7932150465
 20
655.4101083695
 30
0.0
 11
1384.709471452
 21
654.5404020965
 31
0.0
  0
LINE
  5
2B6
330
1F
100
AcDbEntity
  8
0
  6
CONTINUOUS
 62
     7
100
AcDbLine
 10
1384.709471452
 20
939.7678498446
 30
0.0
 11
1384.7932150465
 21
938.8981435716
 31
0.0
  0
LINE
  5
2B7
330
1F
100
AcDbEntity
  8
0
  6
CONTINUOUS
 62
     7
100
AcDbLine
 10
1384.7932150465
 20
938.8981435716
 30
0.0
 11
1384.7932150465
 21
936.3582257449
 31
0.0
  0
LINE
  5
2B8
330
1F
100
AcDbEntity
  8
0
  6
CONTINUOUS
 62
     7
100
AcDbLine
 10
1384.7932150465
 20
936.3582257449
 30
0.0
 11
1384.709471452
 21
937.227932018
 31
0.0
  0
LINE
  5
2B9
330
1F
100
AcDbEntity
  8
0
  6
CONTINUOUS
 62
     7
100
AcDbLine
 10
1384.7932150465
 20
919.8160220205
 30
0.0
 11
1384.7932150465
 21
936.3582257449
 31
0.0
  0
LINE
  5
2BA
330
1F
100
AcDbEntity
  8
0
  6
CONTINUOUS
 62
     7
100
AcDbLine
 10
1384.7932262224
 20
919.839036864
 30
0.0
 11
1385.671485762
 21
919.7930071771
 31
0.0
  0
LINE
  5
2BB
330
1F
100
AcDbEntity
  8
0
  6
CONTINUOUS
 62
     7
100
AcDbLine
 10
1385.671485762
 20
674.515244764
 30
0.0
 11
1384.7932150465
 21
674.4692150771
 31
0.0
  0
LINE
  5
2BC
330
1F
100
AcDbEntity
  8
0
  6
CONTINUOUS
 62
     7
100
AcDbLine
 10
1384.7932150465
 20
657.9500261962
 30
0.0
 11
1384.7932150465
 21
674.4692150771
 31
0.0
  0
LINE
  5
2BD
330
1F
100
AcDbEntity
  8
0
  6
CONTINUOUS
 62
     7
100
AcDbLine
 10
1384.7932150465
 20
920.1237980544
 30
0.0
 11
1385.388567659
 21
920.0925950229
 31
0.0
  0
ARC
  5
2BE
330
1F
100
AcDbEntity
  8
0
  6
CONTINUOUS
 62
     7
100
AcDbCircle
 10
1385.3722706671
 20
919.7938229583
 30
0.0
 40
0.2992162069473059
100
AcDbArc
 50
359.8437889411
 51
86.8778057205
  0
ARC
  5
2BF
330
1F
100
AcDbEntity
  8
0
  6
CONTINUOUS
 62
     7
100
AcDbCircle
 10
1385.3722706671
 20
674.5144289828
 30
0.0
 40
0.2992162069473059
100
AcDbArc
 50
273.1221942795
 51
0.1562110589
  0
LINE
  5
2C0
330
1F
100
AcDbEntity
  8
0
  6
CONTINUOUS
 62
     7
100
AcDbLine
 10
1385.388567659
 20
674.2156569182
 30
0.0
 11
1384.7932150465
 21
674.1844538867
 31
0.0
  0
LWPOLYLINE
  5
2C1
330
1F
100
AcDbEntity
  8
0
  6
CONTINUOUS
 62
     7
100
AcDbPolyline
 90
        3
 70
   128
 43
0.0
 10
1384.709471452
 20
654.5404020965
 10
1384.6980851022
 20
654.4221464812
 10
1384.6953339753
 20
654.3935809552
  0
ARC
  5
2C2
330
1F
100
AcDbEntity
  8
0
  6
CONTINUOUS
 62
     7
100
AcDbCircle
 10
1382.8192094114
 20
654.5172320708
 30
0.0
 40
1.880194930748003
100
AcDbArc
 50
279.3871064892
 51
356.2292186678
  0
LWPOLYLINE
  5
2C3
330
1F
100
AcDbEntity
  8
0
  6
CONTINUOUS
 62
     7
100
AcDbPolyline
 90
        3
 70
   128
 43
0.0
 10
1384.6953339753
 20
939.9146709859
 10
1384.6997875598
 20
939.8684177815
 10
1384.709471452
 20
939.7678498446
  0
ARC
  5
2C4
330
1F
100
AcDbEntity
  8
0
  6
CONTINUOUS
 62
     7
100
AcDbCircle
 10
1382.8192094114
 20
939.7910198703
 30
0.0
 40
1.880194930748129
100
AcDbArc
 50
3.7707813323
 51
80.6128935108
  0
LWPOLYLINE
  5
2C5
330
1F
100
AcDbEntity
  8
0
  6
CONTINUOUS
 62
     7
100
AcDbPolyline
 90
        3
 70
   128
 43
0.0
 10
1385.671485762
 20
674.515244764
 10
1385.799519333
 20
674.5230455219
 10
1386.0814921436
 20
674.5399508893
  0
ARC
  5
2C6
330
1F
100
AcDbEntity
  8
0
  6
CONTINUOUS
 62
     7
100
AcDbCircle
 10
1385.8123142596
 20
674.5072773026
 30
0.0
 40
0.2711536399886624
100
AcDbArc
 50
280.1449192272
 51
6.9208689958
  0
LWPOLYLINE
  5
2C7
330
1F
100
AcDbEntity
  8
0
  6
CONTINUOUS
 62
     7
100
AcDbPolyline
 90
        3
 70
   128
 43
0.0
 10
1385.8600748581
 20
674.2403630435
 10
1385.5126803619
 20
674.2221612751
 10
1385.388567659
 20
674.2156569182
  0
LWPOLYLINE
  5
2C8
330
1F
100
AcDbEntity
  8
0
  6
CONTINUOUS
 62
     7
100
AcDbPolyline
 90
        3
 70
   128
 43
0.0
 10
1386.0814921436
 20
919.7683010518
 10
1385.7995202643
 20
919.7852064192
 10
1385.671485762
 20
919.7930071771
  0
ARC
  5
2C9
330
1F
100
AcDbEntity
  8
0
  6
CONTINUOUS
 62
     7
100
AcDbCircle
 10
1385.8123139121
 20
919.8009745302
 30
0.0
 40
0.2711539718844434
100
AcDbArc
 50
353.0791625776
 51
79.8548188138
  0
LWPOLYLINE
  5
2CA
330
1F
100
AcDbEntity
  8
0
  6
CONTINUOUS
 62
     7
100
AcDbPolyline
 90
        3
 70
   128
 43
0.0
 10
1385.388567659
 20
920.0925950229
 10
1385.5700675276
 20
920.083088082
 10
1385.8600748581
 20
920.0678888976
  0
ARC
  5
2CB
330
1F
100
AcDbEntity
  8
0
  6
CONTINUOUS
 62
     7
100
AcDbCircle
 10
1385.4056894846
 20
923.0622113955
 30
0.0
 40
3.362522057386083
100
AcDbArc
 50
281.5943243724
 51
309.7652651322
  0
ARC
  5
2CC
330
1F
100
AcDbEntity
  8
0
  6
CONTINUOUS
 62
     7
100
AcDbCircle
 10
1385.3495871131
 20
671.1288784247
 30
0.0
 40
3.488710411123845
100
AcDbArc
 50
50.74488116
 51
77.8898116766
  0
ARC
  5
2CD
330
1F
100
AcDbEntity
  8
0
  6
CONTINUOUS
 62
     7
100
AcDbCircle
 10
1385.3736185676
 20
668.5122491114
 30
0.0
 40
5.74873281183641
100
AcDbArc
 50
67.6777806015
 51
85.1458410578
  0
ARC
  5
2CE
330
1F
100
AcDbEntity
  8
0
  6
CONTINUOUS
 62
     7
100
AcDbCircle
 10
1385.2087659368
 20
926.4779539315
 30
0.0
 40
6.44306891546079
100
AcDbArc
 50
275.8017540187
 51
291.3730302928
  0
ARC
  5
2CF
330
1F
100
AcDbEntity
  8
0
  6
CONTINUOUS
 62
     7
100
AcDbCircle
 10
1390.0996089778
 20
679.0158787258
 30
0.0
 40
7.176800011224267
100
AcDbArc
 50
222.3212353421
 51
227.6811259586
  0
LINE
  5
2D0
330
1F
100
AcDbEntity
  8
0
  6
CONTINUOUS
 62
     7
100
AcDbLine
 10
1385.2677350742
 20
673.7102095305
 30
0.0
 11
1387.5570144382
 21
673.8312963664
 31
0.0
  0
LINE
  5
2D1
330
1F
100
AcDbEntity
  8
0
  6
CONTINUOUS
 62
     7
100
AcDbLine
 10
1385.2670477581
 20
673.7092856585
 30
0.0
 11
1384.7932150465
 21
673.7092856585
 31
0.0
  0
LINE
  5
2D2
330
1F
100
AcDbEntity
  8
0
  6
CONTINUOUS
 62
     7
100
AcDbLine
 10
1384.7932150465
 20
920.5989662826
 30
0.0
 11
1385.2670431015
 21
920.5989662826
 31
0.0
  0
ARC
  5
2D3
330
1F
100
AcDbEntity
  8
0
  6
CONTINUOUS
 62
     7
100
AcDbCircle
 10
1390.0684691561
 20
915.323139505
 30
0.0
 40
7.133061491963519
100
AcDbArc
 50
132.309512137
 51
137.6930784726
  0
LINE
  5
2D4
330
1F
100
AcDbEntity
  8
0
  6
CONTINUOUS
 62
     7
100
AcDbLine
 10
1387.5576645014
 20
920.4769183218
 30
0.0
 11
1385.2670431015
 21
920.5980796635
 31
0.0
  0
LWPOLYLINE
  5
2D5
330
1F
100
AcDbEntity
  8
0
  6
CONTINUOUS
 62
     7
100
AcDbPolyline
 90
        5
 70
   128
 43
0.0
 10
1385.2670477581
 20
673.7092856585
 10
1385.2634379518
 20
671.6069404303
 10
1385.2638058242
 20
669.825730127
 10
1385.2634603036
 20
668.6354104697
 10
1385.2670477581
 20
668.2168219506
  0
LWPOLYLINE
  5
2D6
330
1F
100
AcDbEntity
  8
0
  6
CONTINUOUS
 62
     7
100
AcDbPolyline
 90
        5
 70
   128
 43
0.0
 10
1385.2670440328
 20
926.0914299905
 10
1385.2634370205
 20
925.6731692969
 10
1385.2637918544
 20
924.4828943431
 10
1385.2634370205
 20
922.7012817084
 10
1385.2670431015
 20
920.5980796635
  0
ARC
  5
2D7
330
1F
100
AcDbEntity
  8
0
  6
CONTINUOUS
 62
     7
100
AcDbCircle
 10
1385.2932124131
 20
926.5907420997
 30
0.0
 40
0.4999973665461238
100
AcDbArc
 50
180.0004583631
 51
266.9999380415
  0
LINE
  5
2D8
330
1F
100
AcDbEntity
  8
0
  6
CONTINUOUS
 62
     7
100
AcDbLine
 10
1408.5301641253
 20
669.435990256
 30
0.0
 11
1408.5301641253
 21
674.9315683066
 31
0.0
  0
LINE
  5
2D9
330
1F
100
AcDbEntity
  8
0
  6
CONTINUOUS
 62
     7
100
AcDbLine
 10
1408.5301604
 20
669.435990256
 30
0.0
 11
1387.7511607361
 21
668.347013396
 31
0.0
  0
LINE
  5
2DA
330
1F
100
AcDbEntity
  8
0
  6
CONTINUOUS
 62
     7
100
AcDbLine
 10
1387.7512194094
 20
668.347013396
 30
0.0
 11
1385.2668503177
 21
668.2168070495
 31
0.0
  0
LINE
  5
2DB
330
1F
100
AcDbEntity
  8
0
  6
CONTINUOUS
 62
     7
100
AcDbLine
 10
1387.5570153695
 20
673.8312963664
 30
0.0
 11
1408.5301641253
 21
674.9315683066
 31
0.0
  0
LINE
  5
2DC
330
1F
100
AcDbEntity
  8
0
  6
CONTINUOUS
 62
     7
100
AcDbLine
 10
1408.5301641253
 20
919.3766836345
 30
0.0
 11
1408.5301641253
 21
924.8722616851
 31
0.0
  0
LINE
  5
2DD
330
1F
100
AcDbEntity
  8
0
  6
CONTINUOUS
 62
     7
100
AcDbLine
 10
1408.5301604
 20
919.3766836345
 30
0.0
 11
1387.5576058281
 21
920.4758081853
 31
0.0
  0
LINE
  5
2DE
330
1F
100
AcDbEntity
  8
0
  6
CONTINUOUS
 62
     7
100
AcDbLine
 10
1385.2670440328
 20
926.0914299905
 30
0.0
 11
1387.7512771514
 21
925.9612385451
 31
0.0
  0
LINE
  5
2DF
330
1F
100
AcDbEntity
  8
0
  6
CONTINUOUS
 62
     7
100
AcDbLine
 10
1387.7511607361
 20
925.9612385451
 30
0.0
 11
1408.5301641253
 21
924.8722616851
 31
0.0
  0
LINE
  5
2E0
330
1F
100
AcDbEntity
  8
0
  6
CONTINUOUS
 62
     7
100
AcDbLine
 10
1408.5301641253
 20
674.9315683066
 30
0.0
 11
1408.5301604
 21
919.3766836345
 31
0.0
  0
ARC
  5
2E1
330
1F
100
AcDbEntity
  8
0
  6
CONTINUOUS
 62
     7
100
AcDbCircle
 10
1387.8545730642
 20
665.3051962091
 30
0.0
 40
3.043555001926701
100
AcDbArc
 50
91.9610347042
 51
126.279415147
  0
LINE
  5
2E2
330
1F
100
AcDbEntity
  8
0
  6
CONTINUOUS
 62
     7
100
AcDbLine
 10
1384.7945095849
 20
667.6927481114
 30
0.0
 11
1386.0536297661
 21
667.7587304532
 31
0.0
  0
LINE
  5
2E3
330
1F
100
AcDbEntity
  8
0
  6
CONTINUOUS
 62
     7
100
AcDbLine
 10
1386.0536297661
 20
926.5495214879
 30
0.0
 11
1384.7944779199
 21
926.6155038297
 31
0.0
  0
ARC
  5
2E4
330
1F
100
AcDbEntity
  8
0
  6
CONTINUOUS
 62
     7
100
AcDbCircle
 10
1387.8081585619
 20
928.8691716922
 30
0.0
 40
2.908461511794531
100
AcDbArc
 50
232.896997016
 51
268.8625920631
  0
ARC
  5
2E5
330
1F
100
AcDbEntity
  8
0
  6
CONTINUOUS
 62
     7
100
AcDbCircle
 10
1384.7505025364
 20
928.3448292335
 30
0.0
 40
2.218393670712896
100
AcDbArc
 50
305.9740860969
 51
313.4111603182
  0
ARC
  5
2E6
330
1F
100
AcDbEntity
  8
0
  6
CONTINUOUS
 62
     7
100
AcDbCircle
 10
1387.8558606573
 20
927.9585524696
 30
0.0
 40
2.000055342914299
100
AcDbArc
 50
217.7785014753
 51
266.9673264301
  0
ARC
  5
2E7
330
1F
100
AcDbEntity
  8
0
  6
CONTINUOUS
 62
     7
100
AcDbCircle
 10
1384.7505025364
 20
665.9634227076
 30
0.0
 40
2.218393670712486
100
AcDbArc
 50
46.5888396818
 51
54.0259139031
  0
ARC
  5
2E8
330
1F
100
AcDbEntity
  8
0
  6
CONTINUOUS
 62
     7
100
AcDbCircle
 10
1387.8558329576
 20
666.3497504811
 30
0.0
 40
2.000002200585449
100
AcDbArc
 50
93.0315588094
 51
142.222167397
  0
LINE
  5
2E9
330
1F
100
AcDbEntity
  8
0
  6
CONTINUOUS
 62
     7
100
AcDbLine
 10
1385.582122567
 20
927.7380530059
 30
0.0
 11
1384.7932150465
 21
935.9311733663
 31
0.0
  0
LWPOLYLINE
  5
2EA
330
1F
100
AcDbEntity
  8
0
  6
CONTINUOUS
 62
     7
100
AcDbPolyline
 90
        3
 70
   128
 43
0.0
 10
1386.0536297661
 20
926.5495214879
 10
1385.7062352699
 20
927.1831188619
 10
1385.582122567
 20
927.7380530059
  0
LWPOLYLINE
  5
2EB
330
1F
100
AcDbEntity
  8
0
  6
CONTINUOUS
 62
     7
100
AcDbPolyline
 90
        3
 70
   128
 43
0.0
 10
1385.582122567
 20
666.5701989352
 10
1385.7636252296
 20
667.2697786509
 10
1386.0536297661
 20
667.7587304532
  0
LINE
  5
2EC
330
1F
100
AcDbEntity
  8
0
  6
CONTINUOUS
 62
     7
100
AcDbLine
 10
1384.7932150465
 20
658.3770785748
 30
0.0
 11
1385.582122567
 21
666.5701989352
 31
0.0
  0
ARC
  5
2ED
330
1F
100
AcDbEntity
  8
0
  6
CONTINUOUS
 62
     7
100
AcDbCircle
 10
1384.3323918348
 20
941.4382170719
 30
0.0
 40
13.75704627959897
100
AcDbArc
 50
275.212103501
 51
276.3965029833
  0
LINE
  5
2EE
330
1F
100
AcDbEntity
  8
0
  6
CONTINUOUS
 62
     7
100
AcDbLine
 10
1385.86504067
 20
927.766812247
 30
0.0
 11
1384.7932150465
 21
938.8981435716
 31
0.0
  0
ARC
  5
2EF
330
1F
100
AcDbEntity
  8
0
  6
CONTINUOUS
 62
     7
100
AcDbCircle
 10
1384.3323918348
 20
652.8700348692
 30
0.0
 40
13.75704627959899
100
AcDbArc
 50
83.6034970167
 51
84.787896499
  0
LINE
  5
2F0
330
1F
100
AcDbEntity
  8
0
  6
CONTINUOUS
 62
     7
100
AcDbLine
 10
1384.7932150465
 20
655.4101083695
 30
0.0
 11
1385.86504067
 21
666.5414396941
 31
0.0
  0
LWPOLYLINE
  5
2F1
330
1F
100
AcDbEntity
  8
0
  6
CONTINUOUS
 62
     7
100
AcDbPolyline
 90
        3
 70
   128
 43
0.0
 10
1385.86504067
 20
927.766812247
 10
1385.9930099797
 20
927.2305641591
 10
1386.2750470516
 20
926.7332975089
  0
LWPOLYLINE
  5
2F2
330
1F
100
AcDbEntity
  8
0
  6
CONTINUOUS
 62
     7
100
AcDbPolyline
 90
        3
 70
   128
 43
0.0
 10
1386.2750470516
 20
667.5749544322
 10
1385.9930751723
 20
667.0778516948
 10
1385.86504067
 20
666.5414396941
  0
ARC
  5
2F3
330
1F
100
AcDbEntity
  8
0
  6
CONTINUOUS
 62
     7
100
AcDbCircle
 10
1385.2932119497
 20
667.7175102811
 30
0.0
 40
0.4999969031514115
100
AcDbArc
 50
93.0000115675
 51
179.9995920279
  0
LINE
  5
2F4
330
1F
100
AcDbEntity
  8
0
  6
CONTINUOUS
 62
     8
100
AcDbLine
 10
1382.8140614432
 20
652.6163641631
 30
0.0
 11
1382.8488128138
 21
652.8196458041
 31
0.0
  0
LINE
  5
2F5
330
1F
100
AcDbEntity
  8
0
  6
CONTINUOUS
 62
     8
100
AcDbLine
 10
1382.8488128138
 20
941.488606137
 30
0.0
 11
1382.8140614432
 21
941.691887778
 31
0.0
  0
ARC
  5
2F6
330
1F
100
AcDbEntity
  8
0
  6
CONTINUOUS
 62
     8
100
AcDbCircle
 10
1360.7274668524
 20
938.5128355585
 30
0.0
 40
24.01640109839476
100
AcDbArc
 50
356.9331493097
 51
2.6390190497
  0
ARC
  5
2F7
330
1F
100
AcDbEntity
  8
0
  6
CONTINUOUS
 62
     8
100
AcDbCircle
 10
1382.8360316204
 20
939.6522236977
 30
0.0
 40
1.83642690426648
100
AcDbArc
 50
13.2069044834
 51
89.6012868126
  0
ARC
  5
2F8
330
1F
100
AcDbEntity
  8
0
  6
CONTINUOUS
 62
     8
100
AcDbCircle
 10
1360.7301858387
 20
655.7954234301
 30
0.0
 40
24.01368483239026
100
AcDbArc
 50
357.3605942153
 51
3.0671454797
  0
ARC
  5
2F9
330
1F
100
AcDbEntity
  8
0
  6
CONTINUOUS
 62
     8
100
AcDbCircle
 10
1382.8360330177
 20
654.656027668
 30
0.0
 40
1.836426319128256
100
AcDbArc
 50
270.3986697176
 51
346.7931096733
  0
LINE
  5
2FA
330
1F
100
AcDbEntity
  8
0
  6
CONTINUOUS
 62
     8
100
AcDbLine
 10
1385.671485762
 20
919.7930071771
 30
0.0
 11
1385.671485762
 21
808.3192177385
 31
0.0
  0
LINE
  5
2FB
330
1F
100
AcDbEntity
  8
0
  6
CONTINUOUS
 62
     8
100
AcDbLine
 10
1385.671485762
 20
785.9890342026
 30
0.0
 11
1385.671485762
 21
674.515244764
 31
0.0
  0
LINE
  5
2FC
330
1F
100
AcDbEntity
  8
0
  6
CONTINUOUS
 62
     8
100
AcDbLine
 10
1387.5576058281
 20
673.8301862299
 30
0.0
 11
1387.5576058281
 21
786.3521913334
 31
0.0
  0
LINE
  5
2FD
330
1F
100
AcDbEntity
  8
0
  6
CONTINUOUS
 62
     8
100
AcDbLine
 10
1387.5576058281
 20
807.9560606077
 30
0.0
 11
1387.5576058281
 21
920.4758081853
 31
0.0
  0
LINE
  5
2FE
330
1F
100
AcDbEntity
  8
0
  6
CONTINUOUS
 62
     8
100
AcDbLine
 10
1384.7932150465
 20
671.7395756661
 30
0.0
 11
1384.8258430016
 21
671.7412445962
 31
0.0
  0
LINE
  5
2FF
330
1F
100
AcDbEntity
  8
0
  6
CONTINUOUS
 62
     8
100
AcDbLine
 10
1384.8260655877
 20
673.2386920869
 30
0.0
 11
1384.7932150465
 21
673.2370157062
 31
0.0
  0
LWPOLYLINE
  5
300
330
1F
100
AcDbEntity
  8
0
  6
CONTINUOUS
 62
     7
100
AcDbPolyline
 90
        3
 70
   128
 43
0.0
 10
1176.5253345297
 20
473.7109230785
 10
1176.8945555018
 20
473.7587939902
 10
1177.2333334015
 20
473.8463383122
  0
LWPOLYLINE
  5
301
330
1F
100
AcDbEntity
  8
0
  6
CONTINUOUS
 62
     7
100
AcDbPolyline
 90
        3
 70
   128
 43
0.0
 10
893.479208164
 20
473.7803801848
 10
893.7230209635
 20
473.736103247
 10
893.9128766583
 20
473.7152248575
  0
LINE
  5
302
330
1F
100
AcDbEntity
  8
0
  6
CONTINUOUS
 62
     7
100
AcDbLine
 10
1178.6257128046
 20
475.2904610662
 30
0.0
 11
1178.6563644932
 21
475.6145734294
 31
0.0
  0
LINE
  5
303
330
1F
100
AcDbEntity
  8
0
  6
CONTINUOUS
 62
     7
100
AcDbLine
 10
891.8428967522
 20
475.6188100158
 30
0.0
 11
891.8846349047
 21
475.2904610662
 31
0.0
  0
LWPOLYLINE
  5
304
330
1F
100
AcDbEntity
  8
0
  6
CONTINUOUS
 62
     7
100
AcDbPolyline
 90
        3
 70
   128
 43
0.0
 10
911.5082721041
 20
472.3374988838
 10
911.5061188863
 20
472.27347977
 10
911.495784931
 20
472.2003476648
  0
LWPOLYLINE
  5
305
330
1F
100
AcDbEntity
  8
0
  6
CONTINUOUS
 62
     7
100
AcDbPolyline
 90
        3
 70
   128
 43
0.0
 10
1159.0262676404
 20
472.1049578814
 10
1159.0072165058
 20
472.1989152907
 10
1159.0020756052
 20
472.3374988838
  0
LWPOLYLINE
  5
306
330
1F
100
AcDbEntity
  8
0
  6
CONTINUOUS
 62
     7
100
AcDbPolyline
 90
        8
 70
   128
 43
0.0
 10
906.2100897358
 20
473.6310193269
 10
905.8400939034
 20
473.631008151
 10
905.3211609648
 20
473.6309541343
 10
905.2322606371
 20
473.6276814668
 10
905.2676806973
 20
473.5923675774
 10
905.3925226257
 20
473.4561653762
 10
905.4520229624
 20
473.3270924492
 10
905.4760436342
 20
473.166219513
  0
LWPOLYLINE
  5
307
330
1F
100
AcDbEntity
  8
0
  6
CONTINUOUS
 62
     7
100
AcDbPolyline
 90
        9
 70
   128
 43
0.0
 10
1165.0161246584
 20
473.1673473446
 10
1165.0255719946
 20
473.2425115957
 10
1165.0439302252
 20
473.3126960649
 10
1165.069053583
 20
473.3755687206
 10
1165.0979320334
 20
473.4297959088
 10
1165.1543627308
 20
473.5110547348
 10
1165.1921967791
 20
473.5604474275
 10
1165.1586244629
 20
473.5991960345
 10
1165.0420526789
 20
473.612807314
  0
LWPOLYLINE
  5
308
330
1F
100
AcDbEntity
  8
0
  6
CONTINUOUS
 62
     7
100
AcDbPolyline
 90
        3
 70
   128
 43
0.0
 10
1165.5130336807
 20
473.6387437163
 10
1165.4252062367
 20
473.6308898731
 10
1165.3356800602
 20
473.6059611617
  0
LWPOLYLINE
  5
309
330
1F
100
AcDbEntity
  8
0
  6
CONTINUOUS
 62
     7
100
AcDbPolyline
 90
        3
 70
   128
 43
0.0
 10
1165.1303718613
 20
473.4226470767
 10
1165.2272443102
 20
473.5327955289
 10
1165.3356800602
 20
473.6059611617
  0
LWPOLYLINE
  5
30A
330
1F
100
AcDbEntity
  8
0
  6
CONTINUOUS
 62
     7
100
AcDbPolyline
 90
        3
 70
   128
 43
0.0
 10
1165.167788677
 20
473.5630551307
 10
1165.3356800602
 20
473.605962093
 10
1165.4534439371
 20
473.6308461009
  0
LINE
  5
30B
330
1F
100
AcDbEntity
  8
0
  6
CONTINUOUS
 62
     7
100
AcDbLine
 10
896.4783797787
 20
491.9017968653
 30
0.0
 11
897.3315159605
 21
475.622742991
 31
0.0
  0
LINE
  5
30C
330
1F
100
AcDbEntity
  8
0
  6
CONTINUOUS
 62
     7
100
AcDbLine
 10
895.7607547567
 20
475.5831459491
 30
0.0
 11
897.3315159605
 21
475.622742991
 31
0.0
  0
ARC
  5
30D
330
1F
100
AcDbEntity
  8
0
  6
CONTINUOUS
 62
     7
100
AcDbCircle
 10
893.91572278
 20
510.9330350626
 30
0.0
 40
35.39800378042128
100
AcDbArc
 50
267.0122476278
 51
272.9877523722
  0
LINE
  5
30E
330
1F
100
AcDbEntity
  8
0
  6
CONTINUOUS
 62
     7
100
AcDbLine
 10
891.8390671537
 20
475.6227448537
 30
0.0
 11
891.8674091623
 21
475.6178991823
 31
0.0
  0
LINE
  5
30F
330
1F
100
AcDbEntity
  8
0
  6
CONTINUOUS
 62
     7
100
AcDbLine
 10
891.8390671537
 20
475.6227448537
 30
0.0
 11
890.9859160708
 21
491.9017968653
 31
0.0
  0
LWPOLYLINE
  5
310
330
1F
100
AcDbEntity
  8
0
  6
CONTINUOUS
 62
     7
100
AcDbPolyline
 90
        7
 70
   128
 43
0.0
 10
896.4783797787
 20
491.9017968653
 10
895.3592727707
 20
491.9013777702
 10
894.3167428301
 20
491.9011942996
 10
892.5937066601
 20
491.9017968653
 10
891.4284209536
 20
491.901195231
 10
891.1009083317
 20
491.9013777702
 10
890.9859160708
 20
491.9017968653
  0
LINE
  5
311
330
1F
100
AcDbEntity
  8
0
  6
CONTINUOUS
 62
     7
100
AcDbLine
 10
1178.6712805555
 20
475.6227448537
 30
0.0
 11
1178.6155651138
 21
475.6132192864
 31
0.0
  0
ARC
  5
312
330
1F
100
AcDbEntity
  8
0
  6
CONTINUOUS
 62
     7
100
AcDbCircle
 10
1176.5946249292
 20
508.325644081
 30
0.0
 40
32.79443862813574
100
AcDbArc
 50
266.7748070395
 51
273.2251929605
  0
LINE
  5
313
330
1F
100
AcDbEntity
  8
0
  6
CONTINUOUS
 62
     7
100
AcDbLine
 10
1174.7495929525
 20
475.5831459491
 30
0.0
 11
1173.1788317488
 21
475.622742991
 31
0.0
  0
LINE
  5
314
330
1F
100
AcDbEntity
  8
0
  6
CONTINUOUS
 62
     7
100
AcDbLine
 10
1174.0319679306
 20
491.9017968653
 30
0.0
 11
1173.1788317488
 21
475.6227448537
 31
0.0
  0
LINE
  5
315
330
1F
100
AcDbEntity
  8
0
  6
CONTINUOUS
 62
     7
100
AcDbLine
 10
1178.6712805555
 20
475.6227448537
 30
0.0
 11
1179.5244316385
 21
491.9017968653
 31
0.0
  0
LINE
  5
316
330
1F
100
AcDbEntity
  8
0
  6
CONTINUOUS
 62
     7
100
AcDbLine
 10
1174.0319679306
 20
491.9017968653
 30
0.0
 11
1179.5244316385
 21
491.9017968653
 31
0.0
  0
LINE
  5
317
330
1F
100
AcDbEntity
  8
0
  6
CONTINUOUS
 62
     7
100
AcDbLine
 10
897.3315159605
 20
475.6227448537
 30
0.0
 11
1173.1788317488
 21
475.6227448537
 31
0.0
  0
LINE
  5
318
330
1F
100
AcDbEntity
  8
0
  6
CONTINUOUS
 62
     7
100
AcDbLine
 10
896.4783797787
 20
491.9017968653
 30
0.0
 11
1174.0319679306
 21
491.9017968653
 31
0.0
  0
ARC
  5
319
330
1F
100
AcDbEntity
  8
0
  6
CONTINUOUS
 62
     7
100
AcDbCircle
 10
1172.4272155132
 20
475.277527306
 30
0.0
 40
2.342400662587165
100
AcDbArc
 50
318.404588163
 51
7.4969374719
  0
LWPOLYLINE
  5
31A
330
1F
100
AcDbEntity
  8
0
  6
CONTINUOUS
 62
     7
100
AcDbPolyline
 90
        3
 70
   128
 43
0.0
 10
1173.1788317488
 20
473.7366247876
 10
1173.7444798277
 20
473.7321712031
 10
1174.1789827869
 20
473.7224873109
  0
LINE
  5
31B
330
1F
100
AcDbEntity
  8
0
  6
CONTINUOUS
 62
     7
100
AcDbLine
 10
1173.1788317488
 20
473.7366247876
 30
0.0
 11
1173.1788317488
 21
475.6227448537
 31
0.0
  0
LINE
  5
31C
330
1F
100
AcDbEntity
  8
0
  6
CONTINUOUS
 62
     7
100
AcDbLine
 10
1173.1788317488
 20
473.7366247876
 30
0.0
 11
897.3315159605
 21
473.7366247876
 31
0.0
  0
LINE
  5
31D
330
1F
100
AcDbEntity
  8
0
  6
CONTINUOUS
 62
     7
100
AcDbLine
 10
897.3315159605
 20
473.7366247876
 30
0.0
 11
897.3315159605
 21
475.622742991
 31
0.0
  0
LWPOLYLINE
  5
31E
330
1F
100
AcDbEntity
  8
0
  6
CONTINUOUS
 62
     7
100
AcDbPolyline
 90
        3
 70
   128
 43
0.0
 10
897.3315159605
 20
473.7366247876
 10
896.7658678816
 20
473.7321712031
 10
896.3313649223
 20
473.7224873109
  0
ARC
  5
31F
330
1F
100
AcDbEntity
  8
0
  6
CONTINUOUS
 62
     7
100
AcDbCircle
 10
898.1915804081
 20
475.3107859798
 30
0.0
 40
2.446036450023242
100
AcDbArc
 50
173.6069589837
 51
220.4915314591
  0
LINE
  5
320
330
1F
100
AcDbEntity
  8
0
  6
CONTINUOUS
 62
     7
100
AcDbLine
 10
1177.2004912422
 20
473.8580916031
 30
0.0
 11
1176.7189006136
 21
473.7224873109
 31
0.0
  0
LINE
  5
321
330
1F
100
AcDbEntity
  8
0
  6
CONTINUOUS
 62
     7
100
AcDbLine
 10
1176.7189006136
 20
473.7224873109
 30
0.0
 11
1176.5084664152
 21
473.7099153875
 31
0.0
  0
LINE
  5
322
330
1F
100
AcDbEntity
  8
0
  6
CONTINUOUS
 62
     7
100
AcDbLine
 10
893.7914470957
 20
473.7224873109
 30
0.0
 11
893.9406375216
 21
473.7135643093
 31
0.0
  0
LINE
  5
323
330
1F
100
AcDbEntity
  8
0
  6
CONTINUOUS
 62
     7
100
AcDbLine
 10
893.4875081108
 20
473.8080702676
 30
0.0
 11
893.7914470957
 21
473.7224873109
 31
0.0
  0
LWPOLYLINE
  5
324
330
1F
100
AcDbEntity
  8
0
  6
CONTINUOUS
 62
     7
100
AcDbPolyline
 90
        7
 70
   128
 43
0.0
 10
1173.3092765139
 20
473.6387437163
 10
1174.3276218699
 20
473.6387418537
 10
1174.8175869511
 20
473.6387530296
 10
1175.2134661005
 20
473.6387409224
 10
1175.5142013357
 20
473.6387511669
 10
1175.718987994
 20
473.638742785
 10
1175.8491794394
 20
473.6387437163
  0
LINE
  5
325
330
1F
100
AcDbEntity
  8
0
  6
CONTINUOUS
 62
     7
100
AcDbLine
 10
1174.1789827869
 20
473.7224873109
 30
0.0
 11
1173.3092765139
 21
473.6387437163
 31
0.0
  0
LINE
  5
326
330
1F
100
AcDbEntity
  8
0
  6
CONTINUOUS
 62
     7
100
AcDbLine
 10
1175.8491794394
 20
473.6387437163
 30
0.0
 11
1176.7189006136
 21
473.7224873109
 31
0.0
  0
LINE
  5
327
330
1F
100
AcDbEntity
  8
0
  6
CONTINUOUS
 62
     7
100
AcDbLine
 10
896.3313649223
 20
473.7224873109
 30
0.0
 11
897.2010711954
 21
473.6387437163
 31
0.0
  0
LINE
  5
328
330
1F
100
AcDbEntity
  8
0
  6
CONTINUOUS
 62
     7
100
AcDbLine
 10
897.2010711954
 20
473.6387437163
 30
0.0
 11
894.6611682699
 21
473.6387437163
 31
0.0
  0
LINE
  5
329
330
1F
100
AcDbEntity
  8
0
  6
CONTINUOUS
 62
     7
100
AcDbLine
 10
894.6611682699
 20
473.6387437163
 30
0.0
 11
893.7914470957
 21
473.7224873109
 31
0.0
  0
LINE
  5
32A
330
1F
100
AcDbEntity
  8
0
  6
CONTINUOUS
 62
     7
100
AcDbLine
 10
1173.3092765139
 20
473.6387437163
 30
0.0
 11
1158.7900842355
 21
473.6387437163
 31
0.0
  0
LINE
  5
32B
330
1F
100
AcDbEntity
  8
0
  6
CONTINUOUS
 62
     7
100
AcDbLine
 10
1158.7339143084
 20
472.5669180928
 30
0.0
 11
1158.7900842355
 21
473.6387437163
 31
0.0
  0
LINE
  5
32C
330
1F
100
AcDbEntity
  8
0
  6
CONTINUOUS
 62
     7
100
AcDbLine
 10
911.7764334009
 20
472.5669180928
 30
0.0
 11
1158.7339143084
 21
472.5669180928
 31
0.0
  0
LINE
  5
32D
330
1F
100
AcDbEntity
  8
0
  6
CONTINUOUS
 62
     7
100
AcDbLine
 10
911.7764334009
 20
472.5669180928
 30
0.0
 11
911.7202634738
 21
473.6387437163
 31
0.0
  0
LINE
  5
32E
330
1F
100
AcDbEntity
  8
0
  6
CONTINUOUS
 62
     7
100
AcDbLine
 10
897.2010711954
 20
473.6387437163
 30
0.0
 11
911.7202634738
 21
473.6387437163
 31
0.0
  0
LINE
  5
32F
330
1F
100
AcDbEntity
  8
0
  6
CONTINUOUS
 62
     7
100
AcDbLine
 10
1159.0335021542
 20
472.8498361959
 30
0.0
 11
1159.0748454259
 21
473.6387437163
 31
0.0
  0
ARC
  5
330
330
1F
100
AcDbEntity
  8
0
  6
CONTINUOUS
 62
     7
100
AcDbCircle
 10
1158.7347224955
 20
472.8661412293
 30
0.0
 40
0.2992242279128331
100
AcDbArc
 50
269.84524727
 51
356.8763473918
  0
ARC
  5
331
330
1F
100
AcDbEntity
  8
0
  6
CONTINUOUS
 62
     7
100
AcDbCircle
 10
911.7756252138
 20
472.8661412293
 30
0.0
 40
0.2992242279125999
100
AcDbArc
 50
183.1236526082
 51
270.1547527301
  0
LINE
  5
332
330
1F
100
AcDbEntity
  8
0
  6
CONTINUOUS
 62
     7
100
AcDbLine
 10
911.4768455551
 20
472.8498361959
 30
0.0
 11
911.4355022834
 21
473.6387437163
 31
0.0
  0
ARC
  5
333
330
1F
100
AcDbEntity
  8
0
  6
CONTINUOUS
 62
     7
100
AcDbCircle
 10
1176.7431190419
 20
475.6111345267
 30
0.0
 40
1.878514888688304
100
AcDbArc
 50
273.7421128085
 51
350.4769907133
  0
LWPOLYLINE
  5
334
330
1F
100
AcDbEntity
  8
0
  6
CONTINUOUS
 62
     7
100
AcDbPolyline
 90
        3
 70
   128
 43
0.0
 10
1176.7189006136
 20
473.7224873109
 10
1176.8371562288
 20
473.7338736607
 10
1176.8657217548
 20
473.7366247876
  0
LWPOLYLINE
  5
335
330
1F
100
AcDbEntity
  8
0
  6
CONTINUOUS
 62
     7
100
AcDbPolyline
 90
        3
 70
   128
 43
0.0
 10
893.7914470957
 20
473.7224873109
 10
893.6731914805
 20
473.7338736607
 10
893.6446259544
 20
473.7366247876
  0
ARC
  5
336
330
1F
100
AcDbEntity
  8
0
  6
CONTINUOUS
 62
     7
100
AcDbCircle
 10
893.76827833
 20
475.6127507415
 30
0.0
 40
1.88019640062968
100
AcDbArc
 50
189.3871420178
 51
266.2291831391
  0
LWPOLYLINE
  5
337
330
1F
100
AcDbEntity
  8
0
  6
CONTINUOUS
 62
     7
100
AcDbPolyline
 90
        3
 70
   128
 43
0.0
 10
911.7764334009
 20
472.5669180928
 10
911.7842341588
 20
472.4389487831
 10
911.8011469768
 20
472.1569117113
  0
ARC
  5
338
330
1F
100
AcDbEntity
  8
0
  6
CONTINUOUS
 62
     7
100
AcDbCircle
 10
911.7684610424
 20
472.4260728882
 30
0.0
 40
0.2711385429791616
100
AcDbArc
 50
190.1419035675
 51
276.9238846554
  0
LWPOLYLINE
  5
339
330
1F
100
AcDbEntity
  8
0
  6
CONTINUOUS
 62
     7
100
AcDbPolyline
 90
        3
 70
   128
 43
0.0
 10
911.501559131
 20
472.3783289968
 10
911.483349912
 20
472.725723493
 10
911.4768455551
 20
472.8498361959
  0
ARC
  5
33A
330
1F
100
AcDbEntity
  8
0
  6
CONTINUOUS
 62
     7
100
AcDbCircle
 10
1158.7418794682
 20
472.4260826285
 30
0.0
 40
0.2711473444881188
100
AcDbArc
 50
263.0778735238
 51
349.8563382534
  0
LWPOLYLINE
  5
33B
330
1F
100
AcDbEntity
  8
0
  6
CONTINUOUS
 62
     7
100
AcDbPolyline
 90
        3
 70
   128
 43
0.0
 10
1158.7339143084
 20
472.5669180928
 10
1158.7261135505
 20
472.4388845219
 10
1158.7092007325
 20
472.1569117113
  0
LWPOLYLINE
  5
33C
330
1F
100
AcDbEntity
  8
0
  6
CONTINUOUS
 62
     7
100
AcDbPolyline
 90
        3
 70
   128
 43
0.0
 10
1159.0087885783
 20
472.3783289968
 10
1159.0269977973
 20
472.7257216303
 10
1159.0335021542
 20
472.8498361959
  0
ARC
  5
33D
330
1F
100
AcDbEntity
  8
0
  6
CONTINUOUS
 62
     7
100
AcDbCircle
 10
1162.1870572002
 20
472.9211270499
 30
0.0
 40
3.56083005682183
100
AcDbArc
 50
192.3930696231
 51
218.9650631907
  0
LINE
  5
33E
330
1F
100
AcDbEntity
  8
0
  6
CONTINUOUS
 62
     7
100
AcDbLine
 10
1159.4167153166
 20
470.6807980268
 30
0.0
 11
911.0936323927
 21
470.6807980268
 31
0.0
  0
ARC
  5
33F
330
1F
100
AcDbEntity
  8
0
  6
CONTINUOUS
 62
     7
100
AcDbCircle
 10
908.3916491462
 20
472.8882590145
 30
0.0
 40
3.487053818741156
100
AcDbArc
 50
320.748523349
 51
347.8933438372
  0
ARC
  5
340
330
1F
100
AcDbEntity
  8
0
  6
CONTINUOUS
 62
     7
100
AcDbCircle
 10
905.7692405594
 20
472.8658292523
 30
0.0
 40
5.753010751360687
100
AcDbArc
 50
337.6862197297
 51
355.1390246839
  0
LINE
  5
341
330
1F
100
AcDbEntity
  8
0
  6
CONTINUOUS
 62
     7
100
AcDbLine
 10
1159.0087885783
 20
472.3783289968
 30
0.0
 11
1159.0380097554
 21
472.0181465103
 31
0.0
  0
LINE
  5
342
330
1F
100
AcDbEntity
  8
0
  6
CONTINUOUS
 62
     7
100
AcDbLine
 10
1159.550013654
 20
473.1649147301
 30
0.0
 11
1159.550013654
 21
473.6387437163
 31
0.0
  0
ARC
  5
343
330
1F
100
AcDbEntity
  8
0
  6
CONTINUOUS
 62
     7
100
AcDbCircle
 10
1155.8012529904
 20
469.8834199321
 30
0.0
 40
4.981575573895428
100
AcDbArc
 50
41.2057660084
 51
48.9139069913
  0
LINE
  5
344
330
1F
100
AcDbEntity
  8
0
  6
CONTINUOUS
 62
     7
100
AcDbLine
 10
1159.549127035
 20
473.1649147301
 30
0.0
 11
1159.4178254531
 21
470.6807393535
 31
0.0
  0
LINE
  5
345
330
1F
100
AcDbEntity
  8
0
  6
CONTINUOUS
 62
     7
100
AcDbLine
 10
910.9603340552
 20
473.1649147301
 30
0.0
 11
910.9603340552
 21
473.6387437163
 31
0.0
  0
ARC
  5
346
330
1F
100
AcDbEntity
  8
0
  6
CONTINUOUS
 62
     7
100
AcDbCircle
 10
912.9771920264
 20
471.6361968092
 30
0.0
 40
2.530166264003491
100
AcDbArc
 50
127.5633741551
 51
142.8234408041
  0
LINE
  5
347
330
1F
100
AcDbEntity
  8
0
  6
CONTINUOUS
 62
     7
100
AcDbLine
 10
910.9612206743
 20
473.1649147301
 30
0.0
 11
911.0914121197
 21
470.6806816115
 31
0.0
  0
LWPOLYLINE
  5
348
330
1F
100
AcDbEntity
  8
0
  6
CONTINUOUS
 62
     7
100
AcDbPolyline
 90
        5
 70
   128
 43
0.0
 10
910.9612206743
 20
473.1649147301
 10
908.8580260799
 20
473.1685217424
 10
907.0764134453
 20
473.1681669085
 10
905.8861384914
 20
473.1685217424
 10
905.4678628967
 20
473.1649156614
  0
ARC
  5
349
330
1F
100
AcDbEntity
  8
0
  6
CONTINUOUS
 62
     7
100
AcDbCircle
 10
904.9685579701
 20
473.1387538672
 30
0.0
 40
0.4999898491241879
100
AcDbArc
 50
2.9993513445
 51
90.000364713
  0
ARC
  5
34A
330
1F
100
AcDbEntity
  8
0
  6
CONTINUOUS
 62
     7
100
AcDbCircle
 10
1165.5417897392
 20
473.1387538672
 30
0.0
 40
0.4999898491238469
100
AcDbArc
 50
89.999635287
 51
177.0006486555
  0
ARC
  5
34B
330
1F
100
AcDbEntity
  8
0
  6
CONTINUOUS
 62
     7
100
AcDbCircle
 10
1162.2958592337
 20
158.7188242775
 30
0.0
 40
314.4580867757785
100
AcDbArc
 50
89.4995452137
 51
90.5004742137
  0
LINE
  5
34C
330
1F
100
AcDbEntity
  8
0
  6
CONTINUOUS
 62
     7
100
AcDbLine
 10
906.6870312021
 20
449.9017946376
 30
0.0
 11
912.1826167033
 21
449.9017946376
 31
0.0
  0
LINE
  5
34D
330
1F
100
AcDbEntity
  8
0
  6
CONTINUOUS
 62
     7
100
AcDbLine
 10
906.6870312021
 20
449.9017983629
 30
0.0
 11
905.5879066513
 21
470.8743529348
 31
0.0
  0
LINE
  5
34E
330
1F
100
AcDbEntity
  8
0
  6
CONTINUOUS
 62
     7
100
AcDbLine
 10
905.5879215525
 20
470.8742942615
 30
0.0
 11
905.4678628967
 21
473.1649156614
 31
0.0
  0
LINE
  5
34F
330
1F
100
AcDbEntity
  8
0
  6
CONTINUOUS
 62
     7
100
AcDbLine
 10
911.0936323927
 20
470.6807980268
 30
0.0
 11
912.1826167033
 21
449.9017946376
 31
0.0
  0
LINE
  5
350
330
1F
100
AcDbEntity
  8
0
  6
CONTINUOUS
 62
     7
100
AcDbLine
 10
1164.9224261568
 20
470.8742365195
 30
0.0
 11
1165.0424848126
 21
473.1649156614
 31
0.0
  0
LINE
  5
351
330
1F
100
AcDbEntity
  8
0
  6
CONTINUOUS
 62
     7
100
AcDbLine
 10
1163.8233165072
 20
449.9017983629
 30
0.0
 11
1164.922441058
 21
470.8743529348
 31
0.0
  0
LINE
  5
352
330
1F
100
AcDbEntity
  8
0
  6
CONTINUOUS
 62
     7
100
AcDbLine
 10
1163.8233165072
 20
449.9017946376
 30
0.0
 11
1158.327731006
 21
449.9017946376
 31
0.0
  0
LINE
  5
353
330
1F
100
AcDbEntity
  8
0
  6
CONTINUOUS
 62
     7
100
AcDbLine
 10
1159.4167153166
 20
470.6807980268
 30
0.0
 11
1158.327731006
 21
449.9017946376
 31
0.0
  0
LINE
  5
354
330
1F
100
AcDbEntity
  8
0
  6
CONTINUOUS
 62
     7
100
AcDbLine
 10
912.1826167033
 20
449.9017946376
 30
0.0
 11
1158.327731006
 21
449.9017946376
 31
0.0
  0
ARC
  5
355
330
1F
100
AcDbEntity
  8
0
  6
CONTINUOUS
 62
     7
100
AcDbCircle
 10
902.5461043656
 20
470.7709406068
 30
0.0
 40
3.043555001927218
100
AcDbArc
 50
1.9610347042
 51
36.279415147
  0
LINE
  5
356
330
1F
100
AcDbEntity
  8
0
  6
CONTINUOUS
 62
     7
100
AcDbLine
 10
904.9437890575
 20
473.637449178
 30
0.0
 11
904.9996386097
 21
472.5718839048
 31
0.0
  0
ARC
  5
357
330
1F
100
AcDbEntity
  8
0
  6
CONTINUOUS
 62
     7
100
AcDbCircle
 10
1167.8806968144
 20
470.7999042593
 30
0.0
 40
2.959181243591187
100
AcDbArc
 50
143.2154679155
 51
178.5441016985
  0
LINE
  5
358
330
1F
100
AcDbEntity
  8
0
  6
CONTINUOUS
 62
     7
100
AcDbLine
 10
1165.5666182564
 20
473.6387437163
 30
0.0
 11
1165.5107090996
 21
472.5718839048
 31
0.0
  0
ARC
  5
359
330
1F
100
AcDbEntity
  8
0
  6
CONTINUOUS
 62
     7
100
AcDbCircle
 10
1167.3026985817
 20
473.8723652113
 30
0.0
 40
2.214153999283359
100
AcDbArc
 50
215.9691154252
 51
223.4206970702
  0
ARC
  5
35A
330
1F
100
AcDbEntity
  8
0
  6
CONTINUOUS
 62
     7
100
AcDbCircle
 10
1166.9196905243
 20
470.7696675088
 30
0.0
 40
2.000004398848484
100
AcDbArc
 50
127.7772963531
 51
176.9680389972
  0
ARC
  5
35B
330
1F
100
AcDbEntity
  8
0
  6
CONTINUOUS
 62
     7
100
AcDbCircle
 10
903.2041939447
 20
473.8751302591
 30
0.0
 40
2.21857500039861
100
AcDbArc
 50
316.5890348711
 51
324.0254818404
  0
ARC
  5
35C
330
1F
100
AcDbEntity
  8
0
  6
CONTINUOUS
 62
     7
100
AcDbCircle
 10
903.5906525606
 20
470.7696651552
 30
0.0
 40
2.000009091978423
100
AcDbArc
 50
3.0319946831
 51
52.2226402406
  0
LINE
  5
35D
330
1F
100
AcDbEntity
  8
0
  6
CONTINUOUS
 62
     7
100
AcDbLine
 10
1172.8822092341
 20
473.6387437163
 30
0.0
 11
1166.6992555187
 21
473.0433911039
 31
0.0
  0
LWPOLYLINE
  5
35E
330
1F
100
AcDbEntity
  8
0
  6
CONTINUOUS
 62
     7
100
AcDbPolyline
 90
        3
 70
   128
 43
0.0
 10
1166.6992555187
 20
473.0433911039
 10
1165.9996609018
 20
472.8618912353
 10
1165.5107090996
 20
472.5718839048
  0
LWPOLYLINE
  5
35F
330
1F
100
AcDbEntity
  8
0
  6
CONTINUOUS
 62
     7
100
AcDbPolyline
 90
        3
 70
   128
 43
0.0
 10
903.8110921906
 20
473.0433911039
 10
904.5106868074
 20
472.8618912353
 10
904.9996386097
 20
472.5718839048
  0
LINE
  5
360
330
1F
100
AcDbEntity
  8
0
  6
CONTINUOUS
 62
     7
100
AcDbLine
 10
897.6281384752
 20
473.6387437163
 30
0.0
 11
903.8110921906
 21
473.0433911039
 31
0.0
  0
ARC
  5
361
330
1F
100
AcDbEntity
  8
0
  6
CONTINUOUS
 62
     7
100
AcDbCircle
 10
1182.9027890515
 20
474.5411002073
 30
0.0
 40
16.27260371014921
100
AcDbArc
 50
185.2809022341
 51
186.2791035576
  0
LINE
  5
362
330
1F
100
AcDbEntity
  8
0
  6
CONTINUOUS
 62
     7
100
AcDbLine
 10
1175.8491794394
 20
473.6387437163
 30
0.0
 11
1166.7279998587
 21
472.7604730009
 31
0.0
  0
ARC
  5
363
330
1F
100
AcDbEntity
  8
0
  6
CONTINUOUS
 62
     7
100
AcDbCircle
 10
889.9449362122
 20
474.3092664659
 30
0.0
 40
13.9238185153636
100
AcDbArc
 50
353.6135803176
 51
354.7837869847
  0
LINE
  5
364
330
1F
100
AcDbEntity
  8
0
  6
CONTINUOUS
 62
     7
100
AcDbLine
 10
894.6612725781
 20
473.6387325405
 30
0.0
 11
903.7823478506
 21
472.7604730009
 31
0.0
  0
LWPOLYLINE
  5
365
330
1F
100
AcDbEntity
  8
0
  6
CONTINUOUS
 62
     7
100
AcDbPolyline
 90
        3
 70
   128
 43
0.0
 10
1165.6945000218
 20
472.3504666193
 10
1166.1917517708
 20
472.6325027599
 10
1166.7279998587
 20
472.7604730009
  0
LWPOLYLINE
  5
366
330
1F
100
AcDbEntity
  8
0
  6
CONTINUOUS
 62
     7
100
AcDbPolyline
 90
        3
 70
   128
 43
0.0
 10
904.8158476875
 20
472.3504666193
 10
904.3187598513
 20
472.6324384986
 10
903.7823478506
 20
472.7604730009
  0
LINE
  5
367
330
1F
100
AcDbEntity
  8
0
  6
CONTINUOUS
 62
     7
100
AcDbLine
 10
895.5182234572
 20
473.5562173604
 30
0.0
 11
895.2144632862
 21
471.5236393689
 31
0.0
  0
LINE
  5
368
330
1F
100
AcDbEntity
  8
0
  6
CONTINUOUS
 62
     7
100
AcDbLine
 10
892.0378486441
 20
471.8295108481
 30
0.0
 11
895.2144632862
 21
471.5236393689
 31
0.0
  0
LINE
  5
369
330
1F
100
AcDbEntity
  8
0
  6
CONTINUOUS
 62
     7
100
AcDbLine
 10
892.0378486441
 20
471.8295108481
 30
0.0
 11
891.8390671537
 21
475.6227448537
 31
0.0
  0
LINE
  5
36A
330
1F
100
AcDbEntity
  8
0
  6
CONTINUOUS
 62
     7
100
AcDbLine
 10
1178.4724990652
 20
471.8295108481
 30
0.0
 11
1175.2958844231
 21
471.5236393689
 31
0.0
  0
LINE
  5
36B
330
1F
100
AcDbEntity
  8
0
  6
CONTINUOUS
 62
     7
100
AcDbLine
 10
1174.9921242521
 20
473.5562173604
 30
0.0
 11
1175.2958844231
 21
471.5236393689
 31
0.0
  0
LINE
  5
36C
330
1F
100
AcDbEntity
  8
0
  6
CONTINUOUS
 62
     7
100
AcDbLine
 10
1178.4724990652
 20
471.8295108481
 30
0.0
 11
1178.6712805555
 21
475.6227448537
 31
0.0
  0
LINE
  5
36D
330
1F
100
AcDbEntity
  8
0
  6
CONTINUOUS
 62
     7
100
AcDbLine
 10
892.0880059527
 20
470.872635576
 30
0.0
 11
895.0741986559
 21
470.585098113
 31
0.0
  0
LWPOLYLINE
  5
36E
330
1F
100
AcDbEntity
  8
0
  6
CONTINUOUS
 62
     7
100
AcDbPolyline
 90
        5
 70
   128
 43
0.0
 10
895.2144632862
 20
471.5236393689
 10
895.160267763
 20
471.1610475509
 10
895.114878826
 20
470.8573060064
 10
895.0847337769
 20
470.6556849136
 10
895.0741986559
 20
470.585098113
  0
LWPOLYLINE
  5
36F
330
1F
100
AcDbEntity
  8
0
  6
CONTINUOUS
 62
     7
100
AcDbPolyline
 90
        5
 70
   128
 43
0.0
 10
892.0880059527
 20
470.872635576
 10
892.0842061565
 20
470.9451958491
 10
892.0733730124
 20
471.1517929985
 10
892.0571456478
 20
471.4613133995
 10
892.0378486441
 20
471.8295108481
  0
LINE
  5
370
330
1F
100
AcDbEntity
  8
0
  6
CONTINUOUS
 62
     7
100
AcDbLine
 10
1178.4223417566
 20
470.872635576
 30
0.0
 11
1175.4361490534
 21
470.585098113
 31
0.0
  0
LWPOLYLINE
  5
371
330
1F
100
AcDbEntity
  8
0
  6
CONTINUOUS
 62
     7
100
AcDbPolyline
 90
        9
 70
   128
 43
0.0
 10
1175.2958844231
 20
471.5236393689
 10
1175.3236303852
 20
471.337975557
 10
1175.3501097487
 20
471.1608417286
 10
1175.3743539379
 20
470.9986006795
 10
1175.3955135868
 20
470.857079695
 10
1175.4127989338
 20
470.7413619338
 10
1175.4256139324
 20
470.6556029572
 10
1175.4334966467
 20
470.6028835802
 10
1175.4361490534
 20
470.585098113
  0
LWPOLYLINE
  5
372
330
1F
100
AcDbEntity
  8
0
  6
CONTINUOUS
 62
     7
100
AcDbPolyline
 90
        9
 70
   128
 43
0.0
 10
1178.4223417566
 20
470.872635576
 10
1178.423295431
 20
470.8907684265
 10
1178.4261117504
 20
470.9445178463
 10
1178.4307013081
 20
471.0319513409
 10
1178.4368703888
 20
471.1499303533
 10
1178.4444401787
 20
471.2942155032
 10
1178.4531126545
 20
471.459625843
 10
1178.4625748919
 20
471.6402204661
 10
1178.4724990652
 20
471.8295108481
  0
LINE
  5
373
330
1F
100
AcDbEntity
  8
0
  6
CONTINUOUS
 62
     8
100
AcDbLine
 10
891.8674091623
 20
475.6178991823
 30
0.0
 11
892.0706908033
 21
475.5831478118
 31
0.0
  0
LINE
  5
374
330
1F
100
AcDbEntity
  8
0
  6
CONTINUOUS
 62
     8
100
AcDbLine
 10
1178.6155651138
 20
475.6132192864
 30
0.0
 11
1178.4396569059
 21
475.5831478118
 31
0.0
  0
ARC
  5
375
330
1F
100
AcDbEntity
  8
0
  6
CONTINUOUS
 62
     8
100
AcDbCircle
 10
1176.6327003406
 20
475.573550037
 30
0.0
 40
1.806982054828864
100
AcDbArc
 50
288.3137657489
 51
0.3043276335
  0
ARC
  5
376
330
1F
100
AcDbEntity
  8
0
  6
CONTINUOUS
 62
     8
100
AcDbCircle
 10
1175.4748697634
 20
498.0164216067
 30
0.0
 40
24.32847234459216
100
AcDbArc
 50
266.9466224875
 51
272.4349476157
  0
ARC
  5
377
330
1F
100
AcDbEntity
  8
0
  6
CONTINUOUS
 62
     8
100
AcDbCircle
 10
895.04647677
 20
497.7041876597
 30
0.0
 40
24.01609646011076
100
AcDbArc
 50
267.3608395246
 51
273.0668528651
  0
ARC
  5
378
330
1F
100
AcDbEntity
  8
0
  6
CONTINUOUS
 62
     8
100
AcDbCircle
 10
893.9070726672
 20
475.5959257452
 30
0.0
 40
1.836426319129195
100
AcDbArc
 50
180.3986697176
 51
256.7931096732
  0
LWPOLYLINE
  5
379
330
1F
100
AcDbEntity
  8
0
  6
CONTINUOUS
 62
     8
100
AcDbPolyline
 90
        3
 70
   128
 43
0.0
 10
1159.0380097554
 20
472.0181465103
 10
1159.1471756623
 20
471.5629076539
 10
1159.4188983367
 20
470.6815347029
  0
ARC
  5
37A
330
1F
100
AcDbEntity
  8
0
  6
CONTINUOUS
 62
     7
100
AcDbCircle
 10
216.330059541
 20
657.2254447202
 30
0.0
 40
5.490573973945365
100
AcDbArc
 50
179.9804321644
 51
270.0197232804
  0
LINE
  5
37B
330
1F
100
AcDbEntity
  8
0
  6
CONTINUOUS
 62
     7
100
AcDbLine
 10
210.8394858872
 20
937.0809320628
 30
0.0
 11
210.8394858872
 21
657.2273198783
 31
0.0
  0
ARC
  5
37C
330
1F
100
AcDbEntity
  8
0
  6
CONTINUOUS
 62
     7
100
AcDbCircle
 10
216.330059541
 20
937.0828072209
 30
0.0
 40
5.490573973945422
100
AcDbArc
 50
89.9802767196
 51
180.0195678356
  0
LINE
  5
37D
330
1F
100
AcDbEntity
  8
0
  6
CONTINUOUS
 62
     7
100
AcDbLine
 10
493.8855377471
 20
942.5733808696
 30
0.0
 11
216.3319495952
 21
942.5733808696
 31
0.0
  0
ARC
  5
37E
330
1F
100
AcDbEntity
  8
0
  6
CONTINUOUS
 62
     7
100
AcDbCircle
 10
493.8874209444
 20
937.082800364
 30
0.0
 40
5.490580828480718
100
AcDbArc
 50
359.9805037425
 51
90.0196517023
  0
LINE
  5
37F
330
1F
100
AcDbEntity
  8
0
  6
CONTINUOUS
 62
     7
100
AcDbLine
 10
499.378001455
 20
937.0809320628
 30
0.0
 11
499.378001455
 21
657.2273198783
 31
0.0
  0
ARC
  5
380
330
1F
100
AcDbEntity
  8
0
  6
CONTINUOUS
 62
     7
100
AcDbCircle
 10
493.8874391433
 20
657.2254333781
 30
0.0
 40
5.490562635772473
100
AcDbArc
 50
269.9801583209
 51
0.0196862343
  0
LINE
  5
381
330
1F
100
AcDbEntity
  8
0
  6
CONTINUOUS
 62
     7
100
AcDbLine
 10
216.3319495952
 20
651.7348710715
 30
0.0
 11
493.8855377471
 21
651.7348710715
 31
0.0
  0
ARC
  5
382
330
1F
100
AcDbEntity
  8
0
  6
CONTINUOUS
 62
     7
100
AcDbCircle
 10
216.398794086
 20
937.0140726708
 30
0.0
 40
3.555192976168336
100
AcDbArc
 50
90.0535189471
 51
179.9464810529
  0
LINE
  5
383
330
1F
100
AcDbEntity
  8
0
  6
CONTINUOUS
 62
     7
100
AcDbLine
 10
212.8436026608
 20
657.2908584296
 30
0.0
 11
212.8436026608
 21
937.0173935115
 31
0.0
  0
ARC
  5
384
330
1F
100
AcDbEntity
  8
0
  6
CONTINUOUS
 62
     7
100
AcDbCircle
 10
216.398817591
 20
657.2942027753
 30
0.0
 40
3.555216503164545
100
AcDbArc
 50
180.0538973987
 51
269.9461026013
  0
LINE
  5
385
330
1F
100
AcDbEntity
  8
0
  6
CONTINUOUS
 62
     7
100
AcDbLine
 10
493.8220140969
 20
653.7389878451
 30
0.0
 11
216.3954732453
 21
653.7389878451
 31
0.0
  0
ARC
  5
386
330
1F
100
AcDbEntity
  8
0
  6
CONTINUOUS
 62
     7
100
AcDbCircle
 10
493.8186697512
 20
657.2942027753
 30
0.0
 40
3.555216503164602
100
AcDbArc
 50
270.0538973987
 51
359.9461026013
  0
LINE
  5
387
330
1F
100
AcDbEntity
  8
0
  6
CONTINUOUS
 62
     7
100
AcDbLine
 10
497.3738846814
 20
657.2908584296
 30
0.0
 11
497.3738846814
 21
937.0173935115
 31
0.0
  0
ARC
  5
388
330
1F
100
AcDbEntity
  8
0
  6
CONTINUOUS
 62
     7
100
AcDbCircle
 10
493.8186932562
 20
937.0140726708
 30
0.0
 40
3.555192976168336
100
AcDbArc
 50
0.0535189471
 51
89.9464810529
  0
LINE
  5
389
330
1F
100
AcDbEntity
  8
0
  6
CONTINUOUS
 62
     7
100
AcDbLine
 10
216.3954732453
 20
940.569264096
 30
0.0
 11
493.8220140969
 21
940.569264096
 31
0.0
  0
LINE
  5
38A
330
1F
100
AcDbEntity
  8
0
  6
CONTINUOUS
 62
     7
100
AcDbLine
 10
497.3738846814
 20
657.2908584296
 30
0.0
 11
496.3185844457
 21
657.2908584296
 31
0.0
  0
LINE
  5
38B
330
1F
100
AcDbEntity
  8
0
  6
CONTINUOUS
 62
     7
100
AcDbLine
 10
496.3185844457
 20
937.0173935115
 30
0.0
 11
496.3185844457
 21
657.2908584296
 31
0.0
  0
LINE
  5
38C
330
1F
100
AcDbEntity
  8
0
  6
CONTINUOUS
 62
     7
100
AcDbLine
 10
496.3185844457
 20
937.0173935115
 30
0.0
 11
497.3738846814
 21
937.0173935115
 31
0.0
  0
LINE
  5
38D
330
1F
100
AcDbEntity
  8
0
  6
CONTINUOUS
 62
     7
100
AcDbLine
 10
216.3954732453
 20
654.7942880809
 30
0.0
 11
216.3954732453
 21
653.7389878451
 31
0.0
  0
LINE
  5
38E
330
1F
100
AcDbEntity
  8
0
  6
CONTINUOUS
 62
     7
100
AcDbLine
 10
216.3954732453
 20
654.7942880809
 30
0.0
 11
493.8220140969
 21
654.7942880809
 31
0.0
  0
LINE
  5
38F
330
1F
100
AcDbEntity
  8
0
  6
CONTINUOUS
 62
     7
100
AcDbLine
 10
493.8220140969
 20
654.7942880809
 30
0.0
 11
493.8220140969
 21
653.7389878451
 31
0.0
  0
ARC
  5
390
330
1F
100
AcDbEntity
  8
0
  6
CONTINUOUS
 62
     7
100
AcDbCircle
 10
493.826600644
 20
937.0219800585
 30
0.0
 40
2.491988022512146
100
AcDbArc
 50
359.8945460676
 51
90.1054539323
  0
LINE
  5
391
330
1F
100
AcDbEntity
  8
0
  6
CONTINUOUS
 62
     7
100
AcDbLine
 10
493.8220140969
 20
940.569264096
 30
0.0
 11
493.8220140969
 21
939.5139638602
 31
0.0
  0
ARC
  5
392
330
1F
100
AcDbEntity
  8
0
  6
CONTINUOUS
 62
     7
100
AcDbCircle
 10
493.8266291835
 20
657.2862433431
 30
0.0
 40
2.49195953573877
100
AcDbArc
 50
269.8938886732
 51
0.1061113268
  0
LINE
  5
393
330
1F
100
AcDbEntity
  8
0
  6
CONTINUOUS
 62
     7
100
AcDbLine
 10
216.3954732453
 20
940.569264096
 30
0.0
 11
216.3954732453
 21
939.5139638602
 31
0.0
  0
LINE
  5
394
330
1F
100
AcDbEntity
  8
0
  6
CONTINUOUS
 62
     7
100
AcDbLine
 10
493.8220140969
 20
939.5139638602
 30
0.0
 11
216.3954732453
 21
939.5139638602
 31
0.0
  0
LINE
  5
395
330
1F
100
AcDbEntity
  8
0
  6
CONTINUOUS
 62
     7
100
AcDbLine
 10
213.8989028966
 20
937.0173935115
 30
0.0
 11
213.8989028966
 21
657.2908584296
 31
0.0
  0
LINE
  5
396
330
1F
100
AcDbEntity
  8
0
  6
CONTINUOUS
 62
     7
100
AcDbLine
 10
212.8436026608
 20
657.2908584296
 30
0.0
 11
213.8989028966
 21
657.2908584296
 31
0.0
  0
LINE
  5
397
330
1F
100
AcDbEntity
  8
0
  6
CONTINUOUS
 62
     7
100
AcDbLine
 10
213.8989028966
 20
937.0173935115
 30
0.0
 11
212.8436026608
 21
937.0173935115
 31
0.0
  0
ARC
  5
398
330
1F
100
AcDbEntity
  8
0
  6
CONTINUOUS
 62
     7
100
AcDbCircle
 10
216.3908867033
 20
657.2862718875
 30
0.0
 40
2.491988027468044
100
AcDbArc
 50
179.894546182
 51
270.105453818
  0
ARC
  5
399
330
1F
100
AcDbEntity
  8
0
  6
CONTINUOUS
 62
     7
100
AcDbCircle
 10
216.3908849599
 20
937.0219817969
 30
0.0
 40
2.491986287343068
100
AcDbArc
 50
89.8945060255
 51
180.1054939745
  0
LINE
  5
39A
330
1F
100
AcDbEntity
  8
0
  6
CONTINUOUS
 62
     7
100
AcDbLine
 10
493.8220140969
 20
654.7942880809
 30
0.0
 11
493.1106326615
 21
655.5056695163
 31
0.0
  0
ARC
  5
39B
330
1F
100
AcDbEntity
  8
0
  6
CONTINUOUS
 62
     7
100
AcDbCircle
 10
493.1096248296
 20
658.003247697
 30
0.0
 40
2.497593291264431
100
AcDbArc
 50
270.0234619037
 51
359.9765380963
  0
LINE
  5
39C
330
1F
100
AcDbEntity
  8
0
  6
CONTINUOUS
 62
     7
100
AcDbLine
 10
495.6072179114
 20
658.0022249638
 30
0.0
 11
496.3185844457
 21
657.2908584296
 31
0.0
  0
ARC
  5
39D
330
1F
100
AcDbEntity
  8
0
  6
CONTINUOUS
 62
     7
100
AcDbCircle
 10
217.1080929154
 20
936.3047738414
 30
0.0
 40
2.497823798941831
100
AcDbArc
 50
90.0287447813
 51
179.9712552187
  0
LINE
  5
39E
330
1F
100
AcDbEntity
  8
0
  6
CONTINUOUS
 62
     7
100
AcDbLine
 10
213.8989028966
 20
937.0173935115
 30
0.0
 11
214.610284332
 21
936.3060120761
 31
0.0
  0
LINE
  5
39F
330
1F
100
AcDbEntity
  8
0
  6
CONTINUOUS
 62
     7
100
AcDbLine
 10
217.1068546807
 20
938.8025824248
 30
0.0
 11
216.3954732453
 21
939.5139638602
 31
0.0
  0
LINE
  5
3A0
330
1F
100
AcDbEntity
  8
0
  6
CONTINUOUS
 62
     7
100
AcDbLine
 10
496.3185844457
 20
937.0173935115
 30
0.0
 11
495.6072179114
 21
936.3060269772
 31
0.0
  0
ARC
  5
3A1
330
1F
100
AcDbEntity
  8
0
  6
CONTINUOUS
 62
     7
100
AcDbCircle
 10
493.1096249709
 20
936.3050043854
 30
0.0
 40
2.497593149916417
100
AcDbArc
 50
0.0234586638
 51
89.9765413362
  0
LINE
  5
3A2
330
1F
100
AcDbEntity
  8
0
  6
CONTINUOUS
 62
     7
100
AcDbLine
 10
493.1106475627
 20
938.802597326
 30
0.0
 11
493.8220140969
 21
939.5139638602
 31
0.0
  0
ARC
  5
3A3
330
1F
100
AcDbEntity
  8
0
  6
CONTINUOUS
 62
     7
100
AcDbCircle
 10
217.1080851795
 20
658.0034703638
 30
0.0
 40
2.497816059125486
100
AcDbArc
 50
180.0285674205
 51
269.9714325795
  0
LINE
  5
3A4
330
1F
100
AcDbEntity
  8
0
  6
CONTINUOUS
 62
     7
100
AcDbLine
 10
216.3954732453
 20
654.7942880809
 30
0.0
 11
217.1068546807
 21
655.5056695163
 31
0.0
  0
LINE
  5
3A5
330
1F
100
AcDbEntity
  8
0
  6
CONTINUOUS
 62
     7
100
AcDbLine
 10
214.610284332
 20
658.002239865
 30
0.0
 11
213.8989028966
 21
657.2908584296
 31
0.0
  0
LINE
  5
3A6
330
1F
100
AcDbEntity
  8
0
  6
CONTINUOUS
 62
     7
100
AcDbLine
 10
217.2948924338
 20
655.5056695163
 30
0.0
 11
217.1068546807
 21
655.5056695163
 31
0.0
  0
LINE
  5
3A7
330
1F
100
AcDbEntity
  8
0
  6
CONTINUOUS
 62
     7
100
AcDbLine
 10
492.9225949084
 20
655.5056695163
 30
0.0
 11
217.2948924338
 21
655.5056695163
 31
0.0
  0
LINE
  5
3A8
330
1F
100
AcDbEntity
  8
0
  6
CONTINUOUS
 62
     7
100
AcDbLine
 10
492.9225949084
 20
655.5056695163
 30
0.0
 11
493.1106326615
 21
655.5056695163
 31
0.0
  0
LINE
  5
3A9
330
1F
100
AcDbEntity
  8
0
  6
CONTINUOUS
 62
     7
100
AcDbLine
 10
495.6072030103
 20
658.0022249638
 30
0.0
 11
495.6072030103
 21
658.1902776181
 31
0.0
  0
LINE
  5
3AA
330
1F
100
AcDbEntity
  8
0
  6
CONTINUOUS
 62
     7
100
AcDbLine
 10
495.6072030103
 20
658.1902776181
 30
0.0
 11
495.6072030103
 21
936.117974323
 31
0.0
  0
LINE
  5
3AB
330
1F
100
AcDbEntity
  8
0
  6
CONTINUOUS
 62
     7
100
AcDbLine
 10
495.6072030103
 20
936.117974323
 30
0.0
 11
495.6072030103
 21
936.3060269772
 31
0.0
  0
LINE
  5
3AC
330
1F
100
AcDbEntity
  8
0
  6
CONTINUOUS
 62
     7
100
AcDbLine
 10
217.1068546807
 20
938.8025824248
 30
0.0
 11
217.2948924338
 21
938.8025824248
 31
0.0
  0
LINE
  5
3AD
330
1F
100
AcDbEntity
  8
0
  6
CONTINUOUS
 62
     7
100
AcDbLine
 10
493.1106475627
 20
938.8025824248
 30
0.0
 11
492.9225949084
 21
938.8025824248
 31
0.0
  0
LINE
  5
3AE
330
1F
100
AcDbEntity
  8
0
  6
CONTINUOUS
 62
     7
100
AcDbLine
 10
217.2948924338
 20
938.8025824248
 30
0.0
 11
492.9225949084
 21
938.8025824248
 31
0.0
  0
LINE
  5
3AF
330
1F
100
AcDbEntity
  8
0
  6
CONTINUOUS
 62
     7
100
AcDbLine
 10
214.610284332
 20
936.117974323
 30
0.0
 11
214.610284332
 21
936.3060120761
 31
0.0
  0
LINE
  5
3B0
330
1F
100
AcDbEntity
  8
0
  6
CONTINUOUS
 62
     7
100
AcDbLine
 10
214.610284332
 20
658.1902776181
 30
0.0
 11
214.610284332
 21
936.117974323
 31
0.0
  0
LINE
  5
3B1
330
1F
100
AcDbEntity
  8
0
  6
CONTINUOUS
 62
     7
100
AcDbLine
 10
214.610284332
 20
658.002239865
 30
0.0
 11
214.610284332
 21
658.1902776181
 31
0.0
  0
LINE
  5
3B2
330
1F
100
AcDbEntity
  8
0
  6
CONTINUOUS
 62
     7
100
AcDbLine
 10
227.7604994809
 20
663.2600400865
 30
0.0
 11
355.1087436711
 21
659.9253092229
 31
0.0
  0
LWPOLYLINE
  5
3B3
330
1F
100
AcDbEntity
  8
0
  6
CONTINUOUS
 62
     7
100
AcDbPolyline
 90
        3
 70
   128
 43
0.0
 10
226.4730689561
 20
663.3888159215
 10
227.1917668616
 20
663.2933590829
 10
227.7604994809
 20
663.2600400865
  0
ARC
  5
3B4
330
1F
100
AcDbEntity
  8
0
  6
CONTINUOUS
 62
     7
100
AcDbCircle
 10
222.2583419775
 20
663.1547268426
 30
0.0
 40
4.221222713919656
100
AcDbArc
 50
243.4127542812
 51
3.1789841817
  0
ARC
  5
3B5
330
1F
100
AcDbEntity
  8
0
  6
CONTINUOUS
 62
     7
100
AcDbCircle
 10
220.4590326326
 20
659.5588358243
 30
0.0
 40
0.2002845235722312
100
AcDbArc
 50
180.0783782122
 51
243.3161390419
  0
LINE
  5
3B6
330
1F
100
AcDbEntity
  8
0
  6
CONTINUOUS
 62
     7
100
AcDbLine
 10
220.2587482964
 20
659.5585618436
 30
0.0
 11
220.2587482964
 21
660.5913166224
 31
0.0
  0
ARC
  5
3B7
330
1F
100
AcDbEntity
  8
0
  6
CONTINUOUS
 62
     7
100
AcDbCircle
 10
220.4587351745
 20
660.5912093218
 30
0.0
 40
0.199986906881393
100
AcDbArc
 50
54.9363972816
 51
179.9692586113
  0
ARC
  5
3B8
330
1F
100
AcDbEntity
  8
0
  6
CONTINUOUS
 62
     7
100
AcDbCircle
 10
222.2586693153
 20
663.1541413177
 30
0.0
 40
2.931846962079471
100
AcDbArc
 50
234.9186965098
 51
33.5711063482
  0
LINE
  5
3B9
330
1F
100
AcDbEntity
  8
0
  6
CONTINUOUS
 62
     7
100
AcDbLine
 10
224.7014848029
 20
664.7753689706
 30
0.0
 11
222.9467389619
 21
666.0040442168
 31
0.0
  0
ARC
  5
3BA
330
1F
100
AcDbEntity
  8
0
  6
CONTINUOUS
 62
     7
100
AcDbCircle
 10
222.2597964083
 20
663.148569228
 30
0.0
 40
2.936941859068313
100
AcDbArc
 50
76.4733730603
 51
125.0369565645
  0
ARC
  5
3BB
330
1F
100
AcDbEntity
  8
0
  6
CONTINUOUS
 62
     7
100
AcDbCircle
 10
220.4588458031
 20
665.7171487892
 30
0.0
 40
0.2000987970435835
100
AcDbArc
 50
179.7942297607
 51
305.0232766838
  0
LINE
  5
3BC
330
1F
100
AcDbEntity
  8
0
  6
CONTINUOUS
 62
     7
100
AcDbLine
 10
220.2587482964
 20
665.7178674161
 30
0.0
 11
220.2587482964
 21
666.749519509
 31
0.0
  0
ARC
  5
3BD
330
1F
100
AcDbEntity
  8
0
  6
CONTINUOUS
 62
     7
100
AcDbCircle
 10
220.459072341
 20
666.7493856054
 30
0.0
 40
0.2003240893036394
100
AcDbArc
 50
116.7385972313
 51
179.961701503
  0
LWPOLYLINE
  5
3BE
330
1F
100
AcDbEntity
  8
0
  6
CONTINUOUS
 62
     7
100
AcDbPolyline
 90
        3
 70
   128
 43
0.0
 10
220.3689423835
 20
666.9282887399
 10
220.5700484549
 20
667.0224491774
 10
220.731368426
 20
667.0889381587
  0
LWPOLYLINE
  5
3BF
330
1F
100
AcDbEntity
  8
0
  6
CONTINUOUS
 62
     7
100
AcDbPolyline
 90
        3
 70
   128
 43
0.0
 10
219.2025986945
 20
672.0449600636
 10
219.5935306584
 20
669.4517407834
 10
220.731368426
 20
667.0889381587
  0
LINE
  5
3C0
330
1F
100
AcDbEntity
  8
0
  6
CONTINUOUS
 62
     7
100
AcDbLine
 10
219.2025986945
 20
922.2632918775
 30
0.0
 11
219.2025986945
 21
672.0449600636
 31
0.0
  0
LWPOLYLINE
  5
3C1
330
1F
100
AcDbEntity
  8
0
  6
CONTINUOUS
 62
     7
100
AcDbPolyline
 90
        3
 70
   128
 43
0.0
 10
220.731368426
 20
927.2193137824
 10
219.5935306584
 20
924.8565111577
 10
219.2025986945
 20
922.2632918775
  0
LWPOLYLINE
  5
3C2
330
1F
100
AcDbEntity
  8
0
  6
CONTINUOUS
 62
     7
100
AcDbPolyline
 90
        3
 70
   128
 43
0.0
 10
220.731368426
 20
927.2193137824
 10
220.5266115701
 20
927.3050550639
 10
220.3690615928
 20
927.3799035966
  0
ARC
  5
3C3
330
1F
100
AcDbEntity
  8
0
  6
CONTINUOUS
 62
     7
100
AcDbCircle
 10
220.4590107996
 20
927.5588289614
 30
0.0
 40
0.2002626923999996
100
AcDbArc
 50
180.0787765809
 51
243.3104479075
  0
LINE
  5
3C4
330
1F
100
AcDbEntity
  8
0
  6
CONTINUOUS
 62
     7
100
AcDbLine
 10
220.2587482964
 20
927.5585536181
 30
0.0
 11
220.2587482964
 21
928.591308397
 31
0.0
  0
ARC
  5
3C5
330
1F
100
AcDbEntity
  8
0
  6
CONTINUOUS
 62
     7
100
AcDbCircle
 10
220.4587263407
 20
928.5912181002
 30
0.0
 40
0.1999780646045164
100
AcDbArc
 50
54.9315268513
 51
179.9741290416
  0
ARC
  5
3C6
330
1F
100
AcDbEntity
  8
0
  6
CONTINUOUS
 62
     7
100
AcDbCircle
 10
222.2597896951
 20
931.1602679075
 30
0.0
 40
2.937512394063937
100
AcDbArc
 50
234.9695859603
 51
283.5240845124
  0
LINE
  5
3C7
330
1F
100
AcDbEntity
  8
0
  6
CONTINUOUS
 62
     7
100
AcDbLine
 10
222.9467389619
 20
928.3042077243
 30
0.0
 11
224.7014848029
 21
929.5328829705
 31
0.0
  0
ARC
  5
3C8
330
1F
100
AcDbEntity
  8
0
  6
CONTINUOUS
 62
     7
100
AcDbCircle
 10
222.2587472775
 20
931.1541301174
 30
0.0
 40
2.931792784147714
100
AcDbArc
 50
326.4277337153
 51
125.0824855184
  0
ARC
  5
3C9
330
1F
100
AcDbEntity
  8
0
  6
CONTINUOUS
 62
     7
100
AcDbCircle
 10
220.4588399873
 20
933.7171443362
 30
0.0
 40
0.2000930215756077
100
AcDbArc
 50
179.7910371427
 51
305.0264693019
  0
LINE
  5
3CA
330
1F
100
AcDbEntity
  8
0
  6
CONTINUOUS
 62
     7
100
AcDbLine
 10
220.2587482964
 20
933.7178740918
 30
0.0
 11
220.2587482964
 21
934.7495261847
 31
0.0
  0
ARC
  5
3CB
330
1F
100
AcDbEntity
  8
0
  6
CONTINUOUS
 62
     7
100
AcDbCircle
 10
220.4591407538
 20
934.7493647969
 30
0.0
 40
0.2003925223702576
100
AcDbArc
 50
116.7315601003
 51
179.9538563516
  0
ARC
  5
3CC
330
1F
100
AcDbEntity
  8
0
  6
CONTINUOUS
 62
     7
100
AcDbCircle
 10
222.2583210043
 20
931.1535072371
 30
0.0
 40
4.221242664421148
100
AcDbArc
 50
356.8212736682
 51
116.5881488988
  0
LWPOLYLINE
  5
3CD
330
1F
100
AcDbEntity
  8
0
  6
CONTINUOUS
 62
     7
100
AcDbPolyline
 90
        3
 70
   128
 43
0.0
 10
227.7604994809
 20
931.0482118546
 10
227.0371375119
 20
930.9994254529
 10
226.4730689561
 20
930.9194360196
  0
LINE
  5
3CE
330
1F
100
AcDbEntity
  8
0
  6
CONTINUOUS
 62
     7
100
AcDbLine
 10
355.1087436711
 20
934.3829427182
 30
0.0
 11
227.7604994809
 21
931.0482118546
 31
0.0
  0
LINE
  5
3CF
330
1F
100
AcDbEntity
  8
0
  6
CONTINUOUS
 62
     7
100
AcDbLine
 10
355.1087436711
 20
934.3829427182
 30
0.0
 11
482.4569878613
 21
931.0482118546
 31
0.0
  0
LWPOLYLINE
  5
3D0
330
1F
100
AcDbEntity
  8
0
  6
CONTINUOUS
 62
     7
100
AcDbPolyline
 90
        3
 70
   128
 43
0.0
 10
482.4569878613
 20
931.0482118546
 10
483.1803498303
 20
930.9994254529
 10
483.7444183862
 20
930.9194360196
  0
ARC
  5
3D1
330
1F
100
AcDbEntity
  8
0
  6
CONTINUOUS
 62
     7
100
AcDbCircle
 10
487.9594119632
 20
931.1535000626
 30
0.0
 40
4.221487513982865
100
AcDbArc
 50
90.0089858799
 51
183.1784442493
  0
LWPOLYLINE
  5
3D2
330
1F
100
AcDbEntity
  8
0
  6
CONTINUOUS
 62
     7
100
AcDbPolyline
 90
        3
 70
   128
 43
0.0
 10
489.8484853541
 20
934.9283401191
 10
488.9296350514
 20
935.2617386996
 10
487.9587498939
 20
935.3749875247
  0
ARC
  5
3D3
330
1F
100
AcDbEntity
  8
0
  6
CONTINUOUS
 62
     7
100
AcDbCircle
 10
489.7585881394
 20
934.7495659244
 30
0.0
 40
0.2001509103896717
100
AcDbArc
 50
359.988624012
 51
63.3062452303
  0
LINE
  5
3D4
330
1F
100
AcDbEntity
  8
0
  6
CONTINUOUS
 62
     7
100
AcDbLine
 10
489.9587390458
 20
933.7178740918
 30
0.0
 11
489.9587390458
 21
934.7495261847
 31
0.0
  0
ARC
  5
3D5
330
1F
100
AcDbEntity
  8
0
  6
CONTINUOUS
 62
     7
100
AcDbCircle
 10
489.75864601
 20
933.7168605092
 30
0.0
 40
0.1998720884632782
100
AcDbArc
 50
234.9295997421
 51
0.2905571093
  0
LWPOLYLINE
  5
3D6
330
1F
100
AcDbEntity
  8
0
  6
CONTINUOUS
 62
     7
100
AcDbPolyline
 90
        3
 70
   128
 43
0.0
 10
487.9587498939
 20
934.0859178721
 10
488.842329148
 20
933.9494679391
 10
489.643803004
 20
933.5532907664
  0
ARC
  5
3D7
330
1F
100
AcDbEntity
  8
0
  6
CONTINUOUS
 62
     7
100
AcDbCircle
 10
487.9597414379
 20
931.1535896325
 30
0.0
 40
2.932328407306136
100
AcDbArc
 50
90.0193741222
 51
213.552647341
  0
LINE
  5
3D8
330
1F
100
AcDbEntity
  8
0
  6
CONTINUOUS
 62
     7
100
AcDbLine
 10
487.2707483804
 20
928.3042077243
 30
0.0
 11
485.5160025393
 21
929.5328829705
 31
0.0
  0
LWPOLYLINE
  5
3D9
330
1F
100
AcDbEntity
  8
0
  6
CONTINUOUS
 62
     7
100
AcDbPolyline
 90
        3
 70
   128
 43
0.0
 10
487.9587498939
 20
928.2223258435
 10
487.5709620749
 20
928.2480899512
 10
487.2707483804
 20
928.3042077243
  0
LWPOLYLINE
  5
3DA
330
1F
100
AcDbEntity
  8
0
  6
CONTINUOUS
 62
     7
100
AcDbPolyline
 90
        3
 70
   128
 43
0.0
 10
489.6438626086
 20
928.7548933446
 10
488.842329148
 20
928.3587906777
 10
487.9587498939
 20
928.2223258435
  0
ARC
  5
3DB
330
1F
100
AcDbEntity
  8
0
  6
CONTINUOUS
 62
     7
100
AcDbCircle
 10
489.7588497319
 20
928.5912647583
 30
0.0
 40
0.1999042198326994
100
AcDbArc
 50
0.0125075539
 51
125.098754083
  0
LINE
  5
3DC
330
1F
100
AcDbEntity
  8
0
  6
CONTINUOUS
 62
     7
100
AcDbLine
 10
489.9587390458
 20
927.5585536181
 30
0.0
 11
489.9587390458
 21
928.591308397
 31
0.0
  0
ARC
  5
3DD
330
1F
100
AcDbEntity
  8
0
  6
CONTINUOUS
 62
     7
100
AcDbCircle
 10
489.7586508984
 20
927.55871736
 30
0.0
 40
0.2001180167294841
100
AcDbArc
 50
296.6592820735
 51
359.953119068
  0
LWPOLYLINE
  5
3DE
330
1F
100
AcDbEntity
  8
0
  6
CONTINUOUS
 62
     7
100
AcDbPolyline
 90
        3
 70
   128
 43
0.0
 10
489.4861189162
 20
927.2193137824
 10
489.6908757722
 20
927.3050550639
 10
489.8484257495
 20
927.3799035966
  0
LWPOLYLINE
  5
3DF
330
1F
100
AcDbEntity
  8
0
  6
CONTINUOUS
 62
     7
100
AcDbPolyline
 90
        3
 70
   128
 43
0.0
 10
489.4861189162
 20
927.2193137824
 10
490.6242696082
 20
924.8566154658
 10
491.0148886477
 20
922.2632918775
  0
LINE
  5
3E0
330
1F
100
AcDbEntity
  8
0
  6
CONTINUOUS
 62
     7
100
AcDbLine
 10
491.0148886477
 20
922.2632918775
 30
0.0
 11
491.0148886477
 21
672.0449600636
 31
0.0
  0
LWPOLYLINE
  5
3E1
330
1F
100
AcDbEntity
  8
0
  6
CONTINUOUS
 62
     7
100
AcDbPolyline
 90
        3
 70
   128
 43
0.0
 10
491.0148886477
 20
672.0449600636
 10
490.6242696082
 20
669.4516364753
 10
489.4861189162
 20
667.0889381587
  0
LWPOLYLINE
  5
3E2
330
1F
100
AcDbEntity
  8
0
  6
CONTINUOUS
 62
     7
100
AcDbPolyline
 90
        3
 70
   128
 43
0.0
 10
489.8485449588
 20
666.9282887399
 10
489.6474388873
 20
667.0224491774
 10
489.4861189162
 20
667.0889381587
  0
ARC
  5
3E3
330
1F
100
AcDbEntity
  8
0
  6
CONTINUOUS
 62
     7
100
AcDbCircle
 10
489.7585769463
 20
666.749560031
 30
0.0
 40
0.2001621035987435
100
AcDbArc
 50
359.9884007117
 51
63.2803958796
  0
LINE
  5
3E4
330
1F
100
AcDbEntity
  8
0
  6
CONTINUOUS
 62
     7
100
AcDbLine
 10
489.9587390458
 20
665.7178674161
 30
0.0
 11
489.9587390458
 21
666.749519509
 31
0.0
  0
ARC
  5
3E5
330
1F
100
AcDbEntity
  8
0
  6
CONTINUOUS
 62
     7
100
AcDbCircle
 10
489.7586528728
 20
665.7168555206
 30
0.0
 40
0.1998652171663599
100
AcDbArc
 50
234.9258129671
 51
0.2900834462
  0
LWPOLYLINE
  5
3E6
330
1F
100
AcDbEntity
  8
0
  6
CONTINUOUS
 62
     7
100
AcDbPolyline
 90
        3
 70
   128
 43
0.0
 10
487.9587498939
 20
666.0859260976
 10
488.842329148
 20
665.9494761645
 10
489.643803004
 20
665.5532840907
  0
LWPOLYLINE
  5
3E7
330
1F
100
AcDbEntity
  8
0
  6
CONTINUOUS
 62
     7
100
AcDbPolyline
 90
        3
 70
   128
 43
0.0
 10
487.2707483804
 20
666.0040442168
 10
487.6537380254
 20
666.0700116574
 10
487.9587498939
 20
666.0859260976
  0
LINE
  5
3E8
330
1F
100
AcDbEntity
  8
0
  6
CONTINUOUS
 62
     7
100
AcDbLine
 10
485.5160025393
 20
664.7753689706
 30
0.0
 11
487.2707483804
 21
666.0040442168
 31
0.0
  0
ARC
  5
3E9
330
1F
100
AcDbEntity
  8
0
  6
CONTINUOUS
 62
     7
100
AcDbCircle
 10
487.9597419733
 20
663.1546625959
 30
0.0
 40
2.932328694766271
100
AcDbArc
 50
146.4473631197
 51
269.9806154172
  0
LWPOLYLINE
  5
3EA
330
1F
100
AcDbEntity
  8
0
  6
CONTINUOUS
 62
     7
100
AcDbPolyline
 90
        3
 70
   128
 43
0.0
 10
489.6438626086
 20
660.75490157
 10
488.842329148
 20
660.358784002
 10
487.9587498939
 20
660.222334069
  0
ARC
  5
3EB
330
1F
100
AcDbEntity
  8
0
  6
CONTINUOUS
 62
     7
100
AcDbCircle
 10
489.7588426362
 20
660.5912593207
 30
0.0
 40
0.1999113189599477
100
AcDbArc
 50
0.0164230199
 51
125.0948386169
  0
LINE
  5
3EC
330
1F
100
AcDbEntity
  8
0
  6
CONTINUOUS
 62
     7
100
AcDbLine
 10
489.9587390458
 20
659.5585618436
 30
0.0
 11
489.9587390458
 21
660.5913166224
 31
0.0
  0
ARC
  5
3ED
330
1F
100
AcDbEntity
  8
0
  6
CONTINUOUS
 62
     7
100
AcDbCircle
 10
489.7586027353
 20
659.5587404715
 30
0.0
 40
0.2001661925722686
100
AcDbArc
 50
296.6582395552
 51
359.9488693393
  0
LWPOLYLINE
  5
3EE
330
1F
100
AcDbEntity
  8
0
  6
CONTINUOUS
 62
     7
100
AcDbPolyline
 90
        3
 70
   128
 43
0.0
 10
487.9587498939
 20
658.9332644164
 10
488.929590348
 20
659.0464983403
 10
489.8483959472
 20
659.3798820197
  0
ARC
  5
3EF
330
1F
100
AcDbEntity
  8
0
  6
CONTINUOUS
 62
     7
100
AcDbCircle
 10
487.9594065948
 20
663.1547468007
 30
0.0
 40
4.221482435403876
100
AcDbArc
 50
176.8214828995
 51
269.9910869712
  0
LWPOLYLINE
  5
3F0
330
1F
100
AcDbEntity
  8
0
  6
CONTINUOUS
 62
     7
100
AcDbPolyline
 90
        3
 70
   128
 43
0.0
 10
483.7444183862
 20
663.3888159215
 10
483.0257204806
 20
663.2933590829
 10
482.4569878613
 20
663.2600400865
  0
LINE
  5
3F1
330
1F
100
AcDbEntity
  8
0
  6
CONTINUOUS
 62
     7
100
AcDbLine
 10
482.4569878613
 20
663.2600400865
 30
0.0
 11
355.1087436711
 21
659.9253092229
 31
0.0
  0
LINE
  5
3F2
330
1F
100
AcDbEntity
  8
0
  6
CONTINUOUS
 62
     7
100
AcDbLine
 10
241.6298223173
 20
923.4086547315
 30
0.0
 11
229.5613346135
 21
923.0926309049
 31
0.0
  0
ARC
  5
3F3
330
1F
100
AcDbEntity
  8
0
  6
CONTINUOUS
 62
     7
100
AcDbCircle
 10
229.5998875292
 20
921.5958400001
 30
0.0
 40
1.497287327106558
100
AcDbArc
 50
91.4754439381
 51
180.0245549595
  0
LINE
  5
3F4
330
1F
100
AcDbEntity
  8
0
  6
CONTINUOUS
 62
     7
100
AcDbLine
 10
228.1026003396
 20
921.5951983153
 30
0.0
 11
228.1026003396
 21
672.7130536258
 31
0.0
  0
ARC
  5
3F5
330
1F
100
AcDbEntity
  8
0
  6
CONTINUOUS
 62
     7
100
AcDbCircle
 10
229.5998929885
 20
672.7124172592
 30
0.0
 40
1.497292784111292
100
AcDbArc
 50
179.9756486372
 51
268.5243524652
  0
LINE
  5
3F6
330
1F
100
AcDbEntity
  8
0
  6
CONTINUOUS
 62
     7
100
AcDbLine
 10
229.5613346135
 20
671.2156210362
 30
0.0
 11
241.6298223173
 21
670.8995972096
 31
0.0
  0
LINE
  5
3F7
330
1F
100
AcDbEntity
  8
0
  6
CONTINUOUS
 62
     7
100
AcDbLine
 10
468.5876650249
 20
670.8995972096
 30
0.0
 11
241.6298223173
 21
670.8995972096
 31
0.0
  0
LINE
  5
3F8
330
1F
100
AcDbEntity
  8
0
  6
CONTINUOUS
 62
     7
100
AcDbLine
 10
480.6561527287
 20
671.2156210362
 30
0.0
 11
468.5876650249
 21
670.8995972096
 31
0.0
  0
ARC
  5
3F9
330
1F
100
AcDbEntity
  8
0
  6
CONTINUOUS
 62
     7
100
AcDbCircle
 10
480.6176174496
 20
672.7123947602
 30
0.0
 40
1.49726969800734
100
AcDbArc
 50
271.4747861948
 51
0.0252127028
  0
LINE
  5
3FA
330
1F
100
AcDbEntity
  8
0
  6
CONTINUOUS
 62
     7
100
AcDbLine
 10
482.1148870027
 20
921.5951983153
 30
0.0
 11
482.1148870027
 21
672.7130536258
 31
0.0
  0
ARC
  5
3FB
330
1F
100
AcDbEntity
  8
0
  6
CONTINUOUS
 62
     7
100
AcDbCircle
 10
480.6176174496
 20
921.5958571809
 30
0.0
 40
1.497269698007056
100
AcDbArc
 50
359.9747872972
 51
88.5252138052
  0
LINE
  5
3FC
330
1F
100
AcDbEntity
  8
0
  6
CONTINUOUS
 62
     7
100
AcDbLine
 10
468.5876650249
 20
923.4086547315
 30
0.0
 11
480.6561527287
 21
923.0926309049
 31
0.0
  0
LINE
  5
3FD
330
1F
100
AcDbEntity
  8
0
  6
CONTINUOUS
 62
     7
100
AcDbLine
 10
241.6298223173
 20
923.4086547315
 30
0.0
 11
468.5876650249
 21
923.4086547315
 31
0.0
  0
LWPOLYLINE
  5
3FE
330
1F
100
AcDbEntity
  8
0
  6
CONTINUOUS
 62
     7
100
AcDbPolyline
 90
        3
 70
   128
 43
0.0
 10
491.4059547221
 20
922.6442549645
 10
491.0622296369
 20
925.0879857957
 10
490.0586364305
 20
927.3406837403
  0
LINE
  5
3FF
330
1F
100
AcDbEntity
  8
0
  6
CONTINUOUS
 62
     7
100
AcDbLine
 10
491.4059547221
 20
922.6442549645
 30
0.0
 11
491.0148886477
 21
922.2632918775
 31
0.0
  0
LINE
  5
400
330
1F
100
AcDbEntity
  8
0
  6
CONTINUOUS
 62
     7
100
AcDbLine
 10
490.0586364305
 20
927.3406837403
 30
0.0
 11
489.4861189162
 21
927.2193137824
 31
0.0
  0
LINE
  5
401
330
1F
100
AcDbEntity
  8
0
  6
CONTINUOUS
 62
     7
100
AcDbLine
 10
491.0148886477
 20
672.0449600636
 30
0.0
 11
491.4059547221
 21
671.6639969766
 31
0.0
  0
LWPOLYLINE
  5
402
330
1F
100
AcDbEntity
  8
0
  6
CONTINUOUS
 62
     7
100
AcDbPolyline
 90
        3
 70
   128
 43
0.0
 10
490.0586364305
 20
666.9675682008
 10
491.0622296369
 20
669.2202661454
 10
491.4059547221
 20
671.6639969766
  0
LINE
  5
403
330
1F
100
AcDbEntity
  8
0
  6
CONTINUOUS
 62
     7
100
AcDbLine
 10
490.0586364305
 20
666.9675682008
 30
0.0
 11
489.4861189162
 21
667.0889381587
 31
0.0
  0
LWPOLYLINE
  5
404
330
1F
100
AcDbEntity
  8
0
  6
CONTINUOUS
 62
     7
100
AcDbPolyline
 90
        3
 70
   128
 43
0.0
 10
229.6566126382
 20
674.2268998444
 10
229.773258928
 20
673.649658662
 10
230.0824282205
 20
673.1824774563
  0
LWPOLYLINE
  5
405
330
1F
100
AcDbEntity
  8
0
  6
CONTINUOUS
 62
     7
100
AcDbPolyline
 90
        3
 70
   128
 43
0.0
 10
230.0824282205
 20
673.1824774563
 10
230.5413392817
 20
672.8611935198
 10
231.1153469121
 20
672.7294747054
  0
LINE
  5
406
330
1F
100
AcDbEntity
  8
0
  6
CONTINUOUS
 62
     7
100
AcDbLine
 10
229.5613346135
 20
671.2156210362
 30
0.0
 11
231.1153469121
 21
672.7294747054
 31
0.0
  0
LINE
  5
407
330
1F
100
AcDbEntity
  8
0
  6
CONTINUOUS
 62
     7
100
AcDbLine
 10
229.6566126382
 20
674.2268998444
 30
0.0
 11
228.1026003396
 21
672.7130536258
 31
0.0
  0
ARC
  5
408
330
1F
100
AcDbEntity
  8
0
  6
CONTINUOUS
 62
     7
100
AcDbCircle
 10
231.1576092521
 20
920.0783727548
 30
0.0
 40
1.500999570810337
100
AcDbArc
 50
91.6134406829
 51
179.8862732325
  0
LINE
  5
409
330
1F
100
AcDbEntity
  8
0
  6
CONTINUOUS
 62
     7
100
AcDbLine
 10
228.1026003396
 20
921.5951983153
 30
0.0
 11
229.6566126382
 21
920.0813520967
 31
0.0
  0
LINE
  5
40A
330
1F
100
AcDbEntity
  8
0
  6
CONTINUOUS
 62
     7
100
AcDbLine
 10
231.1153469121
 20
921.5787772357
 30
0.0
 11
229.5613346135
 21
923.0926309049
 31
0.0
  0
LINE
  5
40B
330
1F
100
AcDbEntity
  8
0
  6
CONTINUOUS
 62
     7
100
AcDbLine
 10
225.0001189744
 20
663.4510580718
 30
0.0
 11
224.7459945714
 21
664.3476162373
 31
0.0
  0
LWPOLYLINE
  5
40C
330
1F
100
AcDbEntity
  8
0
  6
CONTINUOUS
 62
     7
100
AcDbPolyline
 90
        3
 70
   128
 43
0.0
 10
224.7776446378
 20
664.3628005206
 10
224.683469299
 20
664.5417038619
 10
224.6005145347
 20
664.6773342311
  0
LINE
  5
40D
330
1F
100
AcDbEntity
  8
0
  6
CONTINUOUS
 62
     7
100
AcDbLine
 10
224.6005145347
 20
664.6773342311
 30
0.0
 11
224.7014848029
 21
664.7753689706
 31
0.0
  0
LINE
  5
40E
330
1F
100
AcDbEntity
  8
0
  6
CONTINUOUS
 62
     7
100
AcDbLine
 10
220.5759195125
 20
660.8283046901
 30
0.0
 11
220.5735800302
 21
660.7548270642
 31
0.0
  0
LWPOLYLINE
  5
40F
330
1F
100
AcDbEntity
  8
0
  6
CONTINUOUS
 62
     7
100
AcDbPolyline
 90
        3
 70
   128
 43
0.0
 10
220.4804030692
 20
660.8650807559
 10
220.5305603778
 20
660.8529065072
 10
220.5759195125
 20
660.8283046901
  0
ARC
  5
410
330
1F
100
AcDbEntity
  8
0
  6
CONTINUOUS
 62
     7
100
AcDbCircle
 10
222.2594457807
 20
663.1541279922
 30
0.0
 40
2.871134763030938
100
AcDbArc
 50
128.2183455019
 51
231.8017117389
  0
LWPOLYLINE
  5
411
330
1F
100
AcDbEntity
  8
0
  6
CONTINUOUS
 62
     7
100
AcDbPolyline
 90
        3
 70
   128
 43
0.0
 10
220.575785402
 20
665.4801342904
 10
220.5301282441
 20
665.4553834617
 10
220.47964311
 20
665.4432241141
  0
LINE
  5
412
330
1F
100
AcDbEntity
  8
0
  6
CONTINUOUS
 62
     7
100
AcDbLine
 10
220.5736843383
 20
665.5532840907
 30
0.0
 11
220.575785402
 21
665.4801342904
 31
0.0
  0
LINE
  5
413
330
1F
100
AcDbEntity
  8
0
  6
CONTINUOUS
 62
     7
100
AcDbLine
 10
222.889622811
 20
665.8766839921
 30
0.0
 11
222.9467389619
 21
666.0040442168
 31
0.0
  0
LWPOLYLINE
  5
414
330
1F
100
AcDbEntity
  8
0
  6
CONTINUOUS
 62
     7
100
AcDbPolyline
 90
        3
 70
   128
 43
0.0
 10
222.889622811
 20
665.8766839921
 10
222.7039543426
 20
665.9134451568
 10
222.5566563642
 20
665.9334723174
  0
LINE
  5
415
330
1F
100
AcDbEntity
  8
0
  6
CONTINUOUS
 62
     7
100
AcDbLine
 10
222.5525883471
 20
665.8955488622
 30
0.0
 11
222.2587374484
 21
665.9112546861
 31
0.0
  0
ARC
  5
416
330
1F
100
AcDbEntity
  8
0
  6
CONTINUOUS
 62
     7
100
AcDbCircle
 10
222.255946409
 20
663.1516463959
 30
0.0
 40
2.798293096490845
100
AcDbArc
 50
89.9428527319
 51
6.2269923137
  0
LWPOLYLINE
  5
417
330
1F
100
AcDbEntity
  8
0
  6
CONTINUOUS
 62
     7
100
AcDbPolyline
 90
        3
 70
   128
 43
0.0
 10
224.6005145347
 20
664.6773342311
 10
223.6415801084
 20
665.3490636765
 10
222.889622811
 20
665.8766839921
  0
LINE
  5
418
330
1F
100
AcDbEntity
  8
0
  6
CONTINUOUS
 62
     7
100
AcDbLine
 10
222.5566861665
 20
928.3745114028
 30
0.0
 11
222.2587374484
 21
928.3585969626
 31
0.0
  0
LWPOLYLINE
  5
419
330
1F
100
AcDbEntity
  8
0
  6
CONTINUOUS
 62
     7
100
AcDbPolyline
 90
        3
 70
   128
 43
0.0
 10
222.889622811
 20
928.431567949
 10
222.7039543426
 20
928.3948067843
 10
222.5566563642
 20
928.3747796237
  0
LINE
  5
41A
330
1F
100
AcDbEntity
  8
0
  6
CONTINUOUS
 62
     7
100
AcDbLine
 10
222.889622811
 20
928.431567949
 30
0.0
 11
222.9467389619
 21
928.3042077243
 31
0.0
  0
LINE
  5
41B
330
1F
100
AcDbEntity
  8
0
  6
CONTINUOUS
 62
     7
100
AcDbLine
 10
220.5759195125
 20
928.8282964646
 30
0.0
 11
220.5735800302
 21
928.7548188388
 31
0.0
  0
LWPOLYLINE
  5
41C
330
1F
100
AcDbEntity
  8
0
  6
CONTINUOUS
 62
     7
100
AcDbPolyline
 90
        3
 70
   128
 43
0.0
 10
220.4802391564
 20
928.8651023328
 10
220.5304709708
 20
928.8529280841
 10
220.5759195125
 20
928.8282964646
  0
ARC
  5
41D
330
1F
100
AcDbEntity
  8
0
  6
CONTINUOUS
 62
     7
100
AcDbCircle
 10
222.2594488791
 20
931.1541180514
 30
0.0
 40
2.87113802762881
100
AcDbArc
 50
128.218372903
 51
231.7967651372
  0
LWPOLYLINE
  5
41E
330
1F
100
AcDbEntity
  8
0
  6
CONTINUOUS
 62
     7
100
AcDbPolyline
 90
        3
 70
   128
 43
0.0
 10
220.575785402
 20
933.4801409661
 10
220.5301282441
 20
933.4553901374
 10
220.47964311
 20
933.4432307898
  0
LINE
  5
41F
330
1F
100
AcDbEntity
  8
0
  6
CONTINUOUS
 62
     7
100
AcDbLine
 10
220.5736843383
 20
933.5532758653
 30
0.0
 11
220.575785402
 21
933.4801409661
 31
0.0
  0
LINE
  5
420
330
1F
100
AcDbEntity
  8
0
  6
CONTINUOUS
 62
     7
100
AcDbLine
 10
224.6005145347
 20
929.63091771
 30
0.0
 11
224.7014848029
 21
929.5328829705
 31
0.0
  0
LINE
  5
421
330
1F
100
AcDbEntity
  8
0
  6
CONTINUOUS
 62
     7
100
AcDbLine
 10
224.7540560996
 20
929.8975739896
 30
0.0
 11
224.6005145347
 21
929.63091771
 31
0.0
  0
LINE
  5
422
330
1F
100
AcDbEntity
  8
0
  6
CONTINUOUS
 62
     7
100
AcDbLine
 10
224.7224060332
 20
929.9135033309
 30
0.0
 11
224.946191672
 21
930.532512468
 31
0.0
  0
ARC
  5
423
330
1F
100
AcDbEntity
  8
0
  6
CONTINUOUS
 62
     7
100
AcDbCircle
 10
222.2556562603
 20
931.1565668792
 30
0.0
 40
2.798254735022387
100
AcDbArc
 50
346.941893406
 51
270.0630890051
  0
LWPOLYLINE
  5
424
330
1F
100
AcDbEntity
  8
0
  6
CONTINUOUS
 62
     7
100
AcDbPolyline
 90
        3
 70
   128
 43
0.0
 10
224.6005145347
 20
929.63091771
 10
223.6415801084
 20
928.9591882646
 10
222.889622811
 20
928.431567949
  0
ARC
  5
425
330
1F
100
AcDbEntity
  8
0
  6
CONTINUOUS
 62
     7
100
AcDbCircle
 10
487.9579146271
 20
931.1599281326
 30
0.0
 40
2.79471063426
100
AcDbArc
 50
89.9828757716
 51
193.1432048106
  0
LINE
  5
426
330
1F
100
AcDbEntity
  8
0
  6
CONTINUOUS
 62
     7
100
AcDbLine
 10
485.4500947034
 20
929.9234275042
 30
0.0
 11
485.2363524472
 21
930.5244360387
 31
0.0
  0
LINE
  5
427
330
1F
100
AcDbEntity
  8
0
  6
CONTINUOUS
 62
     7
100
AcDbLine
 10
485.4634461438
 20
929.8976186931
 30
0.0
 11
485.6169728076
 21
929.63091771
 31
0.0
  0
LWPOLYLINE
  5
428
330
1F
100
AcDbEntity
  8
0
  6
CONTINUOUS
 62
     7
100
AcDbPolyline
 90
        3
 70
   128
 43
0.0
 10
485.6169728076
 20
929.63091771
 10
485.5603632962
 20
929.5760665357
 10
485.5160025393
 20
929.5328829705
  0
LINE
  5
429
330
1F
100
AcDbEntity
  8
0
  6
CONTINUOUS
 62
     7
100
AcDbLine
 10
489.643803004
 20
933.5532758653
 30
0.0
 11
489.6417019402
 21
933.4801409661
 31
0.0
  0
LWPOLYLINE
  5
42A
330
1F
100
AcDbEntity
  8
0
  6
CONTINUOUS
 62
     7
100
AcDbPolyline
 90
        3
 70
   128
 43
0.0
 10
489.6417019402
 20
933.4801409661
 10
489.6873590981
 20
933.4553901374
 10
489.7378442323
 20
933.4432307898
  0
ARC
  5
42B
330
1F
100
AcDbEntity
  8
0
  6
CONTINUOUS
 62
     7
100
AcDbCircle
 10
487.9580384631
 20
931.1541180514
 30
0.0
 40
2.871138027628862
100
AcDbArc
 50
308.2032348628
 51
51.781627097
  0
LWPOLYLINE
  5
42C
330
1F
100
AcDbEntity
  8
0
  6
CONTINUOUS
 62
     7
100
AcDbPolyline
 90
        3
 70
   128
 43
0.0
 10
489.7372481858
 20
928.8651023328
 10
489.6870163714
 20
928.8529280841
 10
489.6415678298
 20
928.8282964646
  0
LINE
  5
42D
330
1F
100
AcDbEntity
  8
0
  6
CONTINUOUS
 62
     7
100
AcDbLine
 10
489.6415678298
 20
928.8282964646
 30
0.0
 11
489.6439073121
 21
928.7548188388
 31
0.0
  0
LWPOLYLINE
  5
42E
330
1F
100
AcDbEntity
  8
0
  6
CONTINUOUS
 62
     7
100
AcDbPolyline
 90
        3
 70
   128
 43
0.0
 10
487.3278645312
 20
928.431567949
 10
487.295946244
 20
928.3601913869
 10
487.2707483804
 20
928.3042077243
  0
LINE
  5
42F
330
1F
100
AcDbEntity
  8
0
  6
CONTINUOUS
 62
     7
100
AcDbLine
 10
487.3278645312
 20
928.431567949
 30
0.0
 11
487.6604882514
 21
928.3748243272
 31
0.0
  0
LINE
  5
430
330
1F
100
AcDbEntity
  8
0
  6
CONTINUOUS
 62
     7
100
AcDbLine
 10
487.6649138963
 20
928.4127030789
 30
0.0
 11
487.9586157834
 21
928.396997255
 31
0.0
  0
ARC
  5
431
330
1F
100
AcDbEntity
  8
0
  6
CONTINUOUS
 62
     7
100
AcDbCircle
 10
487.9612328097
 20
931.156476336
 30
0.0
 40
2.798163407611151
100
AcDbArc
 50
269.9537360798
 51
90.0508407113
  0
LWPOLYLINE
  5
432
330
1F
100
AcDbEntity
  8
0
  6
CONTINUOUS
 62
     7
100
AcDbPolyline
 90
        3
 70
   128
 43
0.0
 10
485.6169728076
 20
929.63091771
 10
486.5759072339
 20
928.9591882646
 10
487.3278645312
 20
928.431567949
  0
LWPOLYLINE
  5
433
330
1F
100
AcDbEntity
  8
0
  6
CONTINUOUS
 62
     7
100
AcDbPolyline
 90
        3
 70
   128
 43
0.0
 10
485.6169728076
 20
664.6773342311
 10
485.5603632962
 20
664.7321854054
 10
485.5160025393
 20
664.7753689706
  0
LINE
  5
434
330
1F
100
AcDbEntity
  8
0
  6
CONTINUOUS
 62
     7
100
AcDbLine
 10
485.4357746875
 20
664.3543068587
 30
0.0
 11
485.6169728076
 21
664.6773342311
 31
0.0
  0
LINE
  5
435
330
1F
100
AcDbEntity
  8
0
  6
CONTINUOUS
 62
     7
100
AcDbLine
 10
485.1797429358
 20
663.45514099
 30
0.0
 11
485.4358044898
 21
664.3543217599
 31
0.0
  0
ARC
  5
436
330
1F
100
AcDbEntity
  8
0
  6
CONTINUOUS
 62
     7
100
AcDbCircle
 10
487.9584586822
 20
663.1491284226
 30
0.0
 40
2.795515138663895
100
AcDbArc
 50
173.7154929222
 51
270.0059685594
  0
ARC
  5
437
330
1F
100
AcDbEntity
  8
0
  6
CONTINUOUS
 62
     7
100
AcDbCircle
 10
487.9611263321
 20
663.1517756998
 30
0.0
 40
2.798163409859587
100
AcDbArc
 50
269.9513395478
 51
90.0486604522
  0
LINE
  5
438
330
1F
100
AcDbEntity
  8
0
  6
CONTINUOUS
 62
     7
100
AcDbLine
 10
487.6608011758
 20
665.9337405383
 30
0.0
 11
487.9587498939
 21
665.9496549785
 31
0.0
  0
LWPOLYLINE
  5
439
330
1F
100
AcDbEntity
  8
0
  6
CONTINUOUS
 62
     7
100
AcDbPolyline
 90
        3
 70
   128
 43
0.0
 10
487.3278645312
 20
665.8766839921
 10
487.5135329997
 20
665.9134451568
 10
487.6608309781
 20
665.9334723174
  0
LWPOLYLINE
  5
43A
330
1F
100
AcDbEntity
  8
0
  6
CONTINUOUS
 62
     7
100
AcDbPolyline
 90
        3
 70
   128
 43
0.0
 10
487.3278645312
 20
665.8766839921
 10
487.295946244
 20
665.9480605542
 10
487.2707483804
 20
666.0040442168
  0
LINE
  5
43B
330
1F
100
AcDbEntity
  8
0
  6
CONTINUOUS
 62
     7
100
AcDbLine
 10
489.643803004
 20
665.5532840907
 30
0.0
 11
489.6417019402
 21
665.4801342904
 31
0.0
  0
LWPOLYLINE
  5
43C
330
1F
100
AcDbEntity
  8
0
  6
CONTINUOUS
 62
     7
100
AcDbPolyline
 90
        3
 70
   128
 43
0.0
 10
489.6417019402
 20
665.4801342904
 10
489.6877614295
 20
665.45523445
 10
489.7387234008
 20
665.4431496083
  0
ARC
  5
43D
330
1F
100
AcDbEntity
  8
0
  6
CONTINUOUS
 62
     7
100
AcDbCircle
 10
487.9112854949
 20
663.1544698649
 30
0.0
 40
2.922487720450472
100
AcDbArc
 50
308.6497343653
 51
51.3251986731
  0
LWPOLYLINE
  5
43E
330
1F
100
AcDbEntity
  8
0
  6
CONTINUOUS
 62
     7
100
AcDbPolyline
 90
        3
 70
   128
 43
0.0
 10
489.7250292336
 20
660.8633820235
 10
489.6812794244
 20
660.8506266295
 10
489.6415678298
 20
660.8283046901
  0
LINE
  5
43F
330
1F
100
AcDbEntity
  8
0
  6
CONTINUOUS
 62
     7
100
AcDbLine
 10
489.6415678298
 20
660.8283046901
 30
0.0
 11
489.6439073121
 21
660.7548270642
 31
0.0
  0
LWPOLYLINE
  5
440
330
1F
100
AcDbEntity
  8
0
  6
CONTINUOUS
 62
     7
100
AcDbPolyline
 90
        3
 70
   128
 43
0.0
 10
485.6169728076
 20
664.6773342311
 10
486.5759072339
 20
665.3490636765
 10
487.3278645312
 20
665.8766839921
  0
LINE
  5
441
330
1F
100
AcDbEntity
  8
0
  6
CONTINUOUS
 62
     7
100
AcDbLine
 10
483.7444183862
 20
930.9194360196
 30
0.0
 11
483.6088476216
 21
931.3938144862
 31
0.0
  0
ARC
  5
442
330
1F
100
AcDbEntity
  8
0
  6
CONTINUOUS
 62
     7
100
AcDbCircle
 10
487.9611316171
 20
931.1442882281
 30
0.0
 40
4.359431078768051
100
AcDbArc
 50
90.031302868
 51
176.7186957849
  0
LWPOLYLINE
  5
443
330
1F
100
AcDbEntity
  8
0
  6
CONTINUOUS
 62
     7
100
AcDbPolyline
 90
        3
 70
   128
 43
0.0
 10
487.9587498939
 20
935.5037186562
 10
488.8527301585
 20
935.410973829
 10
489.7083846366
 20
935.1369712769
  0
LWPOLYLINE
  5
444
330
1F
100
AcDbEntity
  8
0
  6
CONTINUOUS
 62
     7
100
AcDbPolyline
 90
        3
 70
   128
 43
0.0
 10
491.9415918624
 20
932.9037640511
 10
491.0352138316
 20
934.2305932462
 10
489.7083846366
 20
935.1369712769
  0
ARC
  5
445
330
1F
100
AcDbEntity
  8
0
  6
CONTINUOUS
 62
     7
100
AcDbCircle
 10
487.9506005588
 20
931.1544035253
 30
0.0
 40
4.357553652509866
100
AcDbArc
 50
298.9316492417
 51
23.6691522339
  0
LINE
  5
446
330
1F
100
AcDbEntity
  8
0
  6
CONTINUOUS
 62
     7
100
AcDbLine
 10
489.8482767379
 20
927.3797843873
 30
0.0
 11
489.8467717206
 21
927.301270169
 31
0.0
  0
ARC
  5
447
330
1F
100
AcDbEntity
  8
0
  6
CONTINUOUS
 62
     7
100
AcDbCircle
 10
487.9587401166
 20
931.1541293084
 30
0.0
 40
4.290526198323478
100
AcDbArc
 50
296.1064132961
 51
63.8935867039
  0
LINE
  5
448
330
1F
100
AcDbEntity
  8
0
  6
CONTINUOUS
 62
     7
100
AcDbLine
 10
489.8467568194
 20
935.0069586455
 30
0.0
 11
489.848291639
 21
934.9284891307
 31
0.0
  0
LINE
  5
449
330
1F
100
AcDbEntity
  8
0
  6
CONTINUOUS
 62
     7
100
AcDbLine
 10
482.4569878613
 20
931.0482118546
 30
0.0
 11
482.863983277
 21
931.4447019517
 31
0.0
  0
LWPOLYLINE
  5
44A
330
1F
100
AcDbEntity
  8
0
  6
CONTINUOUS
 62
     7
100
AcDbPolyline
 90
        3
 70
   128
 43
0.0
 10
483.6088476216
 20
931.3938144862
 10
483.192240957
 20
931.4300541102
 10
482.863983277
 20
931.4447019517
  0
LINE
  5
44B
330
1F
100
AcDbEntity
  8
0
  6
CONTINUOUS
 62
     7
100
AcDbLine
 10
489.8482767379
 20
659.3797926127
 30
0.0
 11
489.8467717206
 21
659.3012634932
 31
0.0
  0
ARC
  5
44C
330
1F
100
AcDbEntity
  8
0
  6
CONTINUOUS
 62
     7
100
AcDbCircle
 10
487.9587401166
 20
663.1541226327
 30
0.0
 40
4.290526198323782
100
AcDbArc
 50
296.1064132961
 51
63.8935867039
  0
LINE
  5
44D
330
1F
100
AcDbEntity
  8
0
  6
CONTINUOUS
 62
     7
100
AcDbLine
 10
489.8467568194
 20
667.006966871
 30
0.0
 11
489.848291639
 21
666.928482455
 31
0.0
  0
ARC
  5
44E
330
1F
100
AcDbEntity
  8
0
  6
CONTINUOUS
 62
     7
100
AcDbCircle
 10
487.9507278658
 20
663.1538915058
 30
0.0
 40
4.357454354387571
100
AcDbArc
 50
336.3296568266
 51
61.0695416978
  0
LWPOLYLINE
  5
44F
330
1F
100
AcDbEntity
  8
0
  6
CONTINUOUS
 62
     7
100
AcDbPolyline
 90
        3
 70
   128
 43
0.0
 10
491.9415918624
 20
661.40448789
 10
491.0347816979
 20
660.0780759274
 10
489.7083846366
 20
659.1712806642
  0
LWPOLYLINE
  5
450
330
1F
100
AcDbEntity
  8
0
  6
CONTINUOUS
 62
     7
100
AcDbPolyline
 90
        3
 70
   128
 43
0.0
 10
487.9587498939
 20
658.8045332848
 10
488.8527301585
 20
658.8972781121
 10
489.7083846366
 20
659.1712806642
  0
ARC
  5
451
330
1F
100
AcDbEntity
  8
0
  6
CONTINUOUS
 62
     7
100
AcDbCircle
 10
487.9592530095
 20
663.161975404
 30
0.0
 40
4.357442148216481
100
AcDbArc
 50
183.2566167885
 51
269.9933845586
  0
LINE
  5
452
330
1F
100
AcDbEntity
  8
0
  6
CONTINUOUS
 62
     7
100
AcDbLine
 10
483.7444183862
 20
663.3888159215
 30
0.0
 11
483.6088476216
 21
662.9144374549
 31
0.0
  0
LINE
  5
453
330
1F
100
AcDbEntity
  8
0
  6
CONTINUOUS
 62
     7
100
AcDbLine
 10
482.863983277
 20
662.8635499894
 30
0.0
 11
482.4569878613
 21
663.2600400865
 31
0.0
  0
LWPOLYLINE
  5
454
330
1F
100
AcDbEntity
  8
0
  6
CONTINUOUS
 62
     7
100
AcDbPolyline
 90
        3
 70
   128
 43
0.0
 10
482.863983277
 20
662.8635499894
 10
483.2816479241
 20
662.884307307
 10
483.6088476216
 20
662.9144374549
  0
ELLIPSE
  5
455
330
1F
100
AcDbEntity
  8
0
  6
CONTINUOUS
 62
     7
100
AcDbEllipse
 10
220.4587536307
 20
660.666284116
 30
0.0
 11
0.0003008267176483059
 21
0.1999585849999903
 31
0.0
210
0.0
220
0.0
230
0.9999999999999998
 40
0.9997700789
 41
6.169324627339492
 42
7.855518134263079
  0
ARC
  5
456
330
1F
100
AcDbEntity
  8
0
  6
CONTINUOUS
 62
     7
100
AcDbCircle
 10
220.4585816833
 20
933.6420404139
 30
0.0
 40
0.1999228071123772
100
AcDbArc
 50
180.0208743795
 51
276.3650864241
  0
LINE
  5
457
330
1F
100
AcDbEntity
  8
0
  6
CONTINUOUS
 62
     7
100
AcDbLine
 10
226.4730689561
 20
663.3888159215
 30
0.0
 11
226.6086397206
 21
662.9144374549
 31
0.0
  0
ARC
  5
458
330
1F
100
AcDbEntity
  8
0
  6
CONTINUOUS
 62
     7
100
AcDbCircle
 10
222.258093047
 20
663.1624989829
 30
0.0
 40
4.357612979775642
100
AcDbArc
 50
246.3365039654
 51
356.7366156194
  0
LWPOLYLINE
  5
459
330
1F
100
AcDbEntity
  8
0
  6
CONTINUOUS
 62
     7
100
AcDbPolyline
 90
        3
 70
   128
 43
0.0
 10
218.2758954799
 20
661.40448789
 10
219.1822735106
 20
660.0776586949
 10
220.5091027057
 20
659.1712806642
  0
ARC
  5
45A
330
1F
100
AcDbEntity
  8
0
  6
CONTINUOUS
 62
     7
100
AcDbCircle
 10
222.2667594765
 20
663.1538915058
 30
0.0
 40
4.357454354387503
100
AcDbArc
 50
118.9304583022
 51
203.6703431735
  0
LINE
  5
45B
330
1F
100
AcDbEntity
  8
0
  6
CONTINUOUS
 62
     7
100
AcDbLine
 10
220.1588509118
 20
666.9675682008
 30
0.0
 11
220.731368426
 21
667.0889381587
 31
0.0
  0
LINE
  5
45C
330
1F
100
AcDbEntity
  8
0
  6
CONTINUOUS
 62
     7
100
AcDbLine
 10
220.3707305228
 20
667.006966871
 30
0.0
 11
220.3691957032
 21
666.928482455
 31
0.0
  0
ARC
  5
45D
330
1F
100
AcDbEntity
  8
0
  6
CONTINUOUS
 62
     7
100
AcDbCircle
 10
222.2587536595
 20
663.1541226327
 30
0.0
 40
4.290529029490298
100
AcDbArc
 50
116.1064904487
 51
243.8935095513
  0
LINE
  5
45E
330
1F
100
AcDbEntity
  8
0
  6
CONTINUOUS
 62
     7
100
AcDbLine
 10
220.3692106044
 20
659.3797926127
 30
0.0
 11
220.3707156217
 21
659.3012634932
 31
0.0
  0
LINE
  5
45F
330
1F
100
AcDbEntity
  8
0
  6
CONTINUOUS
 62
     7
100
AcDbLine
 10
227.3535040652
 20
662.8635499894
 30
0.0
 11
227.7604994809
 21
663.2600400865
 31
0.0
  0
LWPOLYLINE
  5
460
330
1F
100
AcDbEntity
  8
0
  6
CONTINUOUS
 62
     7
100
AcDbPolyline
 90
        3
 70
   128
 43
0.0
 10
227.3535040652
 20
662.8635499894
 10
226.9358394181
 20
662.884307307
 10
226.6086397206
 20
662.9144374549
  0
ARC
  5
461
330
1F
100
AcDbEntity
  8
0
  6
CONTINUOUS
 62
     7
100
AcDbCircle
 10
220.4683150873
 20
659.486716033
 30
0.0
 40
0.2095669349163766
100
AcDbArc
 50
179.9328169188
 51
242.2431854422
  0
LINE
  5
462
330
1F
100
AcDbEntity
  8
0
  6
CONTINUOUS
 62
     7
100
AcDbLine
 10
220.3707305228
 20
935.0069586455
 30
0.0
 11
220.3691957032
 21
934.9284891307
 31
0.0
  0
ARC
  5
463
330
1F
100
AcDbEntity
  8
0
  6
CONTINUOUS
 62
     7
100
AcDbCircle
 10
222.2587536595
 20
931.1541293084
 30
0.0
 40
4.29052902949003
100
AcDbArc
 50
116.1064904487
 51
243.8935095513
  0
LINE
  5
464
330
1F
100
AcDbEntity
  8
0
  6
CONTINUOUS
 62
     7
100
AcDbLine
 10
220.3692106044
 20
927.3797843873
 30
0.0
 11
220.3707156217
 21
927.301270169
 31
0.0
  0
LINE
  5
465
330
1F
100
AcDbEntity
  8
0
  6
CONTINUOUS
 62
     7
100
AcDbLine
 10
220.1588509118
 20
927.3406837403
 30
0.0
 11
220.731368426
 21
927.2193137824
 31
0.0
  0
ARC
  5
466
330
1F
100
AcDbEntity
  8
0
  6
CONTINUOUS
 62
     7
100
AcDbCircle
 10
222.2668867834
 20
931.1544035253
 30
0.0
 40
4.357553652509737
100
AcDbArc
 50
156.3308477661
 51
241.0683507583
  0
LWPOLYLINE
  5
467
330
1F
100
AcDbEntity
  8
0
  6
CONTINUOUS
 62
     7
100
AcDbPolyline
 90
        3
 70
   128
 43
0.0
 10
218.2758954799
 20
932.9037640511
 10
219.1825417315
 20
934.2303250253
 10
220.5091027057
 20
935.1369712769
  0
ARC
  5
468
330
1F
100
AcDbEntity
  8
0
  6
CONTINUOUS
 62
     7
100
AcDbCircle
 10
222.258093047
 20
931.1457529582
 30
0.0
 40
4.357612979775561
100
AcDbArc
 50
3.2633843806
 51
113.6634960346
  0
LINE
  5
469
330
1F
100
AcDbEntity
  8
0
  6
CONTINUOUS
 62
     7
100
AcDbLine
 10
226.4730689561
 20
930.9194360196
 30
0.0
 11
226.6086397206
 21
931.3938144862
 31
0.0
  0
LWPOLYLINE
  5
46A
330
1F
100
AcDbEntity
  8
0
  6
CONTINUOUS
 62
     7
100
AcDbPolyline
 90
        3
 70
   128
 43
0.0
 10
226.6086397206
 20
931.3938144862
 10
227.0252463853
 20
931.4300541102
 10
227.3535040652
 20
931.4447019517
  0
LINE
  5
46B
330
1F
100
AcDbEntity
  8
0
  6
CONTINUOUS
 62
     7
100
AcDbLine
 10
227.7604994809
 20
931.0482118546
 30
0.0
 11
227.3535040652
 21
931.4447019517
 31
0.0
  0
LWPOLYLINE
  5
46C
330
1F
100
AcDbEntity
  8
0
  6
CONTINUOUS
 62
     7
100
AcDbPolyline
 90
        3
 70
   128
 43
0.0
 10
220.3707305228
 20
935.0069586455
 10
220.2924994266
 20
934.9354330718
 10
220.2587184941
 20
934.8212901771
  0
LINE
  5
46D
330
1F
100
AcDbEntity
  8
0
  6
CONTINUOUS
 62
     7
100
AcDbLine
 10
480.6561527287
 20
671.2156210362
 30
0.0
 11
479.1021404302
 21
672.7294747054
 31
0.0
  0
LWPOLYLINE
  5
46E
330
1F
100
AcDbEntity
  8
0
  6
CONTINUOUS
 62
     7
100
AcDbPolyline
 90
        3
 70
   128
 43
0.0
 10
480.1350591218
 20
673.1824774563
 10
479.675641421
 20
672.8609700024
 10
479.1021404302
 20
672.7294747054
  0
LWPOLYLINE
  5
46F
330
1F
100
AcDbEntity
  8
0
  6
CONTINUOUS
 62
     7
100
AcDbPolyline
 90
        3
 70
   128
 43
0.0
 10
480.5608747041
 20
674.2268998444
 10
480.4444370305
 20
673.6501727521
 10
480.1350591218
 20
673.1824774563
  0
LINE
  5
470
330
1F
100
AcDbEntity
  8
0
  6
CONTINUOUS
 62
     7
100
AcDbLine
 10
480.5608747041
 20
674.2268998444
 30
0.0
 11
482.1148870027
 21
672.7130536258
 31
0.0
  0
LINE
  5
471
330
1F
100
AcDbEntity
  8
0
  6
CONTINUOUS
 62
     7
100
AcDbLine
 10
480.5608747041
 20
674.2268998444
 30
0.0
 11
480.5608747041
 21
920.0813520967
 31
0.0
  0
LINE
  5
472
330
1F
100
AcDbEntity
  8
0
  6
CONTINUOUS
 62
     7
100
AcDbLine
 10
482.1148870027
 20
921.5951983153
 30
0.0
 11
480.5608747041
 21
920.0813520967
 31
0.0
  0
LINE
  5
473
330
1F
100
AcDbEntity
  8
0
  6
CONTINUOUS
 62
     7
100
AcDbLine
 10
468.5673249399
 20
672.4536095082
 30
0.0
 11
468.5876650249
 21
670.8995972096
 31
0.0
  0
LINE
  5
474
330
1F
100
AcDbEntity
  8
0
  6
CONTINUOUS
 62
     7
100
AcDbLine
 10
468.5764593517
 20
672.4538479268
 30
0.0
 11
479.1021404302
 21
672.7294747054
 31
0.0
  0
ARC
  5
475
330
1F
100
AcDbEntity
  8
0
  6
CONTINUOUS
 62
     7
100
AcDbCircle
 10
479.0598780901
 20
920.0783727548
 30
0.0
 40
1.500999570810336
100
AcDbArc
 50
0.1137267675
 51
88.3865593171
  0
LINE
  5
476
330
1F
100
AcDbEntity
  8
0
  6
CONTINUOUS
 62
     7
100
AcDbLine
 10
479.1021404302
 20
921.5787772357
 30
0.0
 11
480.6561527287
 21
923.0926309049
 31
0.0
  0
LINE
  5
477
330
1F
100
AcDbEntity
  8
0
  6
CONTINUOUS
 62
     7
100
AcDbLine
 10
479.1021404302
 20
921.5787772357
 30
0.0
 11
468.5673249399
 21
921.8546424329
 31
0.0
  0
LINE
  5
478
330
1F
100
AcDbEntity
  8
0
  6
CONTINUOUS
 62
     7
100
AcDbLine
 10
468.5876650249
 20
923.4086547315
 30
0.0
 11
468.5673249399
 21
921.8546424329
 31
0.0
  0
LINE
  5
479
330
1F
100
AcDbEntity
  8
0
  6
CONTINUOUS
 62
     7
100
AcDbLine
 10
241.6410279905
 20
672.4538479268
 30
0.0
 11
231.1153469121
 21
672.7294747054
 31
0.0
  0
LINE
  5
47A
330
1F
100
AcDbEntity
  8
0
  6
CONTINUOUS
 62
     7
100
AcDbLine
 10
241.6410205399
 20
672.4536095082
 30
0.0
 11
241.6298223173
 21
670.8995972096
 31
0.0
  0
LINE
  5
47B
330
1F
100
AcDbEntity
  8
0
  6
CONTINUOUS
 62
     7
100
AcDbLine
 10
229.6566126382
 20
674.2268998444
 30
0.0
 11
229.6566126382
 21
920.0813520967
 31
0.0
  0
LINE
  5
47C
330
1F
100
AcDbEntity
  8
0
  6
CONTINUOUS
 62
     7
100
AcDbLine
 10
231.1153469121
 20
921.5787772357
 30
0.0
 11
241.6501624023
 21
921.8546424329
 31
0.0
  0
LINE
  5
47D
330
1F
100
AcDbEntity
  8
0
  6
CONTINUOUS
 62
     7
100
AcDbLine
 10
241.6298223173
 20
923.4086547315
 30
0.0
 11
241.6410205399
 21
921.8546424329
 31
0.0
  0
LWPOLYLINE
  5
47E
330
1F
100
AcDbEntity
  8
0
  6
CONTINUOUS
 62
     7
100
AcDbPolyline
 90
        3
 70
   128
 43
0.0
 10
220.1588509118
 20
666.9675682008
 10
219.155496124
 20
669.2203257501
 10
218.8115326201
 20
671.6639969766
  0
LINE
  5
47F
330
1F
100
AcDbEntity
  8
0
  6
CONTINUOUS
 62
     7
100
AcDbLine
 10
219.2025986945
 20
672.0449600636
 30
0.0
 11
218.8115326201
 21
671.6639969766
 31
0.0
  0
LINE
  5
480
330
1F
100
AcDbEntity
  8
0
  6
CONTINUOUS
 62
     7
100
AcDbLine
 10
218.8115326201
 20
922.6442549645
 30
0.0
 11
219.2025986945
 21
922.2632918775
 31
0.0
  0
LWPOLYLINE
  5
481
330
1F
100
AcDbEntity
  8
0
  6
CONTINUOUS
 62
     7
100
AcDbPolyline
 90
        3
 70
   128
 43
0.0
 10
218.8115326201
 20
922.6442549645
 10
219.155496124
 20
925.087926191
 10
220.1588509118
 20
927.3406837403
  0
LINE
  5
482
330
1F
100
AcDbEntity
  8
0
  6
CONTINUOUS
 62
     7
100
AcDbLine
 10
489.958753947
 20
660.5912570178
 30
0.0
 11
489.9586496388
 21
660.6662843644
 31
0.0
  0
ARC
  5
483
330
1F
100
AcDbEntity
  8
0
  6
CONTINUOUS
 62
     7
100
AcDbCircle
 10
489.7586705841
 20
660.6662609167
 30
0.0
 40
0.1999790561602408
100
AcDbArc
 50
0.0067179629
 51
96.1323317372
  0
ARC
  5
484
330
1F
100
AcDbEntity
  8
0
  6
CONTINUOUS
 62
     7
100
AcDbCircle
 10
489.7586782522
 20
928.6662686945
 30
0.0
 40
0.1999713879349683
100
AcDbArc
 50
0.0064024787
 51
96.4655253445
  0
LINE
  5
485
330
1F
100
AcDbEntity
  8
0
  6
CONTINUOUS
 62
     7
100
AcDbLine
 10
489.958753947
 20
928.5912487924
 30
0.0
 11
489.9586496388
 21
928.666276139
 31
0.0
  0
LINE
  5
486
330
1F
100
AcDbEntity
  8
0
  6
CONTINUOUS
 62
     7
100
AcDbLine
 10
489.9588284528
 20
933.6420569837
 30
0.0
 11
489.9585155284
 21
933.7169204175
 31
0.0
  0
ARC
  5
487
330
1F
100
AcDbEntity
  8
0
  6
CONTINUOUS
 62
     7
100
AcDbCircle
 10
489.7588907136
 20
933.6420586577
 30
0.0
 40
0.1999381177971765
100
AcDbArc
 50
264.0820799029
 51
359.8884952847
  0
LINE
  5
488
330
1F
100
AcDbEntity
  8
0
  6
CONTINUOUS
 62
     7
100
AcDbLine
 10
489.9588284528
 20
665.6420503079
 30
0.0
 11
489.9585155284
 21
665.7169137418
 31
0.0
  0
ARC
  5
489
330
1F
100
AcDbEntity
  8
0
  6
CONTINUOUS
 62
     7
100
AcDbCircle
 10
489.7589092301
 20
665.6420463361
 30
0.0
 40
0.1999195904672677
100
AcDbArc
 50
264.0761943356
 51
359.8901030187
  0
ARC
  5
48A
330
1F
100
AcDbEntity
  8
0
  6
CONTINUOUS
 62
     7
100
AcDbCircle
 10
220.4587950856
 20
928.6662791164
 30
0.0
 40
0.1999573821896933
100
AcDbArc
 50
82.9968461093
 51
180.0008531582
  0
ELLIPSE
  5
48B
330
1F
100
AcDbEntity
  8
0
  6
CONTINUOUS
 62
     7
100
AcDbEllipse
 10
220.4585231006
 20
665.6420279357
 30
0.0
 11
-0.0008398344261024704
 21
-0.1999056620254578
 31
0.0
210
0.0
220
0.0
230
1.0
 40
0.9997713077
 41
4.716857524890137
 42
6.393246953228549
  0
LWPOLYLINE
  5
48C
330
1F
100
AcDbEntity
  8
0
  6
CONTINUOUS
 62
     7
100
AcDbPolyline
 90
        3
 70
   128
 43
0.0
 10
489.9587390458
 20
659.4869468629
 10
489.9249879157
 20
659.3728039681
 10
489.8467717206
 20
659.3012634932
  0
LINE
  5
48D
330
1F
100
AcDbEntity
  8
0
  6
CONTINUOUS
 62
     7
100
AcDbLine
 10
489.9587390458
 20
659.4869468629
 30
0.0
 11
489.9587688481
 21
659.5587257564
 31
0.0
  0
ARC
  5
48E
330
1F
100
AcDbEntity
  8
0
  6
CONTINUOUS
 62
     7
100
AcDbCircle
 10
489.7493190994
 20
927.4866341172
 30
0.0
 40
0.2094201677784045
100
AcDbArc
 50
297.7325500349
 51
0.0833144755
  0
LINE
  5
48F
330
1F
100
AcDbEntity
  8
0
  6
CONTINUOUS
 62
     7
100
AcDbLine
 10
489.9587390458
 20
927.4869386374
 30
0.0
 11
489.9587688481
 21
927.5587175309
 31
0.0
  0
ARC
  5
490
330
1F
100
AcDbEntity
  8
0
  6
CONTINUOUS
 62
     7
100
AcDbCircle
 10
489.7487658421
 20
934.8212194846
 30
0.0
 40
0.2100030178901114
100
AcDbArc
 50
0.019287235
 51
62.1850784755
  0
LINE
  5
491
330
1F
100
AcDbEntity
  8
0
  6
CONTINUOUS
 62
     7
100
AcDbLine
 10
489.9587390458
 20
934.7495410859
 30
0.0
 11
489.9587688481
 21
934.8212901771
 31
0.0
  0
LWPOLYLINE
  5
492
330
1F
100
AcDbEntity
  8
0
  6
CONTINUOUS
 62
     7
100
AcDbPolyline
 90
        3
 70
   128
 43
0.0
 10
489.8467568194
 20
667.006966871
 10
489.9250326192
 20
666.9353816926
 10
489.9587688481
 20
666.8212984025
  0
LINE
  5
493
330
1F
100
AcDbEntity
  8
0
  6
CONTINUOUS
 62
     7
100
AcDbLine
 10
489.9587390458
 20
666.7495493113
 30
0.0
 11
489.9587688481
 21
666.8212984025
 31
0.0
  0
LINE
  5
494
330
1F
100
AcDbEntity
  8
0
  6
CONTINUOUS
 62
     7
100
AcDbLine
 10
491.4059547221
 20
671.6639969766
 30
0.0
 11
491.4059547221
 21
922.6442549645
 31
0.0
  0
LINE
  5
495
330
1F
100
AcDbEntity
  8
0
  6
CONTINUOUS
 62
     7
100
AcDbLine
 10
218.8115326201
 20
671.6639969766
 30
0.0
 11
218.8115326201
 21
922.6442549645
 31
0.0
  0
LINE
  5
496
330
1F
100
AcDbEntity
  8
0
  6
CONTINUOUS
 62
     7
100
AcDbLine
 10
241.6501624023
 20
921.8546424329
 30
0.0
 11
468.5673249399
 21
921.8546424329
 31
0.0
  0
LINE
  5
497
330
1F
100
AcDbEntity
  8
0
  6
CONTINUOUS
 62
     7
100
AcDbLine
 10
468.5764668023
 20
672.4536095082
 30
0.0
 11
241.6410205399
 21
672.4536095082
 31
0.0
  0
LWPOLYLINE
  5
498
330
1F
100
AcDbEntity
  8
0
  6
CONTINUOUS
 62
     7
100
AcDbPolyline
 90
        3
 70
   128
 43
0.0
 10
220.3707305228
 20
667.006966871
 10
220.2924994266
 20
666.9354263961
 10
220.2587184941
 20
666.8212984025
  0
ARC
  5
499
330
1F
100
AcDbEntity
  8
0
  6
CONTINUOUS
 62
     7
100
AcDbCircle
 10
220.4683771597
 20
927.4867601194
 30
0.0
 40
0.2096289524332181
100
AcDbArc
 50
179.9471346492
 51
242.2329340367
  0
LINE
  5
49A
330
1F
100
AcDbEntity
  8
0
  6
CONTINUOUS
 62
     7
100
AcDbLine
 10
355.1087436711
 20
659.5349733054
 30
0.0
 11
482.863983277
 21
662.8635499894
 31
0.0
  0
LINE
  5
49B
330
1F
100
AcDbEntity
  8
0
  6
CONTINUOUS
 62
     7
100
AcDbLine
 10
355.1087436711
 20
659.9253092229
 30
0.0
 11
355.1087436711
 21
659.5349733054
 31
0.0
  0
LINE
  5
49C
330
1F
100
AcDbEntity
  8
0
  6
CONTINUOUS
 62
     7
100
AcDbLine
 10
355.1087436711
 20
659.5349733054
 30
0.0
 11
227.3535040652
 21
662.8635499894
 31
0.0
  0
LINE
  5
49D
330
1F
100
AcDbEntity
  8
0
  6
CONTINUOUS
 62
     7
100
AcDbLine
 10
482.863983277
 20
931.4447019517
 30
0.0
 11
355.1087436711
 21
934.7732786357
 31
0.0
  0
LINE
  5
49E
330
1F
100
AcDbEntity
  8
0
  6
CONTINUOUS
 62
     7
100
AcDbLine
 10
355.1087436711
 20
934.7732786357
 30
0.0
 11
355.1087436711
 21
934.3829427182
 31
0.0
  0
LINE
  5
49F
330
1F
100
AcDbEntity
  8
0
  6
CONTINUOUS
 62
     7
100
AcDbLine
 10
227.3535040652
 20
931.4447019517
 30
0.0
 11
355.1087436711
 21
934.7732786357
 31
0.0
  0
ARC
  5
4A0
330
1F
100
AcDbEntity
  8
0
  6
CONTINUOUS
 62
     7
100
AcDbCircle
 10
487.9579657031
 20
931.1541293084
 30
0.0
 40
3.791006441682885
100
AcDbArc
 50
301.8547971484
 51
58.1452028516
  0
ARC
  5
4A1
330
1F
100
AcDbEntity
  8
0
  6
CONTINUOUS
 62
     7
100
AcDbCircle
 10
222.2595216392
 20
931.1541293084
 30
0.0
 40
3.7910064416829
100
AcDbArc
 50
121.8547971484
 51
238.1452028516
  0
ARC
  5
4A2
330
1F
100
AcDbEntity
  8
0
  6
CONTINUOUS
 62
     7
100
AcDbCircle
 10
222.2595225128
 20
663.1541226327
 30
0.0
 40
3.791006902755886
100
AcDbArc
 50
121.8548083634
 51
238.1451916366
  0
ARC
  5
4A3
330
1F
100
AcDbEntity
  8
0
  6
CONTINUOUS
 62
     7
100
AcDbCircle
 10
487.9580628006
 20
663.1541226327
 30
0.0
 40
3.790955197565761
100
AcDbArc
 50
301.8535506592
 51
58.1464493408
  0
LWPOLYLINE
  5
4A4
330
1F
100
AcDbEntity
  8
0
  6
CONTINUOUS
 62
     7
100
AcDbPolyline
 90
        5
 70
   128
 43
0.0
 10
495.1558021342
 20
936.1175868928
 10
495.3261224067
 20
936.1178998172
 10
495.4691437518
 20
936.1181531369
 10
495.5669996774
 20
936.1183170497
 10
495.6074414288
 20
936.1183766543
  0
LINE
  5
4A5
330
1F
100
AcDbEntity
  8
0
  6
CONTINUOUS
 62
     7
100
AcDbLine
 10
495.1558021342
 20
936.117974323
 30
0.0
 11
495.1537755763
 21
936.3080982387
 31
0.0
  0
ARC
  5
4A6
330
1F
100
AcDbEntity
  8
0
  6
CONTINUOUS
 62
     7
100
AcDbCircle
 10
495.198312005
 20
896.4429714438
 30
0.0
 40
39.8651516390767
100
AcDbArc
 50
89.412443806
 51
90.0639667046
  0
ARC
  5
4A7
330
1F
100
AcDbEntity
  8
0
  6
CONTINUOUS
 62
     7
100
AcDbCircle
 10
462.4150338213
 20
938.3824285663
 30
0.0
 40
30.69809046558649
100
AcDbArc
 50
359.9378972506
 51
0.7847121263
  0
LINE
  5
4A8
330
1F
100
AcDbEntity
  8
0
  6
CONTINUOUS
 62
     7
100
AcDbLine
 10
493.1127188241
 20
938.3491549909
 30
0.0
 11
492.9225949084
 21
938.3512262523
 31
0.0
  0
LINE
  5
4A9
330
1F
100
AcDbEntity
  8
0
  6
CONTINUOUS
 62
     7
100
AcDbLine
 10
492.9226843154
 20
938.3511815488
 30
0.0
 11
492.9226843154
 21
938.8025824248
 31
0.0
  0
ARC
  5
4AA
330
1F
100
AcDbEntity
  8
0
  6
CONTINUOUS
 62
     7
100
AcDbCircle
 10
495.1852454282
 20
689.1438647388
 30
0.0
 40
31.14411436606107
100
AcDbArc
 50
269.9421049518
 51
270.7767645436
  0
LINE
  5
4AB
330
1F
100
AcDbEntity
  8
0
  6
CONTINUOUS
 62
     7
100
AcDbLine
 10
495.1537755763
 20
658.0001537024
 30
0.0
 11
495.1558319365
 21
658.1902776181
 31
0.0
  0
LINE
  5
4AC
330
1F
100
AcDbEntity
  8
0
  6
CONTINUOUS
 62
     7
100
AcDbLine
 10
495.1558021342
 20
658.19017331
 30
0.0
 11
495.6071881091
 21
658.19017331
 31
0.0
  0
LWPOLYLINE
  5
4AD
330
1F
100
AcDbEntity
  8
0
  6
CONTINUOUS
 62
     7
100
AcDbPolyline
 90
        5
 70
   128
 43
0.0
 10
492.9222074782
 20
655.9570703923
 10
492.9225204026
 20
655.7867203175
 10
492.9227737224
 20
655.6436840712
 10
492.9229376351
 20
655.5458430468
 10
492.9229972398
 20
655.5054161965
  0
LINE
  5
4AE
330
1F
100
AcDbEntity
  8
0
  6
CONTINUOUS
 62
     7
100
AcDbLine
 10
492.9225949084
 20
655.9570703923
 30
0.0
 11
493.1127039229
 21
655.9590969502
 31
0.0
  0
ARC
  5
4AF
330
1F
100
AcDbEntity
  8
0
  6
CONTINUOUS
 62
     7
100
AcDbCircle
 10
452.3497410257
 20
655.9186629932
 30
0.0
 40
40.76299782260394
100
AcDbArc
 50
359.4196191056
 51
0.056791405
  0
LINE
  5
4B0
330
1F
100
AcDbEntity
  8
0
  6
CONTINUOUS
 62
     7
100
AcDbLine
 10
215.063711766
 20
658.0001537024
 30
0.0
 11
215.0616554057
 21
658.1902776181
 31
0.0
  0
ARC
  5
4B1
330
1F
100
AcDbEntity
  8
0
  6
CONTINUOUS
 62
     7
100
AcDbCircle
 10
215.0324151341
 20
689.1714765587
 30
0.0
 40
31.17172599743759
100
AcDbArc
 50
269.2236051299
 51
270.0575253748
  0
ARC
  5
4B2
330
1F
100
AcDbEntity
  8
0
  6
CONTINUOUS
 62
     7
100
AcDbCircle
 10
214.8403143135
 20
788.1779981825
 30
0.0
 40
129.9879239135142
100
AcDbArc
 50
269.8986538352
 51
270.097562267
  0
LINE
  5
4B3
330
1F
100
AcDbEntity
  8
0
  6
CONTINUOUS
 62
     7
100
AcDbLine
 10
215.061685208
 20
936.117974323
 30
0.0
 11
215.061685208
 21
658.1902776181
 31
0.0
  0
LINE
  5
4B4
330
1F
100
AcDbEntity
  8
0
  6
CONTINUOUS
 62
     7
100
AcDbLine
 10
215.061685208
 20
936.1179892241
 30
0.0
 11
214.6102992331
 21
936.1179892241
 31
0.0
  0
ARC
  5
4B5
330
1F
100
AcDbEntity
  8
0
  6
CONTINUOUS
 62
     7
100
AcDbCircle
 10
346.9567773828
 20
938.5768521845
 30
0.0
 40
129.6620812557861
100
AcDbArc
 50
179.9002991463
 51
180.0997008537
  0
LINE
  5
4B6
330
1F
100
AcDbEntity
  8
0
  6
CONTINUOUS
 62
     7
100
AcDbLine
 10
492.9225949084
 20
938.3511815488
 30
0.0
 11
217.2948924338
 21
938.3511815488
 31
0.0
  0
LINE
  5
4B7
330
1F
100
AcDbEntity
  8
0
  6
CONTINUOUS
 62
     7
100
AcDbLine
 10
217.1047685182
 20
938.3491549909
 30
0.0
 11
217.2948924338
 21
938.3512113511
 31
0.0
  0
ARC
  5
4B8
330
1F
100
AcDbEntity
  8
0
  6
CONTINUOUS
 62
     7
100
AcDbCircle
 10
247.8227754764
 20
938.3822866025
 30
0.0
 40
30.71841225558518
100
AcDbArc
 50
179.2155700144
 51
180.0617968751
  0
LINE
  5
4B9
330
1F
100
AcDbEntity
  8
0
  6
CONTINUOUS
 62
     7
100
AcDbLine
 10
217.2948924338
 20
655.9570703923
 30
0.0
 11
217.2948924338
 21
655.5056695163
 31
0.0
  0
LINE
  5
4BA
330
1F
100
AcDbEntity
  8
0
  6
CONTINUOUS
 62
     7
100
AcDbLine
 10
217.2948924338
 20
655.9570703923
 30
0.0
 11
492.9225949084
 21
655.9570703923
 31
0.0
  0
LINE
  5
4BB
330
1F
100
AcDbEntity
  8
0
  6
CONTINUOUS
 62
     7
100
AcDbLine
 10
495.1558021342
 20
936.117974323
 30
0.0
 11
495.1558021342
 21
658.1902776181
 31
0.0
  0
LINE
  5
4BC
330
1F
100
AcDbEntity
  8
0
  6
CONTINUOUS
 62
     7
100
AcDbLine
 10
217.2948924338
 20
655.9570703923
 30
0.0
 11
217.104202274
 21
655.9590671479
 31
0.0
  0
ARC
  5
4BD
330
1F
100
AcDbEntity
  8
0
  6
CONTINUOUS
 62
     7
100
AcDbCircle
 10
256.996720741
 20
655.9146830927
 30
0.0
 40
39.89197691381936
100
AcDbArc
 50
179.9362523553
 51
180.5873371341
  0
LINE
  5
4BE
330
1F
100
AcDbEntity
  8
0
  6
CONTINUOUS
 62
     7
100
AcDbLine
 10
215.061685208
 20
936.117974323
 30
0.0
 11
215.0636968648
 21
936.3086644828
 31
0.0
  0
ARC
  5
4BF
330
1F
100
AcDbEntity
  8
0
  6
CONTINUOUS
 62
     7
100
AcDbCircle
 10
215.0193108144
 20
896.4133214526
 30
0.0
 40
39.89480146098843
100
AcDbArc
 50
89.9362754039
 51
90.5873140855
  0
ARC
  5
4C0
330
1F
100
AcDbEntity
  8
0
  6
CONTINUOUS
 62
     7
100
AcDbCircle
 10
493.0794239688
 20
936.2748033834
 30
0.0
 40
2.074618793612033
100
AcDbArc
 50
0.9195600612
 51
89.0804399388
  0
ARC
  5
4C1
330
1F
100
AcDbEntity
  8
0
  6
CONTINUOUS
 62
     7
100
AcDbCircle
 10
493.0794173939
 20
658.0334551326
 30
0.0
 40
2.074625473206634
100
AcDbArc
 50
270.9197387058
 51
359.0802612942
  0
ARC
  5
4C2
330
1F
100
AcDbEntity
  8
0
  6
CONTINUOUS
 62
     7
100
AcDbCircle
 10
217.1380481244
 20
936.2748186324
 30
0.0
 40
2.074597563312271
100
AcDbArc
 50
90.9347887263
 51
179.0652112737
  0
ARC
  5
4C3
330
1F
100
AcDbEntity
  8
0
  6
CONTINUOUS
 62
     7
100
AcDbCircle
 10
217.1380395797
 20
658.0334250112
 30
0.0
 40
2.074589127535758
100
AcDbArc
 50
180.9349749313
 51
269.0654434891
  0
LINE
  5
4C4
330
1F
100
AcDbEntity
  8
0
  6
CONTINUOUS
 62
     7
100
AcDbLine
 10
491.9415918624
 20
661.40448789
 30
0.0
 11
495.1558021342
 21
658.1902776181
 31
0.0
  0
LINE
  5
4C5
330
1F
100
AcDbEntity
  8
0
  6
CONTINUOUS
 62
     7
100
AcDbLine
 10
492.9225949084
 20
655.9570703923
 30
0.0
 11
489.7083846366
 21
659.1712806642
 31
0.0
  0
LINE
  5
4C6
330
1F
100
AcDbEntity
  8
0
  6
CONTINUOUS
 62
     7
100
AcDbLine
 10
495.1558021342
 20
936.117974323
 30
0.0
 11
491.9415918624
 21
932.9037640511
 31
0.0
  0
LINE
  5
4C7
330
1F
100
AcDbEntity
  8
0
  6
CONTINUOUS
 62
     7
100
AcDbLine
 10
489.7083846366
 20
935.1369712769
 30
0.0
 11
492.9225949084
 21
938.3511815488
 31
0.0
  0
LINE
  5
4C8
330
1F
100
AcDbEntity
  8
0
  6
CONTINUOUS
 62
     7
100
AcDbLine
 10
217.2948924338
 20
655.9570703923
 30
0.0
 11
220.5091027057
 21
659.1712806642
 31
0.0
  0
LINE
  5
4C9
330
1F
100
AcDbEntity
  8
0
  6
CONTINUOUS
 62
     7
100
AcDbLine
 10
218.2758954799
 20
661.40448789
 30
0.0
 11
215.061685208
 21
658.1902776181
 31
0.0
  0
LINE
  5
4CA
330
1F
100
AcDbEntity
  8
0
  6
CONTINUOUS
 62
     7
100
AcDbLine
 10
215.061685208
 20
936.117974323
 30
0.0
 11
218.2758954799
 21
932.9037640511
 31
0.0
  0
LINE
  5
4CB
330
1F
100
AcDbEntity
  8
0
  6
CONTINUOUS
 62
     7
100
AcDbLine
 10
220.5091027057
 20
935.1369712769
 30
0.0
 11
217.2948924338
 21
938.3511815488
 31
0.0
  0
LWPOLYLINE
  5
4CC
330
1F
100
AcDbEntity
  8
0
  6
CONTINUOUS
 62
     7
100
AcDbPolyline
 90
        3
 70
   128
 43
0.0
 10
485.7331422603
 20
661.5325633704
 10
485.296508435
 20
662.4442313134
 10
485.217383269
 20
663.4510580718
  0
ARC
  5
4CD
330
1F
100
AcDbEntity
  8
0
  6
CONTINUOUS
 62
     7
100
AcDbCircle
 10
485.7780513062
 20
658.4738639893
 30
0.0
 40
3.059059899378994
100
AcDbArc
 50
39.2261241613
 51
89.9212374957
  0
ARC
  5
4CE
330
1F
100
AcDbEntity
  8
0
  6
CONTINUOUS
 62
     7
100
AcDbCircle
 10
487.9550808298
 20
663.1598214741
 30
0.0
 40
2.758200297853715
100
AcDbArc
 50
274.0059965377
 51
335.9872535348
  0
ARC
  5
4CF
330
1F
100
AcDbEntity
  8
0
  6
CONTINUOUS
 62
     7
100
AcDbCircle
 10
493.104430101
 20
663.6042599178
 30
0.0
 40
3.061241802233093
100
AcDbArc
 50
159.211372086
 51
210.7863406496
  0
ARC
  5
4D0
330
1F
100
AcDbEntity
  8
0
  6
CONTINUOUS
 62
     7
100
AcDbCircle
 10
487.9499944685
 20
663.1473680379
 30
0.0
 40
2.763617395206655
100
AcDbArc
 50
33.9499223093
 51
89.8184807491
  0
ARC
  5
4D1
330
1F
100
AcDbEntity
  8
0
  6
CONTINUOUS
 62
     7
100
AcDbCircle
 10
222.2608261793
 20
663.1598443175
 30
0.0
 40
2.751127574666284
100
AcDbArc
 50
90.0279837217
 51
146.1880782797
  0
ARC
  5
4D2
330
1F
100
AcDbEntity
  8
0
  6
CONTINUOUS
 62
     7
100
AcDbCircle
 10
217.1202841797
 20
663.603627788
 30
0.0
 40
3.054711352097757
100
AcDbArc
 50
329.1544642824
 51
20.847822982
  0
ARC
  5
4D3
330
1F
100
AcDbEntity
  8
0
  6
CONTINUOUS
 62
     7
100
AcDbCircle
 10
222.2575576465
 20
663.1528957076
 30
0.0
 40
2.750956151039151
100
AcDbArc
 50
203.9220802155
 51
266.084669712
  0
ARC
  5
4D4
330
1F
100
AcDbEntity
  8
0
  6
CONTINUOUS
 62
     7
100
AcDbCircle
 10
224.4366062727
 20
658.4798568539
 30
0.0
 40
3.053079355373842
100
AcDbArc
 50
90.025811858
 51
140.8274152668
  0
LWPOLYLINE
  5
4D5
330
1F
100
AcDbEntity
  8
0
  6
CONTINUOUS
 62
     7
100
AcDbPolyline
 90
        3
 70
   128
 43
0.0
 10
224.484345082
 20
661.5325633704
 10
224.9211726224
 20
662.4441717088
 10
225.0001040732
 20
663.4510580718
  0
ARC
  5
4D6
330
1F
100
AcDbEntity
  8
0
  6
CONTINUOUS
 62
     7
100
AcDbCircle
 10
224.4364964399
 20
935.8281640569
 30
0.0
 40
3.052848277578525
100
AcDbArc
 50
219.1705253476
 51
269.9762475275
  0
ARC
  5
4D7
330
1F
100
AcDbEntity
  8
0
  6
CONTINUOUS
 62
     7
100
AcDbCircle
 10
222.257546368
 20
931.1553723429
 30
0.0
 40
2.750939309120321
100
AcDbArc
 50
93.9151188407
 51
156.0781312318
  0
ARC
  5
4D8
330
1F
100
AcDbEntity
  8
0
  6
CONTINUOUS
 62
     7
100
AcDbCircle
 10
217.1200083116
 20
930.7046000234
 30
0.0
 40
3.054960573785126
100
AcDbArc
 50
339.1544412697
 51
30.8432714659
  0
ARC
  5
4D9
330
1F
100
AcDbEntity
  8
0
  6
CONTINUOUS
 62
     7
100
AcDbCircle
 10
222.264387155
 20
931.155071267
 30
0.0
 40
2.757796676944648
100
AcDbArc
 50
213.8857810268
 51
269.8826220316
  0
ARC
  5
4DA
330
1F
100
AcDbEntity
  8
0
  6
CONTINUOUS
 62
     7
100
AcDbCircle
 10
222.2597692803
 20
931.1490671422
 30
0.0
 40
2.755836491693213
100
AcDbArc
 50
347.0742001592
 51
36.1744660871
  0
ARC
  5
4DB
330
1F
100
AcDbEntity
  8
0
  6
CONTINUOUS
 62
     7
100
AcDbCircle
 10
487.9500122027
 20
931.1608508186
 30
0.0
 40
2.763584207567391
100
AcDbArc
 50
270.180844817
 51
326.0504413485
  0
ARC
  5
4DC
330
1F
100
AcDbEntity
  8
0
  6
CONTINUOUS
 62
     7
100
AcDbCircle
 10
493.1036186649
 20
930.7040629984
 30
0.0
 40
3.060508404857238
100
AcDbArc
 50
149.2070255557
 51
200.7952617087
  0
ARC
  5
4DD
330
1F
100
AcDbEntity
  8
0
  6
CONTINUOUS
 62
     7
100
AcDbCircle
 10
487.9550677166
 20
931.1484117371
 30
0.0
 40
2.758219898119223
100
AcDbArc
 50
24.0129910154
 51
85.9937589121
  0
ARC
  5
4DE
330
1F
100
AcDbEntity
  8
0
  6
CONTINUOUS
 62
     7
100
AcDbCircle
 10
485.7782931237
 20
935.8338387613
 30
0.0
 40
3.058525287548311
100
AcDbArc
 50
270.074246267
 51
320.7789808578
  0
ARC
  5
4DF
330
1F
100
AcDbEntity
  8
0
  6
CONTINUOUS
 62
     7
100
AcDbCircle
 10
485.0022199364
 20
926.9290049578
 30
0.0
 40
3.048045725920669
100
AcDbArc
 50
29.1227509475
 51
80.9442523645
  0
ARC
  5
4E0
330
1F
100
AcDbEntity
  8
0
  6
CONTINUOUS
 62
     7
100
AcDbCircle
 10
225.2130657202
 20
926.9321458695
 30
0.0
 40
3.044605055987856
100
AcDbArc
 50
98.8151958249
 51
151.4810312963
  0
ARC
  5
4E1
330
1F
100
AcDbEntity
  8
0
  6
CONTINUOUS
 62
     7
100
AcDbCircle
 10
484.9522457177
 20
667.4520076198
 30
0.0
 40
3.135035199881918
100
AcDbArc
 50
278.8671356123
 51
330.7175908915
  0
ARC
  5
4E2
330
1F
100
AcDbEntity
  8
0
  6
CONTINUOUS
 62
     7
100
AcDbCircle
 10
225.2131008814
 20
667.3761537029
 30
0.0
 40
3.044658692367258
100
AcDbArc
 50
208.5194403679
 51
261.7746373677
  0
LINE
  5
4E3
330
1F
100
AcDbEntity
  8
0
  6
CONTINUOUS
 62
     7
100
AcDbLine
 10
485.767414931
 20
932.8194234788
 30
0.0
 11
485.411605004
 21
932.1825925528
 31
0.0
  0
LINE
  5
4E4
330
1F
100
AcDbEntity
  8
0
  6
CONTINUOUS
 62
     7
100
AcDbLine
 10
485.2627126014
 20
930.6083891808
 30
0.0
 11
485.512366656
 21
929.892254275
 31
0.0
  0
LWPOLYLINE
  5
4E5
330
1F
100
AcDbEntity
  8
0
  6
CONTINUOUS
 62
     7
100
AcDbPolyline
 90
        3
 70
   128
 43
0.0
 10
485.4702410733
 20
929.923129481
 10
485.2303323781
 20
930.6405458867
 10
485.2100220954
 20
931.0513261973
  0
LINE
  5
4E6
330
1F
100
AcDbEntity
  8
0
  6
CONTINUOUS
 62
     7
100
AcDbLine
 10
224.4488356149
 20
932.8216437518
 30
0.0
 11
224.8054800069
 21
932.1838442504
 31
0.0
  0
LINE
  5
4E7
330
1F
100
AcDbEntity
  8
0
  6
CONTINUOUS
 62
     7
100
AcDbLine
 10
224.9548194444
 20
930.6087617099
 30
0.0
 11
224.7051206862
 21
929.892254275
 31
0.0
  0
LWPOLYLINE
  5
4E8
330
1F
100
AcDbEntity
  8
0
  6
CONTINUOUS
 62
     7
100
AcDbPolyline
 90
        3
 70
   128
 43
0.0
 10
224.7472462689
 20
929.923129481
 10
224.9871549642
 20
930.6405458867
 10
225.0074652469
 20
931.0513261973
  0
LINE
  5
4E9
330
1F
100
AcDbEntity
  8
0
  6
CONTINUOUS
 62
     7
100
AcDbLine
 10
224.7051206862
 20
664.4159976661
 30
0.0
 11
224.8202768599
 21
664.0855495154
 31
0.0
  0
LINE
  5
4EA
330
1F
100
AcDbEntity
  8
0
  6
CONTINUOUS
 62
     7
100
AcDbLine
 10
224.9655780827
 20
663.572919768
 30
0.0
 11
224.9834892785
 21
663.2391337573
 31
0.0
  0
LWPOLYLINE
  5
4EB
330
1F
100
AcDbEntity
  8
0
  6
CONTINUOUS
 62
     7
100
AcDbPolyline
 90
        3
 70
   128
 43
0.0
 10
485.512366656
 20
664.4159976661
 10
485.2581081426
 20
663.6866603314
 10
485.2339831626
 20
663.2398192107
  0
LINE
  5
4EC
330
1F
100
AcDbEntity
  8
0
  6
CONTINUOUS
 62
     7
100
AcDbLine
 10
485.4702410733
 20
664.3851224601
 30
0.0
 11
485.2973578011
 21
663.8681117713
 31
0.0
  0
LINE
  5
4ED
330
1F
100
AcDbEntity
  8
0
  6
CONTINUOUS
 62
     7
100
AcDbLine
 10
485.2282462155
 20
663.6254314601
 30
0.0
 11
485.2187541759
 21
663.4335343062
 31
0.0
  0
LWPOLYLINE
  5
4EE
330
1F
100
AcDbEntity
  8
0
  6
CONTINUOUS
 62
     7
100
AcDbPolyline
 90
        3
 70
   128
 43
0.0
 10
487.9587498939
 20
665.9304473817
 10
487.7873418366
 20
665.9251574695
 10
487.6531121766
 20
665.9135792672
  0
ARC
  5
4EF
330
1F
100
AcDbEntity
  8
0
  6
CONTINUOUS
 62
     7
100
AcDbCircle
 10
469.8587406283
 20
911.4541273832
 30
0.0
 40
3.733146935701592
100
AcDbArc
 50
89.9999862313
 51
270.0000137687
  0
ARC
  5
4F0
330
1F
100
AcDbEntity
  8
0
  6
CONTINUOUS
 62
     7
100
AcDbCircle
 10
469.858749873
 20
911.4541273832
 30
0.0
 40
3.733146935710817
100
AcDbArc
 50
269.9998718811
 51
90.0001281189
  0
ARC
  5
4F1
330
1F
100
AcDbEntity
  8
0
  6
CONTINUOUS
 62
     7
100
AcDbCircle
 10
469.8589157843
 20
911.4541273832
 30
0.0
 40
3.470633183324316
100
AcDbArc
 50
269.9971232041
 51
90.0028767959
  0
ARC
  5
4F2
330
1F
100
AcDbEntity
  8
0
  6
CONTINUOUS
 62
     7
100
AcDbCircle
 10
469.8586293474
 20
911.4541273832
 30
0.0
 40
3.470633180762493
100
AcDbArc
 50
89.9981480838
 51
270.0018519162
  0
ARC
  5
4F3
330
1F
100
AcDbEntity
  8
0
  6
CONTINUOUS
 62
     7
100
AcDbCircle
 10
469.858805472
 20
911.4541273832
 30
0.0
 40
2.000000328848065
100
AcDbArc
 50
90.0018319347
 51
269.9981680653
  0
ARC
  5
4F4
330
1F
100
AcDbEntity
  8
0
  6
CONTINUOUS
 62
     7
100
AcDbCircle
 10
469.858682546
 20
911.4541273832
 30
0.0
 40
2.000000328695414
100
AcDbArc
 50
270.0016896327
 51
89.9983103673
  0
ARC
  5
4F5
330
1F
100
AcDbEntity
  8
0
  6
CONTINUOUS
 62
     7
100
AcDbCircle
 10
469.8585697496
 20
682.8541245579
 30
0.0
 40
3.470633183200409
100
AcDbArc
 50
89.9971641993
 51
270.0028358007
  0
ARC
  5
4F6
330
1F
100
AcDbEntity
  8
0
  6
CONTINUOUS
 62
     7
100
AcDbCircle
 10
469.8589133013
 20
682.8541245579
 30
0.0
 40
3.470633183200422
100
AcDbArc
 50
269.997164195
 51
90.002835805
  0
ARC
  5
4F7
330
1F
100
AcDbEntity
  8
0
  6
CONTINUOUS
 62
     7
100
AcDbCircle
 10
469.858682546
 20
682.8541245579
 30
0.0
 40
2.0000003286953
100
AcDbArc
 50
270.0016896327
 51
89.9983103673
  0
ARC
  5
4F8
330
1F
100
AcDbEntity
  8
0
  6
CONTINUOUS
 62
     7
100
AcDbCircle
 10
469.858805472
 20
682.8541245579
 30
0.0
 40
2.000000328847952
100
AcDbArc
 50
90.0018319347
 51
269.9981680653
  0
ARC
  5
4F9
330
1F
100
AcDbEntity
  8
0
  6
CONTINUOUS
 62
     7
100
AcDbCircle
 10
469.8587406283
 20
682.8541245579
 30
0.0
 40
3.733146935701478
100
AcDbArc
 50
89.9999862313
 51
270.0000137687
  0
ARC
  5
4FA
330
1F
100
AcDbEntity
  8
0
  6
CONTINUOUS
 62
     7
100
AcDbCircle
 10
469.858749873
 20
682.8541245579
 30
0.0
 40
3.733146935710703
100
AcDbArc
 50
269.9998718811
 51
90.0001281189
  0
ARC
  5
4FB
330
1F
100
AcDbEntity
  8
0
  6
CONTINUOUS
 62
     7
100
AcDbCircle
 10
240.3587449198
 20
911.4541273832
 30
0.0
 40
3.733146935701592
100
AcDbArc
 50
89.9999862313
 51
270.0000137687
  0
ARC
  5
4FC
330
1F
100
AcDbEntity
  8
0
  6
CONTINUOUS
 62
     7
100
AcDbCircle
 10
240.3587442305
 20
911.4541273832
 30
0.0
 40
3.733146935701821
100
AcDbArc
 50
270.0000243481
 51
89.9999756519
  0
ARC
  5
4FD
330
1F
100
AcDbEntity
  8
0
  6
CONTINUOUS
 62
     7
100
AcDbCircle
 10
240.3589151096
 20
911.4541273832
 30
0.0
 40
3.470633183078518
100
AcDbArc
 50
269.9972051901
 51
90.0027948099
  0
ARC
  5
4FE
330
1F
100
AcDbEntity
  8
0
  6
CONTINUOUS
 62
     7
100
AcDbCircle
 10
240.3585715579
 20
911.4541273832
 30
0.0
 40
3.470633183324316
100
AcDbArc
 50
89.9971232041
 51
270.0028767959
  0
ARC
  5
4FF
330
1F
100
AcDbEntity
  8
0
  6
CONTINUOUS
 62
     7
100
AcDbCircle
 10
240.3587315413
 20
911.4541273832
 30
0.0
 40
2.000000327876722
100
AcDbArc
 50
270.0004089662
 51
89.9995910339
  0
ARC
  5
500
330
1F
100
AcDbEntity
  8
0
  6
CONTINUOUS
 62
     7
100
AcDbCircle
 10
240.3588047962
 20
911.4541273832
 30
0.0
 40
2.000000328695414
100
AcDbArc
 50
90.0016896327
 51
269.9983103673
  0
ARC
  5
501
330
1F
100
AcDbEntity
  8
0
  6
CONTINUOUS
 62
     7
100
AcDbCircle
 10
240.3587449198
 20
682.8541245579
 30
0.0
 40
3.733146935701478
100
AcDbArc
 50
89.9999862313
 51
270.0000137687
  0
ARC
  5
502
330
1F
100
AcDbEntity
  8
0
  6
CONTINUOUS
 62
     7
100
AcDbCircle
 10
240.3587442305
 20
682.8541245579
 30
0.0
 40
3.733146935701707
100
AcDbArc
 50
270.0000243481
 51
89.9999756519
  0
ARC
  5
503
330
1F
100
AcDbEntity
  8
0
  6
CONTINUOUS
 62
     7
100
AcDbCircle
 10
240.3589175926
 20
682.8541245579
 30
0.0
 40
3.470633183200409
100
AcDbArc
 50
269.9971641993
 51
90.0028358007
  0
ARC
  5
504
330
1F
100
AcDbEntity
  8
0
  6
CONTINUOUS
 62
     7
100
AcDbCircle
 10
240.3585740409
 20
682.8541245579
 30
0.0
 40
3.470633183200422
100
AcDbArc
 50
89.997164195
 51
270.002835805
  0
ARC
  5
505
330
1F
100
AcDbEntity
  8
0
  6
CONTINUOUS
 62
     7
100
AcDbCircle
 10
240.3587551255
 20
682.8541245579
 30
0.0
 40
2.000000327847322
100
AcDbArc
 50
90.0002666705
 51
269.9997333295
  0
ARC
  5
506
330
1F
100
AcDbEntity
  8
0
  6
CONTINUOUS
 62
     7
100
AcDbCircle
 10
240.3586818703
 20
682.8541245579
 30
0.0
 40
2.000000328847952
100
AcDbArc
 50
270.0018319347
 51
89.9981680653
  0
ARC
  5
507
330
1F
100
AcDbEntity
  8
0
  6
CONTINUOUS
 62
     7
100
AcDbCircle
 10
469.8587550304
 20
682.8541245579
 30
0.0
 40
1.993890851781919
100
AcDbArc
 50
90.000388077
 51
269.999611923
  0
ARC
  5
508
330
1F
100
AcDbEntity
  8
0
  6
CONTINUOUS
 62
     7
100
AcDbCircle
 10
469.8586833166
 20
682.8541245579
 30
0.0
 40
1.993890852585842
100
AcDbArc
 50
270.0016726668
 51
89.9983273332
  0
ARC
  5
509
330
1F
100
AcDbEntity
  8
0
  6
CONTINUOUS
 62
     7
100
AcDbCircle
 10
240.3587518716
 20
682.8541245579
 30
0.0
 40
1.993890851745376
100
AcDbArc
 50
90.0001739869
 51
269.9998260131
  0
ARC
  5
50A
330
1F
100
AcDbEntity
  8
0
  6
CONTINUOUS
 62
     7
100
AcDbCircle
 10
240.3587323118
 20
682.8541245579
 30
0.0
 40
1.993890851781919
100
AcDbArc
 50
270.000388077
 51
89.999611923
  0
ARC
  5
50B
330
1F
100
AcDbEntity
  8
0
  6
CONTINUOUS
 62
     7
100
AcDbCircle
 10
469.8587329874
 20
911.4541273832
 30
0.0
 40
1.993890851754576
100
AcDbArc
 50
270.0002453437
 51
89.9997546563
  0
ARC
  5
50C
330
1F
100
AcDbEntity
  8
0
  6
CONTINUOUS
 62
     7
100
AcDbCircle
 10
469.8588022177
 20
911.4541273832
 30
0.0
 40
1.993890852660007
100
AcDbArc
 50
90.0017440345
 51
269.9982559655
  0
ARC
  5
50D
330
1F
100
AcDbEntity
  8
0
  6
CONTINUOUS
 62
     7
100
AcDbCircle
 10
240.3587347951
 20
911.4541273832
 30
0.0
 40
1.99389085176676
100
AcDbArc
 50
270.0003167199
 51
89.9996832801
  0
ARC
  5
50E
330
1F
100
AcDbEntity
  8
0
  6
CONTINUOUS
 62
     7
100
AcDbCircle
 10
240.3587543548
 20
911.4541273832
 30
0.0
 40
1.993890851754576
100
AcDbArc
 50
90.0002453437
 51
269.9997546563
  0
ARC
  5
50F
330
1F
100
AcDbEntity
  8
0
  6
CONTINUOUS
 62
     7
100
AcDbCircle
 10
469.858687335
 20
682.8541245579
 30
0.0
 40
1.693893224867862
100
AcDbArc
 50
270.0018329829
 51
89.9981670171
  0
ARC
  5
510
330
1F
100
AcDbEntity
  8
0
  6
CONTINUOUS
 62
     7
100
AcDbCircle
 10
469.8587981996
 20
682.8541245579
 30
0.0
 40
1.693893224949147
100
AcDbArc
 50
90.0019170011
 51
269.9980829989
  0
ARC
  5
511
330
1F
100
AcDbEntity
  8
0
  6
CONTINUOUS
 62
     7
100
AcDbCircle
 10
469.8586873347
 20
911.4541273832
 30
0.0
 40
1.693893224867985
100
AcDbArc
 50
270.0018329928
 51
89.9981670072
  0
ARC
  5
512
330
1F
100
AcDbEntity
  8
0
  6
CONTINUOUS
 62
     7
100
AcDbCircle
 10
469.8587981993
 20
911.4541273832
 30
0.0
 40
1.693893224949251
100
AcDbArc
 50
90.0019169907
 51
269.9980830093
  0
ARC
  5
513
330
1F
100
AcDbEntity
  8
0
  6
CONTINUOUS
 62
     7
100
AcDbCircle
 10
240.3587602706
 20
682.8541245579
 30
0.0
 40
1.69389322406271
100
AcDbArc
 50
90.0004888941
 51
269.9995111059
  0
ARC
  5
514
330
1F
100
AcDbEntity
  8
0
  6
CONTINUOUS
 62
     7
100
AcDbCircle
 10
240.3586891426
 20
682.8541245579
 30
0.0
 40
1.693893224949147
100
AcDbArc
 50
270.0019170011
 51
89.9980829989
  0
ARC
  5
515
330
1F
100
AcDbEntity
  8
0
  6
CONTINUOUS
 62
     7
100
AcDbCircle
 10
240.3588000075
 20
911.4541273832
 30
0.0
 40
1.693893224867985
100
AcDbArc
 50
90.0018329928
 51
269.9981670072
  0
ARC
  5
516
330
1F
100
AcDbEntity
  8
0
  6
CONTINUOUS
 62
     7
100
AcDbCircle
 10
240.3587313632
 20
911.4541273832
 30
0.0
 40
1.693893224062823
100
AcDbArc
 50
270.0004888941
 51
89.9995111059
  0
ARC
  5
517
330
1F
100
AcDbEntity
  8
0
  6
CONTINUOUS
 62
     7
100
AcDbCircle
 10
469.8587396679
 20
682.8541245579
 30
0.0
 40
1.617055386306036
100
AcDbArc
 50
89.9999341861
 51
270.0000658139
  0
ARC
  5
518
330
1F
100
AcDbEntity
  8
0
  6
CONTINUOUS
 62
     7
100
AcDbCircle
 10
469.8587458664
 20
682.8541245579
 30
0.0
 40
1.617055386310796
100
AcDbArc
 50
269.9998461893
 51
90.0001538107
  0
ARC
  5
519
330
1F
100
AcDbEntity
  8
0
  6
CONTINUOUS
 62
     7
100
AcDbCircle
 10
240.3587439594
 20
682.8541245579
 30
0.0
 40
1.617055386306036
100
AcDbArc
 50
89.9999341861
 51
270.0000658139
  0
ARC
  5
51A
330
1F
100
AcDbEntity
  8
0
  6
CONTINUOUS
 62
     7
100
AcDbCircle
 10
240.3587451908
 20
682.8541245579
 30
0.0
 40
1.61705538630509
100
AcDbArc
 50
270.0000221828
 51
89.9999778172
  0
ARC
  5
51B
330
1F
100
AcDbEntity
  8
0
  6
CONTINUOUS
 62
     7
100
AcDbCircle
 10
469.8587396679
 20
911.4541273832
 30
0.0
 40
1.617055386305922
100
AcDbArc
 50
89.9999341861
 51
270.0000658139
  0
ARC
  5
51C
330
1F
100
AcDbEntity
  8
0
  6
CONTINUOUS
 62
     7
100
AcDbCircle
 10
469.8587458664
 20
911.4541273832
 30
0.0
 40
1.617055386310682
100
AcDbArc
 50
269.9998461893
 51
90.0001538107
  0
ARC
  5
51D
330
1F
100
AcDbEntity
  8
0
  6
CONTINUOUS
 62
     7
100
AcDbCircle
 10
240.3587451908
 20
911.4541273832
 30
0.0
 40
1.617055386304977
100
AcDbArc
 50
270.0000221828
 51
89.9999778172
  0
ARC
  5
51E
330
1F
100
AcDbEntity
  8
0
  6
CONTINUOUS
 62
     7
100
AcDbCircle
 10
240.3587439594
 20
911.4541273832
 30
0.0
 40
1.617055386305922
100
AcDbArc
 50
89.9999341861
 51
270.0000658139
  0
LWPOLYLINE
  5
51F
330
1F
100
AcDbEntity
  8
0
  6
CONTINUOUS
 62
     7
100
AcDbPolyline
 90
        7
 70
   128
 43
0.0
 10
241.6501624023
 20
921.8546424329
 10
241.6511607801
 20
921.7933390557
 10
241.6536716258
 20
921.6142569005
 10
241.655497018
 20
921.4726586162
 10
241.6576949393
 20
921.2960649549
 10
241.6602802908
 20
921.0880447447
 10
241.6632381713
 20
920.8560113131
  0
LWPOLYLINE
  5
520
330
1F
100
AcDbEntity
  8
0
  6
CONTINUOUS
 62
     7
100
AcDbPolyline
 90
        7
 70
   128
 43
0.0
 10
468.5673249399
 20
921.8546424329
 10
468.5667139923
 20
921.7934433639
 10
468.5645384228
 20
921.6145176708
 10
468.5626608765
 20
921.4729491889
 10
468.5602394378
 20
921.2963331758
 10
468.5573709642
 20
921.088216108
 10
468.554249171
 20
920.8560113131
  0
LINE
  5
521
330
1F
100
AcDbEntity
  8
0
  6
CONTINUOUS
 62
     7
100
AcDbLine
 10
468.554249171
 20
920.8560113131
 30
0.0
 11
241.6632381713
 21
920.8560113131
 31
0.0
  0
LINE
  5
522
330
1F
100
AcDbEntity
  8
0
  6
CONTINUOUS
 62
     7
100
AcDbLine
 10
231.1414909994
 20
920.5804962933
 30
0.0
 11
241.6632381713
 21
920.8560113131
 31
0.0
  0
LWPOLYLINE
  5
523
330
1F
100
AcDbEntity
  8
0
  6
CONTINUOUS
 62
     7
100
AcDbPolyline
 90
        5
 70
   128
 43
0.0
 10
231.1153469121
 20
921.5787772357
 10
231.1177161967
 20
921.4883271872
 10
231.1234680449
 20
921.2686095654
 10
231.1317903435
 20
920.9509242594
 10
231.1414909994
 20
920.5804962933
  0
LWPOLYLINE
  5
524
330
1F
100
AcDbEntity
  8
0
  6
CONTINUOUS
 62
     7
100
AcDbPolyline
 90
        7
 70
   128
 43
0.0
 10
468.554249171
 20
673.4522406279
 10
468.5573709642
 20
673.2200358331
 10
468.5602394378
 20
673.0119187653
 10
468.5626608765
 20
672.8353027522
 10
468.5645384228
 20
672.6937342703
 10
468.5667139923
 20
672.5148085772
 10
468.5673249399
 20
672.4536095082
  0
LINE
  5
525
330
1F
100
AcDbEntity
  8
0
  6
CONTINUOUS
 62
     7
100
AcDbLine
 10
468.554249171
 20
673.4522406279
 30
0.0
 11
479.0759963428
 21
673.7277556478
 31
0.0
  0
LWPOLYLINE
  5
526
330
1F
100
AcDbEntity
  8
0
  6
CONTINUOUS
 62
     7
100
AcDbPolyline
 90
        5
 70
   128
 43
0.0
 10
479.0759963428
 20
673.7277556478
 10
479.0856969988
 20
673.3573276817
 10
479.0940192973
 20
673.0396423757
 10
479.0997711455
 20
672.8199247538
 10
479.1021404302
 20
672.7294747054
  0
LWPOLYLINE
  5
527
330
1F
100
AcDbEntity
  8
0
  6
CONTINUOUS
 62
     7
100
AcDbPolyline
 90
        7
 70
   128
 43
0.0
 10
241.6632381713
 20
673.4522406279
 10
241.6602802908
 20
673.2202071964
 10
241.6576949393
 20
673.0121869862
 10
241.655497018
 20
672.8355933248
 10
241.6536716258
 20
672.6939950406
 10
241.6511607801
 20
672.5149128854
 10
241.6501624023
 20
672.4536095082
  0
LINE
  5
528
330
1F
100
AcDbEntity
  8
0
  6
CONTINUOUS
 62
     7
100
AcDbLine
 10
241.6632381713
 20
673.4522406279
 30
0.0
 11
468.554249171
 21
673.4522406279
 31
0.0
  0
LINE
  5
529
330
1F
100
AcDbEntity
  8
0
  6
CONTINUOUS
 62
     7
100
AcDbLine
 10
241.6632381713
 20
673.4522406279
 30
0.0
 11
231.1414909994
 21
673.7277556478
 31
0.0
  0
LWPOLYLINE
  5
52A
330
1F
100
AcDbEntity
  8
0
  6
CONTINUOUS
 62
     7
100
AcDbPolyline
 90
        5
 70
   128
 43
0.0
 10
231.1414909994
 20
673.7277556478
 10
231.1317903435
 20
673.3573276817
 10
231.1234680449
 20
673.0396423757
 10
231.1177161967
 20
672.8199247538
 10
231.1153469121
 20
672.7294747054
  0
LINE
  5
52B
330
1F
100
AcDbEntity
  8
0
  6
CONTINUOUS
 62
     7
100
AcDbLine
 10
479.5622435843
 20
920.0813520967
 30
0.0
 11
479.5622435843
 21
674.2268998444
 31
0.0
  0
LINE
  5
52C
330
1F
100
AcDbEntity
  8
0
  6
CONTINUOUS
 62
     7
100
AcDbLine
 10
479.5622435843
 20
920.0813520967
 30
0.0
 11
480.5608747041
 21
920.0813520967
 31
0.0
  0
LINE
  5
52D
330
1F
100
AcDbEntity
  8
0
  6
CONTINUOUS
 62
     7
100
AcDbLine
 10
480.5608747041
 20
674.2268998444
 30
0.0
 11
479.5622435843
 21
674.2268998444
 31
0.0
  0
LINE
  5
52E
330
1F
100
AcDbEntity
  8
0
  6
CONTINUOUS
 62
     7
100
AcDbLine
 10
479.0759963428
 20
920.5804962933
 30
0.0
 11
468.554249171
 21
920.8560113131
 31
0.0
  0
LWPOLYLINE
  5
52F
330
1F
100
AcDbEntity
  8
0
  6
CONTINUOUS
 62
     7
100
AcDbPolyline
 90
        5
 70
   128
 43
0.0
 10
479.1021404302
 20
921.5787772357
 10
479.0997711455
 20
921.4883271872
 10
479.0940192973
 20
921.2686095654
 10
479.0856969988
 20
920.9509242594
 10
479.0759963428
 20
920.5804962933
  0
LINE
  5
530
330
1F
100
AcDbEntity
  8
0
  6
CONTINUOUS
 62
     7
100
AcDbLine
 10
230.6552437579
 20
920.0813520967
 30
0.0
 11
229.6566126382
 21
920.0813520967
 31
0.0
  0
LINE
  5
531
330
1F
100
AcDbEntity
  8
0
  6
CONTINUOUS
 62
     7
100
AcDbLine
 10
230.6552437579
 20
920.0813520967
 30
0.0
 11
230.6552437579
 21
674.2268998444
 31
0.0
  0
LINE
  5
532
330
1F
100
AcDbEntity
  8
0
  6
CONTINUOUS
 62
     7
100
AcDbLine
 10
229.6566126382
 20
674.2268998444
 30
0.0
 11
230.6552437579
 21
674.2268998444
 31
0.0
  0
ARC
  5
533
330
1F
100
AcDbEntity
  8
0
  6
CONTINUOUS
 62
     7
100
AcDbCircle
 10
479.0373280831
 20
920.0564132911
 30
0.0
 40
0.5255075902610004
100
AcDbArc
 50
2.7200847688
 51
85.7802088746
  0
ARC
  5
534
330
1F
100
AcDbEntity
  8
0
  6
CONTINUOUS
 62
     7
100
AcDbCircle
 10
231.180118697
 20
920.0564528052
 30
0.0
 40
0.5254651999399892
100
AcDbArc
 50
94.2156973249
 51
177.2840090317
  0
LWPOLYLINE
  5
535
330
1F
100
AcDbEntity
  8
0
  6
CONTINUOUS
 62
     7
100
AcDbPolyline
 90
        5
 70
   128
 43
0.0
 10
230.7968196904
 20
673.8784138381
 10
230.5439171826
 20
673.6320454895
 10
230.309149388
 20
673.4033424675
 10
230.1468906438
 20
673.2452784001
 10
230.0824282205
 20
673.1824774563
  0
LWPOLYLINE
  5
536
330
1F
100
AcDbEntity
  8
0
  6
CONTINUOUS
 62
     7
100
AcDbPolyline
 90
        3
 70
   128
 43
0.0
 10
230.7968196904
 20
673.8784138381
 10
230.9759092962
 20
673.7606872141
 10
231.1414909994
 20
673.7277556478
  0
LWPOLYLINE
  5
537
330
1F
100
AcDbEntity
  8
0
  6
CONTINUOUS
 62
     7
100
AcDbPolyline
 90
        3
 70
   128
 43
0.0
 10
230.6552437579
 20
674.2268998444
 10
230.7012585437
 20
674.0175832331
 10
230.7968196904
 20
673.8784138381
  0
LWPOLYLINE
  5
538
330
1F
100
AcDbEntity
  8
0
  6
CONTINUOUS
 62
     7
100
AcDbPolyline
 90
        3
 70
   128
 43
0.0
 10
479.4206676518
 20
673.8784138381
 10
479.241578046
 20
673.7606872141
 10
479.0759963428
 20
673.7277556478
  0
LWPOLYLINE
  5
539
330
1F
100
AcDbEntity
  8
0
  6
CONTINUOUS
 62
     7
100
AcDbPolyline
 90
        5
 70
   128
 43
0.0
 10
479.4206676518
 20
673.8784138381
 10
479.6735701596
 20
673.6320454895
 10
479.9083379542
 20
673.4033424675
 10
480.0705966985
 20
673.2452784001
 10
480.1350591218
 20
673.1824774563
  0
LWPOLYLINE
  5
53A
330
1F
100
AcDbEntity
  8
0
  6
CONTINUOUS
 62
     7
100
AcDbPolyline
 90
        3
 70
   128
 43
0.0
 10
479.5622435843
 20
674.2268998444
 10
479.5162287986
 20
674.0175832331
 10
479.4206676518
 20
673.8784138381
  0
ARC
  5
53B
330
1F
100
AcDbEntity
  8
0
  6
CONTINUOUS
 62
     7
100
AcDbCircle
 10
469.858849359
 20
682.8541245579
 30
0.0
 40
4.232842476549527
100
AcDbArc
 50
269.9985403636
 51
90.0014596364
  0
ARC
  5
53C
330
1F
100
AcDbEntity
  8
0
  6
CONTINUOUS
 62
     7
100
AcDbCircle
 10
469.8586386582
 20
682.8541245579
 30
0.0
 40
4.232842476425918
100
AcDbArc
 50
89.9986075893
 51
270.0013924107
  0
ARC
  5
53D
330
1F
100
AcDbEntity
  8
0
  6
CONTINUOUS
 62
     7
100
AcDbCircle
 10
469.8585939587
 20
911.4541273832
 30
0.0
 40
4.232842477748114
100
AcDbArc
 50
89.9980025372
 51
270.0019974629
  0
ARC
  5
53E
330
1F
100
AcDbEntity
  8
0
  6
CONTINUOUS
 62
     7
100
AcDbCircle
 10
469.8588965416
 20
911.4541273832
 30
0.0
 40
4.232842478014378
100
AcDbArc
 50
269.9979017
 51
90.0020983
  0
ARC
  5
53F
330
1F
100
AcDbEntity
  8
0
  6
CONTINUOUS
 62
     7
100
AcDbCircle
 10
240.3588486841
 20
682.8541245579
 30
0.0
 40
4.232842476425918
100
AcDbArc
 50
269.9986075893
 51
90.0013924107
  0
ARC
  5
540
330
1F
100
AcDbEntity
  8
0
  6
CONTINUOUS
 62
     7
100
AcDbCircle
 10
240.3586379833
 20
682.8541245579
 30
0.0
 40
4.232842476549527
100
AcDbArc
 50
89.9985403636
 51
270.0014596364
  0
ARC
  5
541
330
1F
100
AcDbEntity
  8
0
  6
CONTINUOUS
 62
     7
100
AcDbCircle
 10
240.3588511671
 20
911.4541273832
 30
0.0
 40
4.232842476486876
100
AcDbArc
 50
269.9985739786
 51
90.0014260214
  0
ARC
  5
542
330
1F
100
AcDbEntity
  8
0
  6
CONTINUOUS
 62
     7
100
AcDbCircle
 10
240.3586404663
 20
911.4541273832
 30
0.0
 40
4.232842476486884
100
AcDbArc
 50
89.9985739743
 51
270.0014260257
  0
ARC
  5
543
330
1F
100
AcDbEntity
  8
0
  6
CONTINUOUS
 62
     7
100
AcDbCircle
 10
469.8592603028
 20
682.8541245579
 30
0.0
 40
1.117076845229449
100
AcDbArc
 50
90.02660852
 51
269.97339148
  0
ARC
  5
544
330
1F
100
AcDbEntity
  8
0
  6
CONTINUOUS
 62
     7
100
AcDbCircle
 10
469.8581804988
 20
682.8541245579
 30
0.0
 40
1.117076865649149
100
AcDbArc
 50
270.0287755103
 51
89.9712244897
  0
ARC
  5
545
330
1F
100
AcDbEntity
  8
0
  6
CONTINUOUS
 62
     7
100
AcDbCircle
 10
469.859260303
 20
911.4541273832
 30
0.0
 40
1.117076845229754
100
AcDbArc
 50
90.0266085285
 51
269.9733914715
  0
ARC
  5
546
330
1F
100
AcDbEntity
  8
0
  6
CONTINUOUS
 62
     7
100
AcDbCircle
 10
469.8582277188
 20
911.4541273832
 30
0.0
 40
1.117076842932227
100
AcDbArc
 50
270.0263535593
 51
89.9736464407
  0
ARC
  5
547
330
1F
100
AcDbEntity
  8
0
  6
CONTINUOUS
 62
     7
100
AcDbCircle
 10
240.3593068435
 20
682.8541245579
 30
0.0
 40
1.117076865649149
100
AcDbArc
 50
90.0287755102
 51
269.9712244898
  0
ARC
  5
548
330
1F
100
AcDbEntity
  8
0
  6
CONTINUOUS
 62
     7
100
AcDbCircle
 10
240.3582270394
 20
682.8541245579
 30
0.0
 40
1.117076845229449
100
AcDbArc
 50
270.02660852
 51
89.97339148
  0
ARC
  5
549
330
1F
100
AcDbEntity
  8
0
  6
CONTINUOUS
 62
     7
100
AcDbCircle
 10
240.3582270392
 20
911.4541273832
 30
0.0
 40
1.117076845229754
100
AcDbArc
 50
270.0266085285
 51
89.9733914715
  0
ARC
  5
54A
330
1F
100
AcDbEntity
  8
0
  6
CONTINUOUS
 62
     7
100
AcDbCircle
 10
240.3592596235
 20
911.4541273832
 30
0.0
 40
1.117076842932227
100
AcDbArc
 50
90.0263535593
 51
269.9736464407
  0
ENDSEC
  0
SECTION
  2
OBJECTS
  0
DICTIONARY
  5
C
330
0
100
AcDbDictionary
  3
ACAD_GROUP
350
D
  3
ACAD_MLINESTYLE
350
17
  0
DICTIONARY
  5
D
102
{ACAD_REACTORS
330
C
102
}
330
C
100
AcDbDictionary
  0
DICTIONARY
  5
17
102
{ACAD_REACTORS
330
C
102
}
330
C
100
AcDbDictionary
  3
STANDARD
350
18
  0
MLINESTYLE
  5
18
102
{ACAD_REACTORS
330
17
102
}
330
17
100
AcDbMlineStyle
  2
Standard
 70
     0
  3

 62
   256
 51
90.0
 52
90.0
 71
     2
 49
0.5
 62
   256
  6
BYLAYER
 49
-0.5
 62
   256
  6
BYLAYER
  0
ENDSEC
  0
EOF
