  0
SECTION
  2
HEADER
  9
$ACADVER
  1
AC1014
  9
$ACADMAINTVER
 70
     9
  9
$DWGCODEPAGE
  3
ANSI_1252
  9
$INSBASE
 10
0.0
 20
0.0
 30
0.0
  9
$EXTMIN
 10
0.0
 20
0.0
 30
0.0
  9
$EXTMAX
 10
2100.0
 20
1485.0
 30
0.0
  9
$LIMMIN
 10
0.0
 20
0.0
  9
$LIMMAX
 10
2100.0
 20
1485.0
  9
$ORTHOMODE
 70
     0
  9
$REGENMODE
 70
     1
  9
$FILLMODE
 70
     1
  9
$QTEXTMODE
 70
     0
  9
$MIRRTEXT
 70
     1
  9
$DRAGMODE
 70
     2
  9
$LTSCALE
 40
5.0
  9
$OSMODE
 70
    37
  9
$ATTMODE
 70
     1
  9
$TEXTSIZE
 40
17.5
  9
$TRACEWID
 40
1.0
  9
$TEXTSTYLE
  7
STANDARD
  9
$CLAYER
  8
0
  9
$CELTYPE
  6
BYLAYER
  9
$CECOLOR
 62
   256
  9
$CELTSCALE
 40
1.0
  9
$DELOBJ
 70
     1
  9
$DISPSILH
 70
     0
  9
$DIMSCALE
 40
1.0
  9
$DIMASZ
 40
30.0
  9
$DIMEXO
 40
5.0
  9
$DIMDLI
 40
3.75
  9
$DIMRND
 40
0.0
  9
$DIMDLE
 40
0.0
  9
$DIMEXE
 40
5.0
  9
$DIMTP
 40
0.0
  9
$DIMTM
 40
0.0
  9
$DIMTXT
 40
17.5
  9
$DIMCEN
 40
2.5
  9
$DIMTSZ
 40
0.0
  9
$DIMTOL
 70
     0
  9
$DIMLIM
 70
     0
  9
$DIMTIH
 70
     1
  9
$DIMTOH
 70
     1
  9
$DIMSE1
 70
     0
  9
$DIMSE2
 70
     0
  9
$DIMTAD
 70
     1
  9
$DIMZIN
 70
     0
  9
$DIMBLK
  1

  9
$DIMASO
 70
     1
  9
$DIMSHO
 70
     1
  9
$DIMPOST
  1

  9
$DIMAPOST
  1

  9
$DIMALT
 70
     0
  9
$DIMALTD
 70
     3
  9
$DIMALTF
 40
0.0393700787
  9
$DIMLFAC
 40
1.0
  9
$DIMTOFL
 70
     1
  9
$DIMTVP
 40
0.0
  9
$DIMTIX
 70
     0
  9
$DIMSOXD
 70
     0
  9
$DIMSAH
 70
     0
  9
$DIMBLK1
  1

  9
$DIMBLK2
  1

  9
$DIMSTYLE
  2
ISO-25
  9
$DIMCLRD
 70
     0
  9
$DIMCLRE
 70
     0
  9
$DIMCLRT
 70
     0
  9
$DIMTFAC
 40
1.0
  9
$DIMGAP
 40
7.62
  9
$DIMJUST
 70
     0
  9
$DIMSD1
 70
     0
  9
$DIMSD2
 70
     0
  9
$DIMTOLJ
 70
     0
  9
$DIMTZIN
 70
     0
  9
$DIMALTZ
 70
     0
  9
$DIMALTTZ
 70
     0
  9
$DIMFIT
 70
     3
  9
$DIMUPT
 70
     0
  9
$DIMUNIT
 70
     2
  9
$DIMDEC
 70
     2
  9
$DIMTDEC
 70
     2
  9
$DIMALTU
 70
     2
  9
$DIMALTTD
 70
     3
  9
$DIMTXSTY
  7
STANDARD
  9
$DIMAUNIT
 70
     0
  9
$LUNITS
 70
     2
  9
$LUPREC
 70
     2
  9
$SKETCHINC
 40
1.0
  9
$FILLETRAD
 40
10.0
  9
$AUNITS
 70
     0
  9
$AUPREC
 70
     2
  9
$MENU
  1
.
  9
$ELEVATION
 40
0.0
  9
$PELEVATION
 40
0.0
  9
$THICKNESS
 40
0.0
  9
$LIMCHECK
 70
     0
  9
$CHAMFERA
 40
10.0
  9
$CHAMFERB
 40
10.0
  9
$CHAMFERC
 40
20.0
  9
$CHAMFERD
 40
0.0
  9
$SKPOLY
 70
     0
  9
$TDCREATE
 40
2455586.535556204
  9
$TDUPDATE
 40
2455586.535556215
  9
$TDINDWG
 40
0.0000000116
  9
$TDUSRTIMER
 40
0.0000000116
  9
$USRTIMER
 70
     1
  9
$ANGBASE
 50
0.0
  9
$ANGDIR
 70
     0
  9
$PDMODE
 70
     0
  9
$PDSIZE
 40
-1.0
  9
$PLINEWID
 40
0.0
  9
$COORDS
 70
     1
  9
$SPLFRAME
 70
     0
  9
$SPLINETYPE
 70
     6
  9
$SPLINESEGS
 70
     8
  9
$ATTDIA
 70
     0
  9
$ATTREQ
 70
     1
  9
$HANDLING
 70
     1
  9
$HANDSEED
  5
5BC
  9
$SURFTAB1
 70
     6
  9
$SURFTAB2
 70
     6
  9
$SURFTYPE
 70
     6
  9
$SURFU
 70
     6
  9
$SURFV
 70
     6
  9
$UCSNAME
  2

  9
$UCSORG
 10
0.0
 20
0.0
 30
0.0
  9
$UCSXDIR
 10
1.0
 20
0.0
 30
0.0
  9
$UCSYDIR
 10
0.0
 20
1.0
 30
0.0
  9
$PUCSNAME
  2

  9
$PUCSORG
 10
0.0
 20
0.0
 30
0.0
  9
$PUCSXDIR
 10
1.0
 20
0.0
 30
0.0
  9
$PUCSYDIR
 10
0.0
 20
1.0
 30
0.0
  9
$USERI1
 70
     0
  9
$USERI2
 70
     0
  9
$USERI3
 70
     0
  9
$USERI4
 70
     0
  9
$USERI5
 70
     0
  9
$USERR1
 40
0.0
  9
$USERR2
 40
0.0
  9
$USERR3
 40
0.0
  9
$USERR4
 40
0.0
  9
$USERR5
 40
0.0
  9
$WORLDVIEW
 70
     1
  9
$SHADEDGE
 70
     3
  9
$SHADEDIF
 70
    70
  9
$TILEMODE
 70
     1
  9
$MAXACTVP
 70
    64
  9
$PINSBASE
 10
0.0
 20
0.0
 30
0.0
  9
$PLIMCHECK
 70
     0
  9
$PEXTMIN
 10
1.0000000000E+20
 20
1.0000000000E+20
 30
1.0000000000E+20
  9
$PEXTMAX
 10
-1.0000000000E+20
 20
-1.0000000000E+20
 30
-1.0000000000E+20
  9
$PLIMMIN
 10
0.0
 20
0.0
  9
$PLIMMAX
 10
420.0
 20
297.0
  9
$UNITMODE
 70
     0
  9
$VISRETAIN
 70
     1
  9
$PLINEGEN
 70
     0
  9
$PSLTSCALE
 70
     1
  9
$TREEDEPTH
 70
  3020
  9
$PICKSTYLE
 70
     1
  9
$CMLSTYLE
  2
STANDARD
  9
$CMLJUST
 70
     0
  9
$CMLSCALE
 40
20.0
  9
$PROXYGRAPHICS
 70
     1
  9
$MEASUREMENT
 70
     1
  0
ENDSEC
  0
SECTION
  2
CLASSES
  0
CLASS
  1
ACDBDICTIONARYWDFLT
  2
AcDbDictionaryWithDefault
  3
ObjectDBX Classes
 90
        0
280
     0
281
     0
  0
CLASS
  1
VISUALSTYLE
  2
AcDbVisualStyle
  3
ObjectDBX Classes
 90
     4095
280
     0
281
     0
  0
CLASS
  1
MATERIAL
  2
AcDbMaterial
  3
ObjectDBX Classes
 90
     1153
280
     0
281
     0
  0
CLASS
  1
XRECORD
  2
AcDbXrecord
  3
AutoCAD 2000
 90
        0
280
     0
281
     0
  0
CLASS
  1
LWPOLYLINE
  2
AcDbPolyline
  3
AutoCAD 2000
 90
        0
280
     0
281
     1
  0
CLASS
  1
HATCH
  2
AcDbHatch
  3
AutoCAD 2000
 90
        0
280
     0
281
     1
  0
ENDSEC
  0
SECTION
  2
TABLES
  0
TABLE
  2
VPORT
  5
8
330
0
100
AcDbSymbolTable
 70
     1
  0
VPORT
  5
29
330
8
100
AcDbSymbolTableRecord
100
AcDbViewportTableRecord
  2
*ACTIVE
 70
     0
 10
0.0
 20
0.0
 11
1.0
 21
1.0
 12
1050.0
 22
742.5
 13
0.0
 23
0.0
 14
10.0
 24
10.0
 15
10.0
 25
10.0
 16
0.0
 26
0.0
 36
1.0
 17
0.0
 27
0.0
 37
0.0
 40
1485.0
 41
1.4141414141
 42
50.0
 43
0.0
 44
0.0
 50
0.0
 51
0.0
 71
     0
 72
  2000
 73
     1
 74
     3
 75
     0
 76
     0
 77
     0
 78
     0
  0
ENDTAB
  0
TABLE
  2
LTYPE
  5
5
330
0
100
AcDbSymbolTable
 70
     6
  0
LTYPE
  5
14
330
5
100
AcDbSymbolTableRecord
100
AcDbLinetypeTableRecord
  2
BYBLOCK
 70
     0
  3

 72
    65
 73
     0
 40
0.0
  0
LTYPE
  5
15
330
5
100
AcDbSymbolTableRecord
100
AcDbLinetypeTableRecord
  2
BYLAYER
 70
     0
  3

 72
    65
 73
     0
 40
0.0
  0
LTYPE
  5
16
330
5
100
AcDbSymbolTableRecord
100
AcDbLinetypeTableRecord
  2
CONTINUOUS
 70
     0
  3
Solid line
 72
    65
 73
     0
 40
0.0
  0
LTYPE
  5
3F
330
5
100
AcDbSymbolTableRecord
100
AcDbLinetypeTableRecord
  2
HIDDEN
 70
     0
  3
Hidden __ __ __ __ __ __ __ __ __ __ __ __ __ __
 72
    65
 73
     2
 40
1.905
 49
1.27
 74
     0
 49
-0.635
 74
     0
  0
LTYPE
  5
40
330
5
100
AcDbSymbolTableRecord
100
AcDbLinetypeTableRecord
  2
PHANTOM
 70
     0
  3
Phantom ______  __  __  ______  __  __  ______
 72
    65
 73
     6
 40
12.7
 49
6.35
 74
     0
 49
-1.27
 74
     0
 49
1.27
 74
     0
 49
-1.27
 74
     0
 49
1.27
 74
     0
 49
-1.27
 74
     0
  0
LTYPE
  5
41
330
5
100
AcDbSymbolTableRecord
100
AcDbLinetypeTableRecord
  2
CENTER
 70
     0
  3
Center ____ _ ____ _ ____ _ ____ _ ____ _ ____
 72
    65
 73
     4
 40
10.16
 49
6.35
 74
     0
 49
-1.27
 74
     0
 49
1.27
 74
     0
 49
-1.27
 74
     0
  0
LTYPE
  5
42
330
5
100
AcDbSymbolTableRecord
100
AcDbLinetypeTableRecord
  2
CENTERX2
 70
     0
  3
Center (2x) ________  __  ________  __  _____
 72
    65
 73
     4
 40
20.32
 49
12.7
 74
     0
 49
-2.54
 74
     0
 49
2.54
 74
     0
 49
-2.54
 74
     0
  0
LTYPE
  5
43
330
5
100
AcDbSymbolTableRecord
100
AcDbLinetypeTableRecord
  2
DOT2
 70
     0
  3
Dot (.5x) ........................................
 72
    65
 73
     2
 40
0.635
 49
0.0
 74
     0
 49
-0.635
 74
     0
  0
ENDTAB
  0
TABLE
  2
LAYER
  5
2
330
0
100
AcDbSymbolTable
 70
     1
  0
LAYER
  5
10
330
2
100
AcDbSymbolTableRecord
100
AcDbLayerTableRecord
  2
0
 70
     0
 62
     7
  6
CONTINUOUS
  0
ENDTAB
  0
TABLE
  2
STYLE
  5
3
330
0
100
AcDbSymbolTable
 70
     1
  0
STYLE
  5
11
330
3
100
AcDbSymbolTableRecord
100
AcDbTextStyleTableRecord
  2
STANDARD
 70
     0
 40
0.0
 41
1.0
 50
0.0
 71
     0
 42
2.5
  3
txt
  4

  0
ENDTAB
  0
TABLE
  2
VIEW
  5
6
330
0
100
AcDbSymbolTable
 70
     0
  0
ENDTAB
  0
TABLE
  2
UCS
  5
7
330
0
100
AcDbSymbolTable
 70
     0
  0
ENDTAB
  0
TABLE
  2
APPID
  5
9
330
0
100
AcDbSymbolTable
 70
     1
  0
APPID
  5
12
330
9
100
AcDbSymbolTableRecord
100
AcDbRegAppTableRecord
  2
ACAD
 70
     0
  0
ENDTAB
  0
TABLE
  2
DIMSTYLE
  5
A
330
0
100
AcDbSymbolTable
 70
     1
  0
DIMSTYLE
105
27
330
A
100
AcDbSymbolTableRecord
100
AcDbDimStyleTableRecord
  2
ISO-25
 70
     0
  3

  4

  5

  6

  7

 40
1.0
 41
2.5
 42
0.625
 43
3.75
 44
1.25
 45
0.0
 46
0.0
 47
0.0
 48
0.0
140
2.5
141
2.5
142
0.0
143
0.0393700787
144
1.0
145
0.0
146
1.0
147
0.625
 71
     0
 72
     0
 73
     0
 74
     0
 75
     0
 76
     0
 77
     1
 78
     8
170
     0
171
     3
172
     1
173
     0
174
     0
175
     0
176
     0
177
     0
178
     0
270
     2
271
     2
272
     2
273
     2
274
     3
340
11
275
     0
280
     0
281
     0
282
     0
283
     0
284
     8
285
     0
286
     0
287
     3
288
     0
  0
ENDTAB
  0
TABLE
  2
BLOCK_RECORD
  5
1
330
0
100
AcDbSymbolTable
 70
     1
  0
BLOCK_RECORD
  5
1F
330
1
100
AcDbSymbolTableRecord
100
AcDbBlockTableRecord
  2
*MODEL_SPACE
  0
BLOCK_RECORD
  5
1B
330
1
100
AcDbSymbolTableRecord
100
AcDbBlockTableRecord
  2
*PAPER_SPACE
  0
BLOCK_RECORD
  5
23
330
1
100
AcDbSymbolTableRecord
100
AcDbBlockTableRecord
  2
*PAPER_SPACE0
  0
ENDTAB
  0
ENDSEC
  0
SECTION
  2
BLOCKS
  0
BLOCK
  5
20
330
1F
100
AcDbEntity
  8
0
100
AcDbBlockBegin
  2
*MODEL_SPACE
 70
     0
 10
0.0
 20
0.0
 30
0.0
  3
*MODEL_SPACE
  1

  0
ENDBLK
  5
21
330
1F
100
AcDbEntity
  8
0
100
AcDbBlockEnd
  0
BLOCK
  5
1C
330
1B
100
AcDbEntity
 67
     1
  8
0
100
AcDbBlockBegin
  2
*PAPER_SPACE
 70
     0
 10
0.0
 20
0.0
 30
0.0
  3
*PAPER_SPACE
  1

  0
ENDBLK
  5
1D
330
1B
100
AcDbEntity
 67
     1
  8
0
100
AcDbBlockEnd
  0
BLOCK
  5
24
330
23
100
AcDbEntity
  8
0
100
AcDbBlockBegin
  2
*PAPER_SPACE0
 70
     0
 10
0.0
 20
0.0
 30
0.0
  3
*PAPER_SPACE0
  1

  0
ENDBLK
  5
25
330
23
100
AcDbEntity
  8
0
100
AcDbBlockEnd
  0
ENDSEC
  0
SECTION
  2
ENTITIES
  0
LINE
  5
44
330
1F
100
AcDbEntity
  8
0
  6
CONTINUOUS
 62
     7
100
AcDbLine
 10
1099.7532773808
 20
739.3056968593
 30
0.0
 11
1099.7532773808
 21
744.8023477935
 31
0.0
  0
LINE
  5
45
330
1F
100
AcDbEntity
  8
0
  6
CONTINUOUS
 62
     7
100
AcDbLine
 10
1099.7532773808
 20
739.3056968593
 30
0.0
 11
1087.7707181543
 21
739.7241363667
 31
0.0
  0
ARC
  5
46
330
1F
100
AcDbEntity
  8
0
  6
CONTINUOUS
 62
     7
100
AcDbCircle
 10
974.6936259781
 20
742.4724426747
 30
0.0
 40
113.1104856439151
100
AcDbArc
 50
358.607716611
 51
1.3923028048
  0
LINE
  5
47
330
1F
100
AcDbEntity
  8
0
  6
CONTINUOUS
 62
     7
100
AcDbLine
 10
1099.7532773808
 20
744.8023477935
 30
0.0
 11
1087.770717223
 21
745.220787301
 31
0.0
  0
LINE
  5
48
330
1F
100
AcDbEntity
  8
0
  6
CONTINUOUS
 62
     7
100
AcDbLine
 10
1087.770717223
 20
1015.3906116628
 30
0.0
 11
1099.7532773808
 21
1015.8090511703
 31
0.0
  0
LINE
  5
49
330
1F
100
AcDbEntity
  8
0
  6
CONTINUOUS
 62
     7
100
AcDbLine
 10
1099.7532773808
 20
1015.8090511703
 30
0.0
 11
1099.7532773808
 21
744.8023477935
 31
0.0
  0
LINE
  5
4A
330
1F
100
AcDbEntity
  8
0
  6
CONTINUOUS
 62
     7
100
AcDbLine
 10
1087.770717223
 20
745.220787301
 30
0.0
 11
1087.7051884353
 21
747.2020903968
 31
0.0
  0
LINE
  5
4B
330
1F
100
AcDbEntity
  8
0
  6
CONTINUOUS
 62
     7
100
AcDbLine
 10
1087.7051884353
 20
747.2020903968
 30
0.0
 11
1087.7051884353
 21
1013.4093085669
 31
0.0
  0
LINE
  5
4C
330
1F
100
AcDbEntity
  8
0
  6
CONTINUOUS
 62
     7
100
AcDbLine
 10
1087.7051884353
 20
1013.4093085669
 30
0.0
 11
1087.770717223
 21
1015.3906116628
 31
0.0
  0
LINE
  5
4D
330
1F
100
AcDbEntity
  8
0
  6
CONTINUOUS
 62
     7
100
AcDbLine
 10
1099.7532773808
 20
1015.8090511703
 30
0.0
 11
1099.7532773808
 21
1021.3057021045
 31
0.0
  0
ARC
  5
4E
330
1F
100
AcDbEntity
  8
0
  6
CONTINUOUS
 62
     7
100
AcDbCircle
 10
974.6936259781
 20
1018.138956289
 30
0.0
 40
113.1104856439176
100
AcDbArc
 50
358.6076971952
 51
1.392283389
  0
LINE
  5
4F
330
1F
100
AcDbEntity
  8
0
  6
CONTINUOUS
 62
     7
100
AcDbLine
 10
1099.7532773808
 20
1021.3057021045
 30
0.0
 11
1087.7707181543
 21
1020.887262597
 31
0.0
  0
LINE
  5
50
330
1F
100
AcDbEntity
  8
0
  6
CONTINUOUS
 62
     7
100
AcDbLine
 10
1085.3470973715
 20
1013.4093085669
 30
0.0
 11
1085.3914665103
 21
1015.5226210498
 31
0.0
  0
LINE
  5
51
330
1F
100
AcDbEntity
  8
0
  6
CONTINUOUS
 62
     7
100
AcDbLine
 10
1085.3914665103
 20
1015.5326048278
 30
0.0
 11
1085.3909542829
 21
1015.5225018405
 31
0.0
  0
ARC
  5
52
330
1F
100
AcDbEntity
  8
0
  6
CONTINUOUS
 62
     7
100
AcDbCircle
 10
1110.9363724305
 20
1423.5180013116
 30
0.0
 40
408.7843259055656
100
AcDbArc
 50
266.4172584721
 51
266.7513316326
  0
LINE
  5
53
330
1F
100
AcDbEntity
  8
0
  6
CONTINUOUS
 62
     7
100
AcDbLine
 10
1085.3470973715
 20
1013.4093085669
 30
0.0
 11
1087.7051884353
 21
1013.4093085669
 31
0.0
  0
LINE
  5
54
330
1F
100
AcDbEntity
  8
0
  6
CONTINUOUS
 62
     7
100
AcDbLine
 10
1085.3909542829
 20
745.0888971232
 30
0.0
 11
1085.3914665103
 21
745.0787941359
 31
0.0
  0
LINE
  5
55
330
1F
100
AcDbEntity
  8
0
  6
CONTINUOUS
 62
     7
100
AcDbLine
 10
1085.3470973715
 20
747.2020903968
 30
0.0
 11
1085.3909542829
 21
745.0888971232
 31
0.0
  0
LINE
  5
56
330
1F
100
AcDbEntity
  8
0
  6
CONTINUOUS
 62
     7
100
AcDbLine
 10
1085.3470973715
 20
747.2020903968
 30
0.0
 11
1087.7051884353
 21
747.2020903968
 31
0.0
  0
ARC
  5
57
330
1F
100
AcDbEntity
  8
0
  6
CONTINUOUS
 62
     7
100
AcDbCircle
 10
1110.9365571527
 20
337.0904702837
 30
0.0
 40
408.7872590377694
100
AcDbArc
 50
93.2486709649
 51
93.5827415981
  0
ARC
  5
58
330
1F
100
AcDbEntity
  8
0
  6
CONTINUOUS
 62
     7
100
AcDbCircle
 10
1066.4817388648
 20
1017.1519059641
 30
0.0
 40
18.97895070329091
100
AcDbArc
 50
355.1055219353
 51
4.8943462509
  0
ARC
  5
59
330
1F
100
AcDbEntity
  8
0
  6
CONTINUOUS
 62
     7
100
AcDbCircle
 10
1087.8594290518
 20
1018.3919067881
 30
0.0
 40
2.496932164911193
100
AcDbArc
 50
92.0360304428
 51
171.2635807453
  0
ARC
  5
5A
330
1F
100
AcDbEntity
  8
0
  6
CONTINUOUS
 62
     7
100
AcDbCircle
 10
1066.4815782887
 20
743.4594984374
 30
0.0
 40
18.97911115781715
100
AcDbArc
 50
355.105678752
 51
4.8944201084
  0
ARC
  5
5B
330
1F
100
AcDbEntity
  8
0
  6
CONTINUOUS
 62
     7
100
AcDbCircle
 10
1087.8594290518
 20
742.2194921756
 30
0.0
 40
2.496932164911185
100
AcDbArc
 50
188.7364192547
 51
267.9639695572
  0
LINE
  5
5C
330
1F
100
AcDbEntity
  8
0
  6
CONTINUOUS
 62
     7
100
AcDbLine
 10
1085.3470973715
 20
1013.4093085669
 30
0.0
 11
1085.3470973715
 21
885.6953344673
 31
0.0
  0
LINE
  5
5D
330
1F
100
AcDbEntity
  8
0
  6
CONTINUOUS
 62
     7
100
AcDbLine
 10
1085.3470973715
 20
874.9160644964
 30
0.0
 11
1085.3470973715
 21
747.2020903968
 31
0.0
  0
LINE
  5
5E
330
1F
100
AcDbEntity
  8
0
  6
CONTINUOUS
 62
     7
100
AcDbLine
 10
1085.3470973715
 20
885.6953344673
 30
0.0
 11
1085.3470973715
 21
874.9160644964
 31
0.0
  0
LINE
  5
5F
330
1F
100
AcDbEntity
  8
0
  6
CONTINUOUS
 62
     7
100
AcDbLine
 10
1085.3470973715
 20
1018.906406536
 30
0.0
 11
1084.1432837814
 21
1013.2444719218
 31
0.0
  0
LINE
  5
60
330
1F
100
AcDbEntity
  8
0
  6
CONTINUOUS
 62
     7
100
AcDbLine
 10
1085.3914674416
 20
1018.7747845792
 30
0.0
 11
1085.3470973715
 21
1018.906406536
 31
0.0
  0
LINE
  5
61
330
1F
100
AcDbEntity
  8
0
  6
CONTINUOUS
 62
     7
100
AcDbLine
 10
1084.5046164513
 20
1009.4458977126
 30
0.0
 11
1085.3470973715
 21
1013.4093085669
 31
0.0
  0
ARC
  5
62
330
1F
100
AcDbEntity
  8
0
  6
CONTINUOUS
 62
     7
100
AcDbCircle
 10
1058.7918017725
 20
1009.2984806317
 30
0.0
 40
25.71323726219107
100
AcDbArc
 50
0.3284853925
 51
8.8287201399
  0
ARC
  5
63
330
1F
100
AcDbEntity
  8
0
  6
CONTINUOUS
 62
     7
100
AcDbCircle
 10
1050.931288295
 20
751.9424057894
 30
0.0
 40
33.58231594384543
100
AcDbArc
 50
352.1684124724
 51
358.6743819953
  0
LINE
  5
64
330
1F
100
AcDbEntity
  8
0
  6
CONTINUOUS
 62
     7
100
AcDbLine
 10
1085.3470973715
 20
747.2020903968
 30
0.0
 11
1084.5046164513
 21
751.1655012511
 31
0.0
  0
LINE
  5
65
330
1F
100
AcDbEntity
  8
0
  6
CONTINUOUS
 62
     7
100
AcDbLine
 10
1085.3914674416
 20
741.8402353667
 30
0.0
 11
1085.3470973715
 21
741.7049924277
 31
0.0
  0
LINE
  5
66
330
1F
100
AcDbEntity
  8
0
  6
CONTINUOUS
 62
     7
100
AcDbLine
 10
1085.3470973715
 20
741.7049924277
 30
0.0
 11
1084.1432837814
 21
747.3669270419
 31
0.0
  0
LINE
  5
67
330
1F
100
AcDbEntity
  8
0
  6
CONTINUOUS
 62
     7
100
AcDbLine
 10
1085.3470973715
 20
885.6953344673
 30
0.0
 11
1084.9124342248
 21
885.7029214867
 31
0.0
  0
ELLIPSE
  5
68
330
1F
100
AcDbEntity
  8
0
  6
CONTINUOUS
 62
     7
100
AcDbEllipse
 10
1084.7413311815
 20
885.6995463749
 30
0.0
 11
0.0007511895885272679
 21
0.8001287847866934
 31
0.0
210
0.0
220
0.0
230
0.9999999999999999
 40
0.2138423392
 41
4.716796238550398
 42
6.287118746122877
  0
LINE
  5
69
330
1F
100
AcDbEntity
  8
0
  6
CONTINUOUS
 62
     7
100
AcDbLine
 10
1084.0293243572
 20
986.2427333735
 30
0.0
 11
1084.0293243572
 21
886.4872399152
 31
0.0
  0
LINE
  5
6A
330
1F
100
AcDbEntity
  8
0
  6
CONTINUOUS
 62
     7
100
AcDbLine
 10
1084.0293243572
 20
986.2427333735
 30
0.0
 11
1084.5618490175
 21
988.4406322979
 31
0.0
  0
LINE
  5
6B
330
1F
100
AcDbEntity
  8
0
  6
CONTINUOUS
 62
     7
100
AcDbLine
 10
1084.5618490175
 20
988.4406322979
 30
0.0
 11
1084.5618490175
 21
1007.7483425282
 31
0.0
  0
ELLIPSE
  5
6C
330
1F
100
AcDbEntity
  8
0
  6
CONTINUOUS
 62
     7
100
AcDbEllipse
 10
1083.390247617
 20
1007.7376920533
 30
0.0
 11
0.002374878144564718
 21
5.500219689613801
 31
0.0
210
0.0
220
0.0
230
1.0
 40
0.2130095649
 41
4.714416017003403
 42
5.028273610158146
  0
LINE
  5
6D
330
1F
100
AcDbEntity
  8
0
  6
CONTINUOUS
 62
     7
100
AcDbLine
 10
1084.2626355633
 20
891.4555762329
 30
0.0
 11
1084.2626355633
 21
886.6558223397
 31
0.0
  0
LINE
  5
6E
330
1F
100
AcDbEntity
  8
0
  6
CONTINUOUS
 62
     7
100
AcDbLine
 10
1084.2626355633
 20
886.6558223397
 30
0.0
 11
1085.1489855021
 21
886.6867743798
 31
0.0
  0
LINE
  5
6F
330
1F
100
AcDbEntity
  8
0
  6
CONTINUOUS
 62
     7
100
AcDbLine
 10
1085.1489855021
 20
886.6867743798
 30
0.0
 11
1085.1489855021
 21
891.4246246584
 31
0.0
  0
LINE
  5
70
330
1F
100
AcDbEntity
  8
0
  6
CONTINUOUS
 62
     7
100
AcDbLine
 10
1085.1489855021
 20
891.4246246584
 30
0.0
 11
1084.2626355633
 21
891.4555762329
 31
0.0
  0
LINE
  5
71
330
1F
100
AcDbEntity
  8
0
  6
CONTINUOUS
 62
     7
100
AcDbLine
 10
1084.9124342248
 20
874.908477477
 30
0.0
 11
1085.3470973715
 21
874.9160644964
 31
0.0
  0
ELLIPSE
  5
72
330
1F
100
AcDbEntity
  8
0
  6
CONTINUOUS
 62
     7
100
AcDbEllipse
 10
1083.390247617
 20
752.8737069104
 30
0.0
 11
-0.002374878144564718
 21
5.500219689613687
 31
0.0
210
0.0
220
0.0
230
1.0
 40
0.2130095649
 41
4.396504350611245
 42
4.710361943765982
  0
LINE
  5
73
330
1F
100
AcDbEntity
  8
0
  6
CONTINUOUS
 62
     7
100
AcDbLine
 10
1084.5618490175
 20
752.8630564355
 30
0.0
 11
1084.5618490175
 21
772.1707666658
 31
0.0
  0
LINE
  5
74
330
1F
100
AcDbEntity
  8
0
  6
CONTINUOUS
 62
     7
100
AcDbLine
 10
1084.0293243572
 20
774.3686655902
 30
0.0
 11
1084.5618490175
 21
772.1707666658
 31
0.0
  0
LINE
  5
75
330
1F
100
AcDbEntity
  8
0
  6
CONTINUOUS
 62
     7
100
AcDbLine
 10
1084.0293243572
 20
874.1241590485
 30
0.0
 11
1084.0293243572
 21
774.3686655902
 31
0.0
  0
ELLIPSE
  5
76
330
1F
100
AcDbEntity
  8
0
  6
CONTINUOUS
 62
     7
100
AcDbEllipse
 10
1084.7413311815
 20
874.9118525889
 30
0.0
 11
-0.0007511895885272679
 21
0.8001287847866934
 31
0.0
210
0.0
220
0.0
230
0.9999999999999999
 40
0.2138423392
 41
3.137659214646503
 42
4.707983681948962
  0
LINE
  5
77
330
1F
100
AcDbEntity
  8
0
  6
CONTINUOUS
 62
     7
100
AcDbLine
 10
1084.2626355633
 20
874.0555769198
 30
0.0
 11
1084.2626355633
 21
869.255822561
 31
0.0
  0
LINE
  5
78
330
1F
100
AcDbEntity
  8
0
  6
CONTINUOUS
 62
     7
100
AcDbLine
 10
1084.2626355633
 20
869.255822561
 30
0.0
 11
1085.1489855021
 21
869.2867741354
 31
0.0
  0
LINE
  5
79
330
1F
100
AcDbEntity
  8
0
  6
CONTINUOUS
 62
     7
100
AcDbLine
 10
1085.1489855021
 20
869.2867741354
 30
0.0
 11
1085.1489855021
 21
874.024624414
 31
0.0
  0
LINE
  5
7A
330
1F
100
AcDbEntity
  8
0
  6
CONTINUOUS
 62
     7
100
AcDbLine
 10
1085.1489855021
 20
874.024624414
 30
0.0
 11
1084.2626355633
 21
874.0555769198
 31
0.0
  0
LINE
  5
7B
330
1F
100
AcDbEntity
  8
0
  6
CONTINUOUS
 62
     7
100
AcDbLine
 10
1052.5401886598
 20
878.74105276
 30
0.0
 11
1084.9124342248
 21
879.3061123595
 31
0.0
  0
LINE
  5
7C
330
1F
100
AcDbEntity
  8
0
  6
CONTINUOUS
 62
     7
100
AcDbLine
 10
1084.9124342248
 20
881.3052866042
 30
0.0
 11
1084.9124342248
 21
879.3061123595
 31
0.0
  0
LINE
  5
7D
330
1F
100
AcDbEntity
  8
0
  6
CONTINUOUS
 62
     7
100
AcDbLine
 10
1052.5401886598
 20
881.8703462037
 30
0.0
 11
1084.9124342248
 21
881.3052866042
 31
0.0
  0
LINE
  5
7E
330
1F
100
AcDbEntity
  8
0
  6
CONTINUOUS
 62
     7
100
AcDbLine
 10
1052.5401886598
 20
881.8703462037
 30
0.0
 11
1052.5401886598
 21
885.1378387206
 31
0.0
  0
LINE
  5
7F
330
1F
100
AcDbEntity
  8
0
  6
CONTINUOUS
 62
     7
100
AcDbLine
 10
1052.5401886598
 20
885.1378387206
 30
0.0
 11
1084.9124342248
 21
885.7029098452
 31
0.0
  0
LINE
  5
80
330
1F
100
AcDbEntity
  8
0
  6
CONTINUOUS
 62
     7
100
AcDbLine
 10
1084.9124351561
 20
874.9085002944
 30
0.0
 11
1052.5401886598
 21
875.4735602432
 31
0.0
  0
LINE
  5
81
330
1F
100
AcDbEntity
  8
0
  6
CONTINUOUS
 62
     7
100
AcDbLine
 10
1052.5401886598
 20
875.4735602432
 30
0.0
 11
1052.5401886598
 21
878.74105276
 31
0.0
  0
ARC
  5
82
330
1F
100
AcDbEntity
  8
0
  6
CONTINUOUS
 62
     7
100
AcDbCircle
 10
1069.4235010805
 20
885.4835377645
 30
0.0
 40
16.88685127924041
100
AcDbArc
 50
178.4982631959
 51
181.1730120435
  0
ELLIPSE
  5
83
330
1F
100
AcDbEntity
  8
0
  6
CONTINUOUS
 62
     7
100
AcDbEllipse
 10
904.3216691396
 20
882.5503094596
 30
0.0
 11
157.9809049599099
 21
3.54428653363027
 31
0.0
210
0.0
220
0.0
230
1.0
 40
0.0009227446
 41
0.1832881525766771
 42
0.3533073192410591
  0
LINE
  5
84
330
1F
100
AcDbEntity
  8
0
  6
CONTINUOUS
 62
     7
100
AcDbLine
 10
1084.7414089412
 20
886.4996698119
 30
0.0
 11
1059.6557501748
 21
886.0617977933
 31
0.0
  0
ELLIPSE
  5
85
330
1F
100
AcDbEntity
  8
0
  6
CONTINUOUS
 62
     7
100
AcDbEllipse
 10
904.3216691396
 20
878.0610895041
 30
0.0
 11
157.9809049599099
 21
-3.544286533630157
 31
0.0
210
0.0
220
0.0
230
1.0
 40
0.0009227446
 41
5.929877896674448
 42
6.099897154616833
  0
ARC
  5
86
330
1F
100
AcDbEntity
  8
0
  6
CONTINUOUS
 62
     7
100
AcDbCircle
 10
1069.4233177077
 20
875.1278609346
 30
0.0
 40
16.88666795026918
100
AcDbArc
 50
178.826974322
 51
181.5017506328
  0
LINE
  5
87
330
1F
100
AcDbEntity
  8
0
  6
CONTINUOUS
 62
     7
100
AcDbLine
 10
1059.6557501748
 20
874.5496011705
 30
0.0
 11
1084.7414089412
 21
874.1117291518
 31
0.0
  0
LINE
  5
88
330
1F
100
AcDbEntity
  8
0
  6
CONTINUOUS
 62
     7
100
AcDbLine
 10
1084.0293243572
 20
881.3207013898
 30
0.0
 11
1084.0293243572
 21
879.2906975739
 31
0.0
  0
LINE
  5
89
330
1F
100
AcDbEntity
  8
0
  6
CONTINUOUS
 62
     7
100
AcDbLine
 10
1052.0532783166
 20
885.1378387206
 30
0.0
 11
1052.0532783166
 21
881.8788453371
 31
0.0
  0
LINE
  5
8A
330
1F
100
AcDbEntity
  8
0
  6
CONTINUOUS
 62
     7
100
AcDbLine
 10
1052.5401886598
 20
885.1378387206
 30
0.0
 11
1052.0532783166
 21
885.1378387206
 31
0.0
  0
LWPOLYLINE
  5
8B
330
1F
100
AcDbEntity
  8
0
  6
CONTINUOUS
 62
     7
100
AcDbPolyline
 90
        9
 70
   128
 43
0.0
 10
1052.0532783166
 20
881.8788453371
 10
1052.0625691906
 20
881.8786831705
 10
1052.0900953606
 20
881.8782026081
 10
1052.1348360971
 20
881.8774216941
 10
1052.1951261953
 20
881.8763692996
 10
1052.2687267557
 20
881.8750846565
 10
1052.3529034153
 20
881.8736152623
 10
1052.4445269302
 20
881.8720160651
 10
1052.5401886598
 20
881.8703462037
  0
LINE
  5
8C
330
1F
100
AcDbEntity
  8
0
  6
CONTINUOUS
 62
     7
100
AcDbLine
 10
1052.0532783166
 20
875.4735602432
 30
0.0
 11
1052.0532783166
 21
878.7325536266
 31
0.0
  0
LINE
  5
8D
330
1F
100
AcDbEntity
  8
0
  6
CONTINUOUS
 62
     7
100
AcDbLine
 10
1052.0532783166
 20
875.4735602432
 30
0.0
 11
1052.5401886598
 21
875.4735602432
 31
0.0
  0
LWPOLYLINE
  5
8E
330
1F
100
AcDbEntity
  8
0
  6
CONTINUOUS
 62
     7
100
AcDbPolyline
 90
        9
 70
   128
 43
0.0
 10
1052.5401886598
 20
878.74105276
 10
1052.4445269302
 20
878.7393828987
 10
1052.3529034153
 20
878.7377837014
 10
1052.2687267557
 20
878.7363143072
 10
1052.1951261953
 20
878.7350296641
 10
1052.1348360971
 20
878.7339772696
 10
1052.0900953606
 20
878.7331963556
 10
1052.0625691906
 20
878.7327157932
 10
1052.0532783166
 20
878.7325536266
  0
LINE
  5
8F
330
1F
100
AcDbEntity
  8
0
  6
CONTINUOUS
 62
     7
100
AcDbLine
 10
1052.0532783166
 20
885.4140936763
 30
0.0
 11
1052.0532783166
 21
885.1378387206
 31
0.0
  0
ARC
  5
90
330
1F
100
AcDbEntity
  8
0
  6
CONTINUOUS
 62
     7
100
AcDbCircle
 10
1052.5583174474
 20
885.4212556748
 30
0.0
 40
0.5050885205121421
100
AcDbArc
 50
91.795612862
 51
180.8012639598
  0
ARC
  5
91
330
1F
100
AcDbEntity
  8
0
  6
CONTINUOUS
 62
     7
100
AcDbCircle
 10
1052.5583162481
 20
875.1901417929
 30
0.0
 40
0.5050873422993329
100
AcDbArc
 50
179.1985644412
 51
268.1998683074
  0
LINE
  5
92
330
1F
100
AcDbEntity
  8
0
  6
CONTINUOUS
 62
     7
100
AcDbLine
 10
1052.0532783166
 20
875.1973052875
 30
0.0
 11
1052.0532783166
 21
875.4735602432
 31
0.0
  0
ARC
  5
93
330
1F
100
AcDbEntity
  8
0
  6
CONTINUOUS
 62
     7
100
AcDbCircle
 10
1087.7924370795
 20
1018.386493874
 30
0.0
 40
2.500000000011397
100
AcDbArc
 50
92.0000000007
 51
167.9967842788
  0
ARC
  5
94
330
1F
100
AcDbEntity
  8
0
  6
CONTINUOUS
 62
     7
100
AcDbCircle
 10
1087.7924370795
 20
742.2249050897
 30
0.0
 40
2.500000000011397
100
AcDbArc
 50
192.0032157212
 51
229.0707725648
  0
LWPOLYLINE
  5
95
330
1F
100
AcDbEntity
  8
0
  6
CONTINUOUS
 62
     7
100
AcDbPolyline
 90
        3
 70
   128
 43
0.0
 10
1087.1211597741
 20
739.8167172812
 10
1087.2940346644
 20
739.7750834369
 10
1087.7051884353
 20
739.7264311456
  0
LINE
  5
96
330
1F
100
AcDbEntity
  8
0
  6
CONTINUOUS
 62
     7
100
AcDbLine
 10
1084.5618490175
 20
752.8630564355
 30
0.0
 11
954.0032763079
 21
754.0024290227
 31
0.0
  0
LINE
  5
97
330
1F
100
AcDbEntity
  8
0
  6
CONTINUOUS
 62
     7
100
AcDbLine
 10
954.0032763079
 20
754.0024290227
 30
0.0
 11
954.0032763079
 21
771.6584274911
 31
0.0
  0
LINE
  5
98
330
1F
100
AcDbEntity
  8
0
  6
CONTINUOUS
 62
     7
100
AcDbLine
 10
954.0032763079
 20
771.6584274911
 30
0.0
 11
956.003280361
 21
771.6744164371
 31
0.0
  0
LINE
  5
99
330
1F
100
AcDbEntity
  8
0
  6
CONTINUOUS
 62
     7
100
AcDbLine
 10
1084.5618490175
 20
772.1707666658
 30
0.0
 11
956.003280361
 21
771.6635907434
 31
0.0
  0
LINE
  5
9A
330
1F
100
AcDbEntity
  8
0
  6
CONTINUOUS
 62
     7
100
AcDbLine
 10
956.003280361
 20
771.6756159805
 30
0.0
 11
956.003280361
 21
773.8635907315
 31
0.0
  0
LINE
  5
9B
330
1F
100
AcDbEntity
  8
0
  6
CONTINUOUS
 62
     7
100
AcDbLine
 10
1084.0293243572
 20
774.3686655902
 30
0.0
 11
956.003280361
 21
773.8635907315
 31
0.0
  0
LINE
  5
9C
330
1F
100
AcDbEntity
  8
0
  6
CONTINUOUS
 62
     7
100
AcDbLine
 10
956.003280361
 20
986.7478082322
 30
0.0
 11
1084.0293243572
 21
986.2427333735
 31
0.0
  0
LINE
  5
9D
330
1F
100
AcDbEntity
  8
0
  6
CONTINUOUS
 62
     7
100
AcDbLine
 10
956.003280361
 20
986.7478082322
 30
0.0
 11
956.003280361
 21
988.9357829832
 31
0.0
  0
LINE
  5
9E
330
1F
100
AcDbEntity
  8
0
  6
CONTINUOUS
 62
     7
100
AcDbLine
 10
1084.5618490175
 20
988.4406322979
 30
0.0
 11
956.003280361
 21
988.9478082203
 31
0.0
  0
LINE
  5
9F
330
1F
100
AcDbEntity
  8
0
  6
CONTINUOUS
 62
     7
100
AcDbLine
 10
954.0032763079
 20
988.9529714726
 30
0.0
 11
956.0032058552
 21
988.9369825267
 31
0.0
  0
LINE
  5
A0
330
1F
100
AcDbEntity
  8
0
  6
CONTINUOUS
 62
     7
100
AcDbLine
 10
954.0032763079
 20
988.9529714726
 30
0.0
 11
954.0032763079
 21
1006.608969941
 31
0.0
  0
LINE
  5
A1
330
1F
100
AcDbEntity
  8
0
  6
CONTINUOUS
 62
     7
100
AcDbLine
 10
954.0032763079
 20
1006.608969941
 30
0.0
 11
1084.5618490175
 21
1007.7483425282
 31
0.0
  0
LINE
  5
A2
330
1F
100
AcDbEntity
  8
0
  6
CONTINUOUS
 62
     7
100
AcDbLine
 10
1084.2003487095
 20
747.3664204024
 30
0.0
 11
954.0032763079
 21
748.5026339435
 31
0.0
  0
LINE
  5
A3
330
1F
100
AcDbEntity
  8
0
  6
CONTINUOUS
 62
     7
100
AcDbLine
 10
954.0032763079
 20
754.0024290227
 30
0.0
 11
954.0032763079
 21
748.5026339435
 31
0.0
  0
LINE
  5
A4
330
1F
100
AcDbEntity
  8
0
  6
CONTINUOUS
 62
     7
100
AcDbLine
 10
1084.2003487095
 20
1013.2449785613
 30
0.0
 11
954.0032763079
 21
1012.1087650203
 31
0.0
  0
LINE
  5
A5
330
1F
100
AcDbEntity
  8
0
  6
CONTINUOUS
 62
     7
100
AcDbLine
 10
954.0032763079
 20
1006.608969941
 30
0.0
 11
954.0032763079
 21
1012.1087650203
 31
0.0
  0
LINE
  5
A6
330
1F
100
AcDbEntity
  8
0
  6
CONTINUOUS
 62
     7
100
AcDbLine
 10
954.0032763079
 20
771.8993122124
 30
0.0
 11
954.0032763079
 21
771.6584274911
 31
0.0
  0
LINE
  5
A7
330
1F
100
AcDbEntity
  8
0
  6
CONTINUOUS
 62
     7
100
AcDbLine
 10
956.003280361
 20
771.918363347
 30
0.0
 11
954.0032763079
 21
771.8993122124
 31
0.0
  0
LINE
  5
A8
330
1F
100
AcDbEntity
  8
0
  6
CONTINUOUS
 62
     7
100
AcDbLine
 10
954.0032763079
 20
988.7120867514
 30
0.0
 11
956.003280361
 21
988.6930356168
 31
0.0
  0
LINE
  5
A9
330
1F
100
AcDbEntity
  8
0
  6
CONTINUOUS
 62
     7
100
AcDbLine
 10
954.0032763079
 20
988.7120867514
 30
0.0
 11
954.0032763079
 21
988.9529714726
 31
0.0
  0
LINE
  5
AA
330
1F
100
AcDbEntity
  8
0
  6
CONTINUOUS
 62
     7
100
AcDbLine
 10
956.003280361
 20
773.8635907315
 30
0.0
 11
956.003280361
 21
986.7478082322
 31
0.0
  0
ARC
  5
AB
330
1F
100
AcDbEntity
  8
0
  6
CONTINUOUS
 62
     7
100
AcDbCircle
 10
801.9825826083
 20
1015.8097885671
 30
0.0
 40
4.295908188598128
100
AcDbArc
 50
359.9901651238
 51
90.0098348762
  0
LINE
  5
AC
330
1F
100
AcDbEntity
  8
0
  6
CONTINUOUS
 62
     7
100
AcDbLine
 10
801.9818452115
 20
1020.1056966924
 30
0.0
 11
534.0751496072
 21
1020.1056966924
 31
0.0
  0
ARC
  5
AD
330
1F
100
AcDbEntity
  8
0
  6
CONTINUOUS
 62
     7
100
AcDbCircle
 10
534.0743758747
 20
1015.8098249027
 30
0.0
 40
4.295871859359601
100
AcDbArc
 50
89.9896804177
 51
180.0103195823
  0
LINE
  5
AE
330
1F
100
AcDbEntity
  8
0
  6
CONTINUOUS
 62
     7
100
AcDbLine
 10
529.778504085
 20
1015.8090511703
 30
0.0
 11
529.778504085
 21
744.8023477935
 31
0.0
  0
ARC
  5
AF
330
1F
100
AcDbEntity
  8
0
  6
CONTINUOUS
 62
     7
100
AcDbCircle
 10
534.0744122104
 20
744.8016103967
 30
0.0
 40
4.295908188597673
100
AcDbArc
 50
179.9901651238
 51
270.0098348762
  0
LINE
  5
B0
330
1F
100
AcDbEntity
  8
0
  6
CONTINUOUS
 62
     7
100
AcDbLine
 10
534.0751496072
 20
740.5057022714
 30
0.0
 11
801.9818452115
 21
740.5057022714
 31
0.0
  0
ARC
  5
B1
330
1F
100
AcDbEntity
  8
0
  6
CONTINUOUS
 62
     7
100
AcDbCircle
 10
801.9826189439
 20
744.801574061
 30
0.0
 40
4.295871859359715
100
AcDbArc
 50
269.9896804177
 51
0.0103195823
  0
LINE
  5
B2
330
1F
100
AcDbEntity
  8
0
  6
CONTINUOUS
 62
     7
100
AcDbLine
 10
806.2784907336
 20
744.8023477935
 30
0.0
 11
806.2784907336
 21
1015.8090511703
 31
0.0
  0
LINE
  5
B3
330
1F
100
AcDbEntity
  8
0
  6
CONTINUOUS
 62
     7
100
AcDbLine
 10
528.5784986729
 20
1015.8090511703
 30
0.0
 11
528.5784986729
 21
744.8023477935
 31
0.0
  0
ELLIPSE
  5
B4
330
1F
100
AcDbEntity
  8
0
  6
CONTINUOUS
 62
     7
100
AcDbEllipse
 10
534.081849903
 20
744.8090519755
 30
0.0
 11
3.893826995295512
 21
3.893826995295626
 31
0.0
210
0.0
220
0.0
230
0.9999999999999998
 40
0.998782766
 41
2.356803477777937
 42
3.926381829401634
  0
ELLIPSE
  5
B5
330
1F
100
AcDbEntity
  8
0
  6
CONTINUOUS
 62
     7
100
AcDbEllipse
 10
534.081849903
 20
1015.8023469882
 30
0.0
 11
-3.893826995295626
 21
3.893826995295512
 31
0.0
210
0.0
220
0.0
230
0.9999999999999998
 40
0.998782766
 41
5.498396131367744
 42
7.067974482991414
  0
LINE
  5
B6
330
1F
100
AcDbEntity
  8
0
  6
CONTINUOUS
 62
     7
100
AcDbLine
 10
801.9818452115
 20
739.3056968593
 30
0.0
 11
534.0751496072
 21
739.3056968593
 31
0.0
  0
LINE
  5
B7
330
1F
100
AcDbEntity
  8
0
  6
CONTINUOUS
 62
     7
100
AcDbLine
 10
801.9818452115
 20
1021.3057021045
 30
0.0
 11
534.0751496072
 21
1021.3057021045
 31
0.0
  0
ELLIPSE
  5
B8
330
1F
100
AcDbEntity
  8
0
  6
CONTINUOUS
 62
     7
100
AcDbEllipse
 10
801.9751449157
 20
1015.8023469882
 30
0.0
 11
-3.893826995295512
 21
-3.893826995295626
 31
0.0
210
0.0
220
0.0
230
0.9999999999999998
 40
0.998782766
 41
2.35680347777793
 42
3.926381829401641
  0
LINE
  5
B9
330
1F
100
AcDbEntity
  8
0
  6
CONTINUOUS
 62
     7
100
AcDbLine
 10
807.4784961457
 20
1015.8090511703
 30
0.0
 11
807.4784961457
 21
744.8023477935
 31
0.0
  0
ELLIPSE
  5
BA
330
1F
100
AcDbEntity
  8
0
  6
CONTINUOUS
 62
     7
100
AcDbEllipse
 10
801.9751449157
 20
744.8090519755
 30
0.0
 11
3.893826995295512
 21
-3.893826995295512
 31
0.0
210
0.0
220
0.0
230
0.9999999999999998
 40
0.998782766
 41
5.498396131367759
 42
7.067974482991428
  0
LINE
  5
BB
330
1F
100
AcDbEntity
  8
0
  6
CONTINUOUS
 62
     7
100
AcDbLine
 10
801.9818452115
 20
741.6441360854
 30
0.0
 11
801.9818452115
 21
740.5057022714
 31
0.0
  0
ARC
  5
BC
330
1F
100
AcDbEntity
  8
0
  6
CONTINUOUS
 62
     7
100
AcDbCircle
 10
800.8333567083
 20
746.3666280404
 30
0.0
 40
4.860139515162297
100
AcDbArc
 50
283.6687211166
 51
341.2246058536
  0
LINE
  5
BD
330
1F
100
AcDbEntity
  8
0
  6
CONTINUOUS
 62
     7
100
AcDbLine
 10
806.2784907336
 20
744.8023477935
 30
0.0
 11
805.4348763938
 21
744.8023477935
 31
0.0
  0
ELLIPSE
  5
BE
330
1F
100
AcDbEntity
  8
0
  6
CONTINUOUS
 62
     7
100
AcDbEllipse
 10
800.9996905548
 20
746.3056994819
 30
0.0
 11
4.683214250912442
 21
0.0
 31
0.0
210
0.0
220
0.0
230
1.0
 40
0.9996651034
 41
5.956277858280266
 42
7.048707874102764
  0
LINE
  5
BF
330
1F
100
AcDbEntity
  8
0
  6
CONTINUOUS
 62
     7
100
AcDbLine
 10
804.3763873095
 20
1011.0617200278
 30
0.0
 11
804.3763873095
 21
749.5496789359
 31
0.0
  0
ELLIPSE
  5
C0
330
1F
100
AcDbEntity
  8
0
  6
CONTINUOUS
 62
     7
100
AcDbEllipse
 10
800.9996905548
 20
1014.3056994819
 30
0.0
 11
4.683214250913579
 21
0.0
 31
0.0
210
0.0
220
0.0
230
1.0
 40
0.9996651034
 41
5.517662740256735
 42
6.61009275607888
  0
LINE
  5
C1
330
1F
100
AcDbEntity
  8
0
  6
CONTINUOUS
 62
     7
100
AcDbLine
 10
806.2784907336
 20
1015.8090511703
 30
0.0
 11
805.4348763938
 21
1015.8090511703
 31
0.0
  0
ARC
  5
C2
330
1F
100
AcDbEntity
  8
0
  6
CONTINUOUS
 62
     7
100
AcDbCircle
 10
800.8333567083
 20
1014.2447709233
 30
0.0
 40
4.860139515161936
100
AcDbArc
 50
18.7753941464
 51
76.3312788834
  0
LINE
  5
C3
330
1F
100
AcDbEntity
  8
0
  6
CONTINUOUS
 62
     7
100
AcDbLine
 10
801.9818452115
 20
1018.9672628783
 30
0.0
 11
801.9818452115
 21
1020.1056966924
 31
0.0
  0
LINE
  5
C4
330
1F
100
AcDbEntity
  8
0
  6
CONTINUOUS
 62
     7
100
AcDbLine
 10
534.0751496072
 20
740.5057022714
 30
0.0
 11
534.0751496072
 21
741.6441360854
 31
0.0
  0
ELLIPSE
  5
C5
330
1F
100
AcDbEntity
  8
0
  6
CONTINUOUS
 62
     7
100
AcDbEllipse
 10
535.1784974093
 20
746.1847743883
 30
0.0
 11
0.0
 21
4.672856035025802
 31
0.0
210
0.0
220
0.0
230
1.0
 40
0.9996651034
 41
2.903141201706123
 42
3.771169474071514
  0
LINE
  5
C6
330
1F
100
AcDbEntity
  8
0
  6
CONTINUOUS
 62
     7
100
AcDbLine
 10
537.9289624209
 20
742.4078205966
 30
0.0
 11
798.1280323977
 21
742.4078205966
 31
0.0
  0
ELLIPSE
  5
C7
330
1F
100
AcDbEntity
  8
0
  6
CONTINUOUS
 62
     7
100
AcDbEllipse
 10
800.8784974093
 20
746.1847743883
 30
0.0
 11
0.0
 21
4.672856035024552
 31
0.0
210
0.0
220
0.0
230
1.0
 40
0.9996651034
 41
2.51201583310773
 42
3.380044105473604
  0
LINE
  5
C8
330
1F
100
AcDbEntity
  8
0
  6
CONTINUOUS
 62
     7
100
AcDbLine
 10
534.0751496072
 20
1018.9672628783
 30
0.0
 11
534.0751496072
 21
1020.1056966924
 31
0.0
  0
ELLIPSE
  5
C9
330
1F
100
AcDbEntity
  8
0
  6
CONTINUOUS
 62
     7
100
AcDbEllipse
 10
800.8784974093
 20
1014.4266245754
 30
0.0
 11
0.0
 21
4.672856035025688
 31
0.0
210
0.0
220
0.0
230
1.0
 40
0.9996651034
 41
6.04473385529593
 42
6.912762127661665
  0
LINE
  5
CA
330
1F
100
AcDbEntity
  8
0
  6
CONTINUOUS
 62
     7
100
AcDbLine
 10
537.9289624209
 20
1018.2035783671
 30
0.0
 11
798.1280323977
 21
1018.2035783671
 31
0.0
  0
ELLIPSE
  5
CB
330
1F
100
AcDbEntity
  8
0
  6
CONTINUOUS
 62
     7
100
AcDbEllipse
 10
535.1784974093
 20
1014.4266245754
 30
0.0
 11
0.0
 21
4.672856035024324
 31
0.0
210
0.0
220
0.0
230
1.0
 40
0.9996651034
 41
5.653608486697162
 42
6.521636759063401
  0
LINE
  5
CC
330
1F
100
AcDbEntity
  8
0
  6
CONTINUOUS
 62
     7
100
AcDbLine
 10
529.778504085
 20
744.8023477935
 30
0.0
 11
530.6221184249
 21
744.8023477935
 31
0.0
  0
ARC
  5
CD
330
1F
100
AcDbEntity
  8
0
  6
CONTINUOUS
 62
     7
100
AcDbCircle
 10
535.2236381104
 20
746.3666280404
 30
0.0
 40
4.86013951516219
100
AcDbArc
 50
198.7753941464
 51
256.3312788834
  0
ARC
  5
CE
330
1F
100
AcDbEntity
  8
0
  6
CONTINUOUS
 62
     7
100
AcDbCircle
 10
535.2236381104
 20
1014.2447709233
 30
0.0
 40
4.860139515161962
100
AcDbArc
 50
103.6687211166
 51
161.2246058536
  0
LINE
  5
CF
330
1F
100
AcDbEntity
  8
0
  6
CONTINUOUS
 62
     7
100
AcDbLine
 10
530.6221184249
 20
1015.8090511703
 30
0.0
 11
529.778504085
 21
1015.8090511703
 31
0.0
  0
ELLIPSE
  5
D0
330
1F
100
AcDbEntity
  8
0
  6
CONTINUOUS
 62
     7
100
AcDbEllipse
 10
535.0573042638
 20
1014.3056994819
 30
0.0
 11
4.683214250912442
 21
0.0
 31
0.0
210
0.0
220
0.0
230
1.0
 40
0.9996651034
 41
2.814685204690482
 42
3.90711521978766
  0
LINE
  5
D1
330
1F
100
AcDbEntity
  8
0
  6
CONTINUOUS
 62
     7
100
AcDbLine
 10
531.6806075091
 20
1011.0617200278
 30
0.0
 11
531.6806075091
 21
749.5496789359
 31
0.0
  0
ELLIPSE
  5
D2
330
1F
100
AcDbEntity
  8
0
  6
CONTINUOUS
 62
     7
100
AcDbEllipse
 10
535.0573042638
 20
746.3056994819
 30
0.0
 11
4.683214250913693
 21
0.0
 31
0.0
210
0.0
220
0.0
230
1.0
 40
0.9996651034
 41
2.376070087392325
 42
3.468500102489109
  0
ARC
  5
D3
330
1F
100
AcDbEntity
  8
0
  6
CONTINUOUS
 62
     7
100
AcDbCircle
 10
800.8784974093
 20
746.3056994819
 30
0.0
 40
4.750000000002358
100
AcDbArc
 50
234.2851759467
 51
43.3042407627
  0
ELLIPSE
  5
D4
330
1F
100
AcDbEntity
  8
0
  6
CONTINUOUS
 62
     7
100
AcDbEllipse
 10
802.8922658055
 20
746.3056994819
 30
0.0
 11
4.028764273407546
 21
0.0
 31
0.0
210
0.0
220
0.0
230
1.0
 40
0.8661133393
 41
1.193530079159495
 42
1.204508195445534
  0
ELLIPSE
  5
D5
330
1F
100
AcDbEntity
  8
0
  6
CONTINUOUS
 62
     7
100
AcDbEllipse
 10
800.8784974093
 20
744.4251561271
 30
0.0
 11
0.0
 21
3.762232984008733
 31
0.0
210
0.0
220
0.0
230
1.0
 40
0.8661133393
 41
2.123812463973517
 42
2.136735567327031
  0
ARC
  5
D6
330
1F
100
AcDbEntity
  8
0
  6
CONTINUOUS
 62
     7
100
AcDbCircle
 10
535.1784974093
 20
1014.3056994819
 30
0.0
 40
4.750000000002358
100
AcDbArc
 50
54.2851759467
 51
223.3042407627
  0
ELLIPSE
  5
D7
330
1F
100
AcDbEntity
  8
0
  6
CONTINUOUS
 62
     7
100
AcDbEllipse
 10
533.1647290131
 20
1014.3056994819
 30
0.0
 11
4.028764273407546
 21
0.0
 31
0.0
210
0.0
220
0.0
230
1.0
 40
0.8661133393
 41
4.335122731784861
 42
4.346100849035361
  0
ELLIPSE
  5
D8
330
1F
100
AcDbEntity
  8
0
  6
CONTINUOUS
 62
     7
100
AcDbEllipse
 10
535.1784974093
 20
1016.1862428367
 30
0.0
 11
0.0
 21
3.762232984008619
 31
0.0
210
0.0
220
0.0
230
1.0
 40
0.8661133393
 41
5.265405117563336
 42
5.278328220916425
  0
ELLIPSE
  5
D9
330
1F
100
AcDbEntity
  8
0
  6
CONTINUOUS
 62
     7
100
AcDbEllipse
 10
802.8922658055
 20
1014.3056994819
 30
0.0
 11
4.028764273401066
 21
0.0
 31
0.0
210
0.0
220
0.0
230
1.0
 40
0.8661133393
 41
5.07867711174497
 42
5.089655228030949
  0
ARC
  5
DA
330
1F
100
AcDbEntity
  8
0
  6
CONTINUOUS
 62
     7
100
AcDbCircle
 10
800.8784974093
 20
1014.3056994819
 30
0.0
 40
4.750000000002358
100
AcDbArc
 50
316.6957592373
 51
125.7148240533
  0
ELLIPSE
  5
DB
330
1F
100
AcDbEntity
  8
0
  6
CONTINUOUS
 62
     7
100
AcDbEllipse
 10
800.8784974093
 20
1016.1862428366
 30
0.0
 11
0.0
 21
3.762232984009984
 31
0.0
210
0.0
220
0.0
230
1.0
 40
0.8661133393
 41
1.00485708625313
 42
1.017780189606285
  0
ELLIPSE
  5
DC
330
1F
100
AcDbEntity
  8
0
  6
CONTINUOUS
 62
     7
100
AcDbEllipse
 10
533.1647290132
 20
746.3056994819
 30
0.0
 11
4.028764273401066
 21
0.0
 31
0.0
210
0.0
220
0.0
230
1.0
 40
0.8661133393
 41
1.937084458155187
 42
1.948062575405744
  0
ARC
  5
DD
330
1F
100
AcDbEntity
  8
0
  6
CONTINUOUS
 62
     7
100
AcDbCircle
 10
535.1784974093
 20
746.3056994819
 30
0.0
 40
4.750000000002358
100
AcDbArc
 50
136.6957592373
 51
305.7148240533
  0
ELLIPSE
  5
DE
330
1F
100
AcDbEntity
  8
0
  6
CONTINUOUS
 62
     7
100
AcDbEllipse
 10
535.1784974093
 20
744.4251561271
 30
0.0
 11
0.0
 21
3.76223298400987
 31
0.0
210
0.0
220
0.0
230
1.0
 40
0.8661133393
 41
4.146449739842536
 42
4.159372843196093
  0
LINE
  5
DF
330
1F
100
AcDbEntity
  8
0
  6
CONTINUOUS
 62
     7
100
AcDbLine
 10
536.5357634539
 20
1005.7920137786
 30
0.0
 11
536.5357634539
 21
754.8193851851
 31
0.0
  0
ELLIPSE
  5
E0
330
1F
100
AcDbEntity
  8
0
  6
CONTINUOUS
 62
     7
100
AcDbEllipse
 10
542.0391212366
 20
1005.7854338452
 30
0.0
 11
3.927576392211336
 21
-3.859618571304168
 31
0.0
210
0.0
220
0.0
230
1.0
 40
0.9988036078
 41
2.36551959313247
 42
3.917665714047224
  0
LINE
  5
E1
330
1F
100
AcDbEntity
  8
0
  6
CONTINUOUS
 62
     7
100
AcDbLine
 10
668.0284974094
 20
1013.4887764596
 30
0.0
 11
541.9364956136
 21
1011.2878302478
 31
0.0
  0
LINE
  5
E2
330
1F
100
AcDbEntity
  8
0
  6
CONTINUOUS
 62
     7
100
AcDbLine
 10
794.1204992051
 20
1011.2878302478
 30
0.0
 11
668.0284974094
 21
1013.4887764596
 31
0.0
  0
ELLIPSE
  5
E3
330
1F
100
AcDbEntity
  8
0
  6
CONTINUOUS
 62
     7
100
AcDbEllipse
 10
794.017873582
 20
1005.7854338452
 30
0.0
 11
3.927576392211336
 21
3.859618571303941
 31
0.0
210
0.0
220
0.0
230
1.0
 40
0.9988036078
 41
5.507112246722228
 42
7.059258367636924
  0
LINE
  5
E4
330
1F
100
AcDbEntity
  8
0
  6
CONTINUOUS
 62
     7
100
AcDbLine
 10
799.5212313647
 20
1005.7920137786
 30
0.0
 11
799.5212313647
 21
754.8193851851
 31
0.0
  0
ELLIPSE
  5
E5
330
1F
100
AcDbEntity
  8
0
  6
CONTINUOUS
 62
     7
100
AcDbEllipse
 10
794.017873582
 20
754.8259651186
 30
0.0
 11
-3.927576392211336
 21
3.859618571304168
 31
0.0
210
0.0
220
0.0
230
1.0
 40
0.9988036078
 41
2.36551959313247
 42
3.917665714047224
  0
LINE
  5
E6
330
1F
100
AcDbEntity
  8
0
  6
CONTINUOUS
 62
     7
100
AcDbLine
 10
668.0284974093
 20
747.1226225041
 30
0.0
 11
794.1204992051
 21
749.323568716
 31
0.0
  0
LINE
  5
E7
330
1F
100
AcDbEntity
  8
0
  6
CONTINUOUS
 62
     7
100
AcDbLine
 10
541.9364956136
 20
749.323568716
 30
0.0
 11
668.0284974093
 21
747.1226225041
 31
0.0
  0
ELLIPSE
  5
E8
330
1F
100
AcDbEntity
  8
0
  6
CONTINUOUS
 62
     7
100
AcDbEllipse
 10
542.0391212366
 20
754.8259651186
 30
0.0
 11
-3.927576392211222
 21
-3.85961857130394
 31
0.0
210
0.0
220
0.0
230
1.0
 40
0.9988036078
 41
5.50711224672222
 42
7.059258367636902
  0
LINE
  5
E9
330
1F
100
AcDbEntity
  8
0
  6
CONTINUOUS
 62
     7
100
AcDbLine
 10
538.4412196393
 20
754.727668538
 30
0.0
 11
538.4412196393
 21
1005.8837304257
 31
0.0
  0
ELLIPSE
  5
EA
330
1F
100
AcDbEntity
  8
0
  6
CONTINUOUS
 62
     7
100
AcDbEllipse
 10
541.9433594807
 20
754.7318603031
 30
0.0
 11
-2.499366795043556
 21
-2.456120909011474
 31
0.0
210
0.0
220
0.0
230
0.9999999999999998
 40
0.9988036078
 41
5.507112246722269
 42
7.05925836763697
  0
LINE
  5
EB
330
1F
100
AcDbEntity
  8
0
  6
CONTINUOUS
 62
     7
100
AcDbLine
 10
668.0284974093
 20
749.0283618115
 30
0.0
 11
541.8780532594
 21
751.2303362035
 31
0.0
  0
LINE
  5
EC
330
1F
100
AcDbEntity
  8
0
  6
CONTINUOUS
 62
     7
100
AcDbLine
 10
794.1789415593
 20
751.2303362035
 30
0.0
 11
668.0284974093
 21
749.0283618115
 31
0.0
  0
ELLIPSE
  5
ED
330
1F
100
AcDbEntity
  8
0
  6
CONTINUOUS
 62
     7
100
AcDbEllipse
 10
794.1136353379
 20
754.7318603031
 30
0.0
 11
-2.49936679504367
 21
2.456120909011588
 31
0.0
210
0.0
220
0.0
230
1.0
 40
0.9988036078
 41
2.365519593132387
 42
3.917665714047162
  0
LINE
  5
EE
330
1F
100
AcDbEntity
  8
0
  6
CONTINUOUS
 62
     7
100
AcDbLine
 10
797.6157751794
 20
1005.8837304257
 30
0.0
 11
797.6157751794
 21
754.727668538
 31
0.0
  0
ELLIPSE
  5
EF
330
1F
100
AcDbEntity
  8
0
  6
CONTINUOUS
 62
     7
100
AcDbEllipse
 10
794.1136353379
 20
1005.8795386606
 30
0.0
 11
2.499366795043556
 21
2.456120909011474
 31
0.0
210
0.0
220
0.0
230
0.9999999999999998
 40
0.9988036078
 41
5.507112246722269
 42
7.05925836763697
  0
LINE
  5
F0
330
1F
100
AcDbEntity
  8
0
  6
CONTINUOUS
 62
     7
100
AcDbLine
 10
668.0284974093
 20
1011.5830371522
 30
0.0
 11
794.1789415593
 21
1009.3810627603
 31
0.0
  0
LINE
  5
F1
330
1F
100
AcDbEntity
  8
0
  6
CONTINUOUS
 62
     7
100
AcDbLine
 10
541.8780532594
 20
1009.3810627603
 30
0.0
 11
668.0284974093
 21
1011.5830371522
 31
0.0
  0
ELLIPSE
  5
F2
330
1F
100
AcDbEntity
  8
0
  6
CONTINUOUS
 62
     7
100
AcDbEllipse
 10
541.9433594807
 20
1005.8795386606
 30
0.0
 11
2.499366795043784
 21
-2.456120909011588
 31
0.0
210
0.0
220
0.0
230
1.0
 40
0.9988036078
 41
2.365519593132353
 42
3.917665714047151
  0
LINE
  5
F3
330
1F
100
AcDbEntity
  8
0
  6
CONTINUOUS
 62
     7
100
AcDbLine
 10
794.4752511496
 20
1011.6364429139
 30
0.0
 11
794.1204992051
 21
1011.2878302478
 31
0.0
  0
LINE
  5
F4
330
1F
100
AcDbEntity
  8
0
  6
CONTINUOUS
 62
     7
100
AcDbLine
 10
668.0284974093
 20
1013.4887764596
 30
0.0
 11
668.0284974093
 21
1013.8273159408
 31
0.0
  0
LINE
  5
F5
330
1F
100
AcDbEntity
  8
0
  6
CONTINUOUS
 62
     7
100
AcDbLine
 10
668.0284974093
 20
1013.8273159408
 30
0.0
 11
794.4752511496
 21
1011.6364429139
 31
0.0
  0
LINE
  5
F6
330
1F
100
AcDbEntity
  8
0
  6
CONTINUOUS
 62
     7
100
AcDbLine
 10
668.0284974093
 20
1013.8273159408
 30
0.0
 11
541.581743669
 21
1011.6364429139
 31
0.0
  0
LINE
  5
F7
330
1F
100
AcDbEntity
  8
0
  6
CONTINUOUS
 62
     7
100
AcDbLine
 10
541.9364956136
 20
1011.2878302478
 30
0.0
 11
541.581743669
 21
1011.6364429139
 31
0.0
  0
LINE
  5
F8
330
1F
100
AcDbEntity
  8
0
  6
CONTINUOUS
 62
     7
100
AcDbLine
 10
668.0284974093
 20
746.784083023
 30
0.0
 11
794.4752511496
 21
748.9749560498
 31
0.0
  0
LINE
  5
F9
330
1F
100
AcDbEntity
  8
0
  6
CONTINUOUS
 62
     7
100
AcDbLine
 10
668.0284974093
 20
747.1226225041
 30
0.0
 11
668.0284974093
 21
746.784083023
 31
0.0
  0
LINE
  5
FA
330
1F
100
AcDbEntity
  8
0
  6
CONTINUOUS
 62
     7
100
AcDbLine
 10
794.1204992051
 20
749.323568716
 30
0.0
 11
794.4752511496
 21
748.9749560498
 31
0.0
  0
LINE
  5
FB
330
1F
100
AcDbEntity
  8
0
  6
CONTINUOUS
 62
     7
100
AcDbLine
 10
668.0284974093
 20
1011.0909263038
 30
0.0
 11
668.0284974093
 21
1011.5830371522
 31
0.0
  0
LINE
  5
FC
330
1F
100
AcDbEntity
  8
0
  6
CONTINUOUS
 62
     7
100
AcDbLine
 10
793.791675281
 20
1009.0005020045
 30
0.0
 11
794.1789415593
 21
1009.3810627603
 31
0.0
  0
LINE
  5
FD
330
1F
100
AcDbEntity
  8
0
  6
CONTINUOUS
 62
     7
100
AcDbLine
 10
793.791675281
 20
1009.0005020045
 30
0.0
 11
793.7898424382
 21
1008.8957468413
 31
0.0
  0
LINE
  5
FE
330
1F
100
AcDbEntity
  8
0
  6
CONTINUOUS
 62
     7
100
AcDbLine
 10
793.7898424382
 20
1008.8957468413
 30
0.0
 11
668.0284974093
 21
1011.0909263038
 31
0.0
  0
LINE
  5
FF
330
1F
100
AcDbEntity
  8
0
  6
CONTINUOUS
 62
     7
100
AcDbLine
 10
668.0284974093
 20
746.784083023
 30
0.0
 11
541.581743669
 21
748.9749560498
 31
0.0
  0
LINE
  5
100
330
1F
100
AcDbEntity
  8
0
  6
CONTINUOUS
 62
     7
100
AcDbLine
 10
541.581743669
 20
748.9749560498
 30
0.0
 11
541.9364956136
 21
749.323568716
 31
0.0
  0
LINE
  5
101
330
1F
100
AcDbEntity
  8
0
  6
CONTINUOUS
 62
     7
100
AcDbLine
 10
541.8780532594
 20
1009.3810627603
 30
0.0
 11
542.2653195376
 21
1009.0005020045
 31
0.0
  0
LINE
  5
102
330
1F
100
AcDbEntity
  8
0
  6
CONTINUOUS
 62
     7
100
AcDbLine
 10
542.2671523804
 20
1008.8957468413
 30
0.0
 11
668.0284974093
 21
1011.0909263038
 31
0.0
  0
LINE
  5
103
330
1F
100
AcDbEntity
  8
0
  6
CONTINUOUS
 62
     7
100
AcDbLine
 10
542.2653195376
 20
1009.0005020045
 30
0.0
 11
542.2671523804
 21
1008.8957468413
 31
0.0
  0
LINE
  5
104
330
1F
100
AcDbEntity
  8
0
  6
CONTINUOUS
 62
     7
100
AcDbLine
 10
793.7898424382
 20
751.7156521224
 30
0.0
 11
668.0284974093
 21
749.52047266
 31
0.0
  0
LINE
  5
105
330
1F
100
AcDbEntity
  8
0
  6
CONTINUOUS
 62
     7
100
AcDbLine
 10
793.791675281
 20
751.6108969592
 30
0.0
 11
793.7898424382
 21
751.7156521224
 31
0.0
  0
LINE
  5
106
330
1F
100
AcDbEntity
  8
0
  6
CONTINUOUS
 62
     7
100
AcDbLine
 10
794.1789415593
 20
751.2303362035
 30
0.0
 11
793.791675281
 21
751.6108969592
 31
0.0
  0
LINE
  5
107
330
1F
100
AcDbEntity
  8
0
  6
CONTINUOUS
 62
     7
100
AcDbLine
 10
668.0284974093
 20
749.52047266
 30
0.0
 11
668.0284974093
 21
749.0283618115
 31
0.0
  0
LINE
  5
108
330
1F
100
AcDbEntity
  8
0
  6
CONTINUOUS
 62
     7
100
AcDbLine
 10
542.2653195376
 20
751.6108969592
 30
0.0
 11
541.8780532594
 21
751.2303362035
 31
0.0
  0
LINE
  5
109
330
1F
100
AcDbEntity
  8
0
  6
CONTINUOUS
 62
     7
100
AcDbLine
 10
542.2653195376
 20
751.6108969592
 30
0.0
 11
542.2671523804
 21
751.7156521224
 31
0.0
  0
LINE
  5
10A
330
1F
100
AcDbEntity
  8
0
  6
CONTINUOUS
 62
     7
100
AcDbLine
 10
542.2671523804
 20
751.7156521224
 30
0.0
 11
668.0284974093
 21
749.52047266
 31
0.0
  0
LINE
  5
10B
330
1F
100
AcDbEntity
  8
0
  6
CONTINUOUS
 62
     7
100
AcDbLine
 10
797.6157751794
 20
1005.8837304257
 30
0.0
 11
797.2284939999
 21
1005.5031547688
 31
0.0
  0
ARC
  5
10C
330
1F
100
AcDbEntity
  8
0
  6
CONTINUOUS
 62
     7
100
AcDbCircle
 10
793.731327818
 20
1005.503856472
 30
0.0
 40
3.497166252345176
100
AcDbArc
 50
359.9885036554
 51
89.0112490201
  0
LINE
  5
10D
330
1F
100
AcDbEntity
  8
0
  6
CONTINUOUS
 62
     7
100
AcDbLine
 10
797.2284939999
 20
755.1082441949
 30
0.0
 11
797.6157751794
 21
754.727668538
 31
0.0
  0
ARC
  5
10E
330
1F
100
AcDbEntity
  8
0
  6
CONTINUOUS
 62
     7
100
AcDbCircle
 10
793.7313252785
 20
755.1075449873
 30
0.0
 40
3.497168791337986
100
AcDbArc
 50
270.9887918739
 51
0.0114554507
  0
LINE
  5
10F
330
1F
100
AcDbEntity
  8
0
  6
CONTINUOUS
 62
     7
100
AcDbLine
 10
797.1237388367
 20
755.1082441949
 30
0.0
 11
797.2284939999
 21
755.1082441949
 31
0.0
  0
LINE
  5
110
330
1F
100
AcDbEntity
  8
0
  6
CONTINUOUS
 62
     7
100
AcDbLine
 10
797.1237388367
 20
1005.5031547688
 30
0.0
 11
797.1237388367
 21
755.1082441949
 31
0.0
  0
LINE
  5
111
330
1F
100
AcDbEntity
  8
0
  6
CONTINUOUS
 62
     7
100
AcDbLine
 10
797.2284939999
 20
1005.5031547688
 30
0.0
 11
797.1237388367
 21
1005.5031547688
 31
0.0
  0
LINE
  5
112
330
1F
100
AcDbEntity
  8
0
  6
CONTINUOUS
 62
     7
100
AcDbLine
 10
538.8285008187
 20
755.1082441949
 30
0.0
 11
538.4412196393
 21
754.727668538
 31
0.0
  0
ARC
  5
113
330
1F
100
AcDbEntity
  8
0
  6
CONTINUOUS
 62
     7
100
AcDbCircle
 10
542.3256822253
 20
755.1075574529
 30
0.0
 40
3.497181474056041
100
AcDbArc
 50
179.9887488208
 51
269.0110038547
  0
LINE
  5
114
330
1F
100
AcDbEntity
  8
0
  6
CONTINUOUS
 62
     7
100
AcDbLine
 10
538.8285008187
 20
1005.5031547688
 30
0.0
 11
538.4412196393
 21
1005.8837304257
 31
0.0
  0
ARC
  5
115
330
1F
100
AcDbEntity
  8
0
  6
CONTINUOUS
 62
     7
100
AcDbCircle
 10
542.3256758827
 20
1005.5038477437
 30
0.0
 40
3.497175132638412
100
AcDbArc
 50
90.9888940089
 51
180.0113533156
  0
LINE
  5
116
330
1F
100
AcDbEntity
  8
0
  6
CONTINUOUS
 62
     7
100
AcDbLine
 10
538.8285008187
 20
1005.5031547688
 30
0.0
 11
538.9332559819
 21
1005.5031547688
 31
0.0
  0
LINE
  5
117
330
1F
100
AcDbEntity
  8
0
  6
CONTINUOUS
 62
     7
100
AcDbLine
 10
538.9332559819
 20
1005.5031547688
 30
0.0
 11
538.9332559819
 21
755.1082441949
 31
0.0
  0
LINE
  5
118
330
1F
100
AcDbEntity
  8
0
  6
CONTINUOUS
 62
     7
100
AcDbLine
 10
538.9332559819
 20
755.1082441949
 30
0.0
 11
538.8285008187
 21
755.1082441949
 31
0.0
  0
LINE
  5
119
330
1F
100
AcDbEntity
  8
0
  6
CONTINUOUS
 62
     7
100
AcDbLine
 10
799.8607543225
 20
754.4857332849
 30
0.0
 11
799.8607543225
 21
1006.1256656789
 31
0.0
  0
LINE
  5
11A
330
1F
100
AcDbEntity
  8
0
  6
CONTINUOUS
 62
     7
100
AcDbLine
 10
799.8607543225
 20
754.4857332849
 30
0.0
 11
799.5212313647
 21
754.8193851851
 31
0.0
  0
LINE
  5
11B
330
1F
100
AcDbEntity
  8
0
  6
CONTINUOUS
 62
     7
100
AcDbLine
 10
799.5212313647
 20
1005.7920137786
 30
0.0
 11
799.8607543225
 21
1006.1256656789
 31
0.0
  0
ELLIPSE
  5
11C
330
1F
100
AcDbEntity
  8
0
  6
CONTINUOUS
 62
     7
100
AcDbEllipse
 10
794.3979452373
 20
754.4524697431
 30
0.0
 11
1.851205455133822
 21
5.188886726517012
 31
0.0
210
0.0
220
0.0
230
1.0
 40
0.9904973314
 41
4.567378636493838
 42
5.058109426467488
  0
LINE
  5
11D
330
1F
100
AcDbEntity
  8
0
  6
CONTINUOUS
 62
     7
100
AcDbLine
 10
798.5438493008
 20
751.4978567504
 30
0.0
 11
799.2160704846
 21
751.888296976
 31
0.0
  0
ELLIPSE
  5
11E
330
1F
100
AcDbEntity
  8
0
  6
CONTINUOUS
 62
     7
100
AcDbEllipse
 10
794.0981913519
 20
754.747037066
 30
0.0
 11
-3.927576392211336
 21
3.859618571303941
 31
0.0
210
0.0
220
0.0
230
1.0
 40
0.9988036078
 41
2.761056934664148
 42
3.287294341483852
  0
LINE
  5
11F
330
1F
100
AcDbEntity
  8
0
  6
CONTINUOUS
 62
     7
100
AcDbLine
 10
795.7924839969
 20
749.1570482396
 30
0.0
 11
796.3129964585
 21
749.7064838551
 31
0.0
  0
ELLIPSE
  5
120
330
1F
100
AcDbEntity
  8
0
  6
CONTINUOUS
 62
     7
100
AcDbEllipse
 10
794.413170968
 20
754.4375074592
 30
0.0
 11
5.174292638154043
 21
1.892769312185237
 31
0.0
210
0.0
220
0.0
230
0.9999999999999999
 40
0.9904809187
 41
4.376062268553101
 42
4.618108248511239
  0
ELLIPSE
  5
121
330
1F
100
AcDbEntity
  8
0
  6
CONTINUOUS
 62
     7
100
AcDbEllipse
 10
794.413170968
 20
1006.1738915045
 30
0.0
 11
5.174292638154043
 21
-1.892769312185237
 31
0.0
210
0.0
220
0.0
230
0.9999999999999999
 40
0.9904809187
 41
1.665077058113045
 42
1.9071230386265
  0
LINE
  5
122
330
1F
100
AcDbEntity
  8
0
  6
CONTINUOUS
 62
     7
100
AcDbLine
 10
796.3129964585
 20
1010.9049151086
 30
0.0
 11
795.7924839969
 21
1011.4543507241
 31
0.0
  0
ELLIPSE
  5
123
330
1F
100
AcDbEntity
  8
0
  6
CONTINUOUS
 62
     7
100
AcDbEllipse
 10
794.0981913519
 20
1005.8643618977
 30
0.0
 11
3.927576392211222
 21
3.859618571304055
 31
0.0
210
0.0
220
0.0
230
1.0
 40
0.9988036078
 41
6.137483619286263
 42
6.66372102610578
  0
LINE
  5
124
330
1F
100
AcDbEntity
  8
0
  6
CONTINUOUS
 62
     7
100
AcDbLine
 10
798.5438493008
 20
1009.1135422133
 30
0.0
 11
799.2160704846
 21
1008.7231019877
 31
0.0
  0
ELLIPSE
  5
125
330
1F
100
AcDbEntity
  8
0
  6
CONTINUOUS
 62
     7
100
AcDbEllipse
 10
794.3979452373
 20
1006.1589292206
 30
0.0
 11
-1.851205455133822
 21
5.188886726517126
 31
0.0
210
0.0
220
0.0
230
0.9999999999999999
 40
0.9904973314
 41
4.366668534301937
 42
4.857399324803566
  0
ELLIPSE
  5
126
330
1F
100
AcDbEntity
  8
0
  6
CONTINUOUS
 62
     7
100
AcDbEllipse
 10
541.6438238506
 20
754.4375074592
 30
0.0
 11
5.174292638154157
 21
-1.89276931218501
 31
0.0
210
0.0
220
0.0
230
1.0
 40
0.9904809187
 41
4.806669711702805
 42
5.048715692216216
  0
LINE
  5
127
330
1F
100
AcDbEntity
  8
0
  6
CONTINUOUS
 62
     7
100
AcDbLine
 10
539.7439983601
 20
749.7064838551
 30
0.0
 11
540.2645108218
 21
749.1570482396
 31
0.0
  0
ELLIPSE
  5
128
330
1F
100
AcDbEntity
  8
0
  6
CONTINUOUS
 62
     7
100
AcDbEllipse
 10
541.9588034668
 20
754.747037066
 30
0.0
 11
-3.927576392211336
 21
-3.859618571304055
 31
0.0
210
0.0
220
0.0
230
0.9999999999999999
 40
0.9988036078
 41
6.137483619286129
 42
6.6637210261058
  0
LINE
  5
129
330
1F
100
AcDbEntity
  8
0
  6
CONTINUOUS
 62
     7
100
AcDbLine
 10
536.840924334
 20
751.888296976
 30
0.0
 11
537.5131455178
 21
751.4978567504
 31
0.0
  0
ELLIPSE
  5
12A
330
1F
100
AcDbEntity
  8
0
  6
CONTINUOUS
 62
     7
100
AcDbEllipse
 10
541.6590495813
 20
754.4524697431
 30
0.0
 11
-1.851205455133822
 21
5.188886726517012
 31
0.0
210
0.0
220
0.0
230
1.0
 40
0.9904973314
 41
1.225075880712123
 42
1.715806671213743
  0
LINE
  5
12B
330
1F
100
AcDbEntity
  8
0
  6
CONTINUOUS
 62
     7
100
AcDbLine
 10
536.5357634539
 20
754.8193851851
 30
0.0
 11
536.1962404961
 21
754.4857332849
 31
0.0
  0
ELLIPSE
  5
12C
330
1F
100
AcDbEntity
  8
0
  6
CONTINUOUS
 62
     7
100
AcDbEllipse
 10
541.6590495813
 20
1006.1589292206
 30
0.0
 11
1.851205455133595
 21
5.188886726517127
 31
0.0
210
0.0
220
0.0
230
1.0
 40
0.9904973314
 41
1.425785982904291
 42
1.916516772877622
  0
LINE
  5
12D
330
1F
100
AcDbEntity
  8
0
  6
CONTINUOUS
 62
     7
100
AcDbLine
 10
536.840924334
 20
1008.7231019877
 30
0.0
 11
537.5131455178
 21
1009.1135422133
 31
0.0
  0
ELLIPSE
  5
12E
330
1F
100
AcDbEntity
  8
0
  6
CONTINUOUS
 62
     7
100
AcDbEllipse
 10
541.9588034668
 20
1005.8643618977
 30
0.0
 11
3.927576392211336
 21
-3.859618571303941
 31
0.0
210
0.0
220
0.0
230
1.0
 40
0.9988036078
 41
2.761056934664148
 42
3.287294341483279
  0
LINE
  5
12F
330
1F
100
AcDbEntity
  8
0
  6
CONTINUOUS
 62
     7
100
AcDbLine
 10
540.2645108218
 20
1011.4543507241
 30
0.0
 11
539.7439983601
 21
1010.9049151086
 31
0.0
  0
ELLIPSE
  5
130
330
1F
100
AcDbEntity
  8
0
  6
CONTINUOUS
 62
     7
100
AcDbEllipse
 10
541.6438238506
 20
1006.1738915045
 30
0.0
 11
5.174292638154157
 21
1.89276931218501
 31
0.0
210
0.0
220
0.0
230
1.0
 40
0.9904809187
 41
1.234469614963384
 42
1.476515594921499
  0
LINE
  5
131
330
1F
100
AcDbEntity
  8
0
  6
CONTINUOUS
 62
     7
100
AcDbLine
 10
536.1962404961
 20
1006.1256656789
 30
0.0
 11
536.5357634539
 21
1005.7920137786
 31
0.0
  0
LINE
  5
132
330
1F
100
AcDbEntity
  8
0
  6
CONTINUOUS
 62
     7
100
AcDbLine
 10
536.1962404961
 20
754.4857332849
 30
0.0
 11
536.1962404961
 21
1006.1256656789
 31
0.0
  0
LINE
  5
133
330
1F
100
AcDbEntity
  8
0
  6
CONTINUOUS
 62
     7
100
AcDbLine
 10
540.3823194022
 20
742.4490223073
 30
0.0
 11
537.9513141627
 21
742.4490223073
 31
0.0
  0
LINE
  5
134
330
1F
100
AcDbEntity
  8
0
  6
CONTINUOUS
 62
     7
100
AcDbLine
 10
540.3823194022
 20
742.4490223073
 30
0.0
 11
540.6538334603
 21
742.6766971492
 31
0.0
  0
LINE
  5
135
330
1F
100
AcDbEntity
  8
0
  6
CONTINUOUS
 62
     7
100
AcDbLine
 10
540.6538334603
 20
742.6766971492
 30
0.0
 11
795.4031613583
 21
742.6766971492
 31
0.0
  0
LINE
  5
136
330
1F
100
AcDbEntity
  8
0
  6
CONTINUOUS
 62
     7
100
AcDbLine
 10
795.4031613583
 20
742.6766971492
 30
0.0
 11
795.6746754165
 21
742.4490223073
 31
0.0
  0
LINE
  5
137
330
1F
100
AcDbEntity
  8
0
  6
CONTINUOUS
 62
     7
100
AcDbLine
 10
795.6746605153
 20
742.4490223073
 30
0.0
 11
798.1056806559
 21
742.4490223073
 31
0.0
  0
LINE
  5
138
330
1F
100
AcDbEntity
  8
0
  6
CONTINUOUS
 62
     7
100
AcDbLine
 10
540.3823343034
 20
1018.1623766564
 30
0.0
 11
537.9513141627
 21
1018.1623766564
 31
0.0
  0
LINE
  5
139
330
1F
100
AcDbEntity
  8
0
  6
CONTINUOUS
 62
     7
100
AcDbLine
 10
795.6746754165
 20
1018.1623766564
 30
0.0
 11
798.1056806559
 21
1018.1623766564
 31
0.0
  0
LINE
  5
13A
330
1F
100
AcDbEntity
  8
0
  6
CONTINUOUS
 62
     7
100
AcDbLine
 10
795.4031613583
 20
1017.9347018146
 30
0.0
 11
795.6746754165
 21
1018.1623766564
 31
0.0
  0
LINE
  5
13B
330
1F
100
AcDbEntity
  8
0
  6
CONTINUOUS
 62
     7
100
AcDbLine
 10
540.6538334603
 20
1017.9347018146
 30
0.0
 11
795.4031613583
 21
1017.9347018146
 31
0.0
  0
LINE
  5
13C
330
1F
100
AcDbEntity
  8
0
  6
CONTINUOUS
 62
     7
100
AcDbLine
 10
540.3823194022
 20
1018.1623766564
 30
0.0
 11
540.6538334603
 21
1017.9347018146
 31
0.0
  0
LINE
  5
13D
330
1F
100
AcDbEntity
  8
0
  6
CONTINUOUS
 62
     7
100
AcDbLine
 10
531.721824121
 20
749.5635966205
 30
0.0
 11
531.721824121
 21
751.746765747
 31
0.0
  0
LINE
  5
13E
330
1F
100
AcDbEntity
  8
0
  6
CONTINUOUS
 62
     7
100
AcDbLine
 10
531.721824121
 20
1008.8646332168
 30
0.0
 11
531.721824121
 21
1011.0478023433
 31
0.0
  0
LINE
  5
13F
330
1F
100
AcDbEntity
  8
0
  6
CONTINUOUS
 62
     7
100
AcDbLine
 10
531.9494989629
 20
1008.6203882836
 30
0.0
 11
531.721824121
 21
1008.8646332168
 31
0.0
  0
LINE
  5
140
330
1F
100
AcDbEntity
  8
0
  6
CONTINUOUS
 62
     7
100
AcDbLine
 10
531.9494989629
 20
1008.6204031848
 30
0.0
 11
531.9494989629
 21
751.9909957789
 31
0.0
  0
LINE
  5
141
330
1F
100
AcDbEntity
  8
0
  6
CONTINUOUS
 62
     7
100
AcDbLine
 10
531.721824121
 20
751.746765747
 30
0.0
 11
531.9494989629
 21
751.9910106801
 31
0.0
  0
LINE
  5
142
330
1F
100
AcDbEntity
  8
0
  6
CONTINUOUS
 62
     7
100
AcDbLine
 10
804.3351706977
 20
751.746765747
 30
0.0
 11
804.1074958558
 21
751.9910106801
 31
0.0
  0
LINE
  5
143
330
1F
100
AcDbEntity
  8
0
  6
CONTINUOUS
 62
     7
100
AcDbLine
 10
804.1074958558
 20
1008.6203882836
 30
0.0
 11
804.1074958558
 21
751.9910106801
 31
0.0
  0
LINE
  5
144
330
1F
100
AcDbEntity
  8
0
  6
CONTINUOUS
 62
     7
100
AcDbLine
 10
804.1074958558
 20
1008.6203882836
 30
0.0
 11
804.3351706977
 21
1008.8646332168
 31
0.0
  0
LINE
  5
145
330
1F
100
AcDbEntity
  8
0
  6
CONTINUOUS
 62
     7
100
AcDbLine
 10
804.3351706977
 20
1008.8646332168
 30
0.0
 11
804.3351706977
 21
1011.0478023433
 31
0.0
  0
LINE
  5
146
330
1F
100
AcDbEntity
  8
0
  6
CONTINUOUS
 62
     7
100
AcDbLine
 10
804.3351706977
 20
749.5635966205
 30
0.0
 11
804.3351706977
 21
751.746765747
 31
0.0
  0
ARC
  5
147
330
1F
100
AcDbEntity
  8
0
  6
CONTINUOUS
 62
     7
100
AcDbCircle
 10
540.3822608399
 20
1017.6626656106
 30
0.0
 40
0.4997110512517721
100
AcDbArc
 50
89.9915768373
 51
212.8767685574
  0
ARC
  5
148
330
1F
100
AcDbEntity
  8
0
  6
CONTINUOUS
 62
     7
100
AcDbCircle
 10
540.6584978012
 20
1017.4341084461
 30
0.0
 40
0.5006150982473749
100
AcDbArc
 50
90.5338450937
 51
210.2877218405
  0
LINE
  5
149
330
1F
100
AcDbEntity
  8
0
  6
CONTINUOUS
 62
     7
100
AcDbLine
 10
540.2262148375
 20
1017.181612029
 30
0.0
 11
539.9625834937
 21
1017.3914203786
 31
0.0
  0
ARC
  5
14A
330
1F
100
AcDbEntity
  8
0
  6
CONTINUOUS
 62
     7
100
AcDbCircle
 10
540.6584978012
 20
743.1772905176
 30
0.0
 40
0.5006150982473749
100
AcDbArc
 50
149.7122781595
 51
269.4661549063
  0
ARC
  5
14B
330
1F
100
AcDbEntity
  8
0
  6
CONTINUOUS
 62
     7
100
AcDbCircle
 10
540.3822608399
 20
742.9487333531
 30
0.0
 40
0.4997110512519994
100
AcDbArc
 50
147.1232314426
 51
270.0084231627
  0
LINE
  5
14C
330
1F
100
AcDbEntity
  8
0
  6
CONTINUOUS
 62
     7
100
AcDbLine
 10
539.9625834937
 20
743.2199785851
 30
0.0
 11
540.2262148375
 21
743.4297869348
 31
0.0
  0
ARC
  5
14D
330
1F
100
AcDbEntity
  8
0
  6
CONTINUOUS
 62
     7
100
AcDbCircle
 10
795.6747339788
 20
742.9487333531
 30
0.0
 40
0.4997110512519326
100
AcDbArc
 50
269.9915768373
 51
32.8767685574
  0
ARC
  5
14E
330
1F
100
AcDbEntity
  8
0
  6
CONTINUOUS
 62
     7
100
AcDbCircle
 10
795.3996690853
 20
743.1766249822
 30
0.0
 40
0.4999400305811527
100
AcDbArc
 50
270.4002362763
 51
30.421330658
  0
LINE
  5
14F
330
1F
100
AcDbEntity
  8
0
  6
CONTINUOUS
 62
     7
100
AcDbLine
 10
795.8307799811
 20
743.4297869348
 30
0.0
 11
796.094411325
 21
743.2199785851
 31
0.0
  0
ARC
  5
150
330
1F
100
AcDbEntity
  8
0
  6
CONTINUOUS
 62
     7
100
AcDbCircle
 10
795.3996690853
 20
1017.4347739816
 30
0.0
 40
0.4999400305811071
100
AcDbArc
 50
329.578669342
 51
89.5997637237
  0
ARC
  5
151
330
1F
100
AcDbEntity
  8
0
  6
CONTINUOUS
 62
     7
100
AcDbCircle
 10
795.6745666992
 20
1017.6625745362
 30
0.0
 40
0.4998021290377949
100
AcDbArc
 50
327.14240939
 51
89.9892452153
  0
LINE
  5
152
330
1F
100
AcDbEntity
  8
0
  6
CONTINUOUS
 62
     7
100
AcDbLine
 10
796.094411325
 20
1017.3914203786
 30
0.0
 11
795.8307799811
 21
1017.181612029
 31
0.0
  0
ARC
  5
153
330
1F
100
AcDbEntity
  8
0
  6
CONTINUOUS
 62
     7
100
AcDbCircle
 10
803.6081718244
 20
751.9932531549
 30
0.0
 40
0.4993290668926089
100
AcDbArc
 50
243.622006702
 51
359.742685166
  0
ARC
  5
154
330
1F
100
AcDbEntity
  8
0
  6
CONTINUOUS
 62
     7
100
AcDbCircle
 10
803.8353406427
 20
751.7469280672
 30
0.0
 40
0.4998300767099864
100
AcDbArc
 50
241.4560195324
 51
359.9831012748
  0
LINE
  5
155
330
1F
100
AcDbEntity
  8
0
  6
CONTINUOUS
 62
     7
100
AcDbLine
 10
803.5965201373
 20
751.307852044
 30
0.0
 11
803.3863243575
 21
751.5459129952
 31
0.0
  0
ARC
  5
156
330
1F
100
AcDbEntity
  8
0
  6
CONTINUOUS
 62
     7
100
AcDbCircle
 10
532.4488229943
 20
1008.6181458088
 30
0.0
 40
0.4993290668923804
100
AcDbArc
 50
63.6220067019
 51
179.742685166
  0
ARC
  5
157
330
1F
100
AcDbEntity
  8
0
  6
CONTINUOUS
 62
     7
100
AcDbCircle
 10
532.221654176
 20
1008.8644708965
 30
0.0
 40
0.4998300767105225
100
AcDbArc
 50
61.4560195325
 51
179.9831012747
  0
LINE
  5
158
330
1F
100
AcDbEntity
  8
0
  6
CONTINUOUS
 62
     7
100
AcDbLine
 10
532.4604746814
 20
1009.3035469197
 30
0.0
 11
532.6706704612
 21
1009.0654859685
 31
0.0
  0
ARC
  5
159
330
1F
100
AcDbEntity
  8
0
  6
CONTINUOUS
 62
     7
100
AcDbCircle
 10
803.8353406427
 20
1008.8644708965
 30
0.0
 40
0.4998300767106308
100
AcDbArc
 50
0.0168987253
 51
118.5439804675
  0
ARC
  5
15A
330
1F
100
AcDbEntity
  8
0
  6
CONTINUOUS
 62
     7
100
AcDbCircle
 10
803.6073353849
 20
1008.616790564
 30
0.0
 40
0.5001734101952123
100
AcDbArc
 50
0.4121289263
 51
116.2231792057
  0
LINE
  5
15B
330
1F
100
AcDbEntity
  8
0
  6
CONTINUOUS
 62
     7
100
AcDbLine
 10
803.3863243575
 20
1009.0654859685
 30
0.0
 11
803.5965201373
 21
1009.3035469197
 31
0.0
  0
ARC
  5
15C
330
1F
100
AcDbEntity
  8
0
  6
CONTINUOUS
 62
     7
100
AcDbCircle
 10
532.221654176
 20
751.7469280672
 30
0.0
 40
0.4998300767100407
100
AcDbArc
 50
180.0168987252
 51
298.5439804676
  0
ARC
  5
15D
330
1F
100
AcDbEntity
  8
0
  6
CONTINUOUS
 62
     7
100
AcDbCircle
 10
532.4496594338
 20
751.9946083998
 30
0.0
 40
0.500173410195277
100
AcDbArc
 50
180.4121289264
 51
296.2231792057
  0
LINE
  5
15E
330
1F
100
AcDbEntity
  8
0
  6
CONTINUOUS
 62
     7
100
AcDbLine
 10
532.6706704612
 20
751.5459129952
 30
0.0
 11
532.4604746814
 21
751.307852044
 31
0.0
  0
ARC
  5
15F
330
1F
100
AcDbEntity
  8
0
  6
CONTINUOUS
 62
     7
100
AcDbCircle
 10
800.8784974093
 20
1014.3056994819
 30
0.0
 40
5.69290441564952
100
AcDbArc
 50
245.7889918847
 51
298.518321291
  0
ARC
  5
160
330
1F
100
AcDbEntity
  8
0
  6
CONTINUOUS
 62
     7
100
AcDbCircle
 10
800.8784974093
 20
1014.3056994819
 30
0.0
 40
5.692904415649638
100
AcDbArc
 50
147.178143538
 51
216.6819757311
  0
CIRCLE
  5
161
330
1F
100
AcDbEntity
  8
0
  6
CONTINUOUS
 62
     7
100
AcDbCircle
 10
800.8784974093
 20
1014.3056994819
 30
0.0
 40
3.499999999992951
  0
ELLIPSE
  5
162
330
1F
100
AcDbEntity
  8
0
  6
CONTINUOUS
 62
     7
100
AcDbEllipse
 10
800.8784974093
 20
1014.2841052352
 30
0.0
 11
0.0
 21
5.820255817455177
 31
0.0
210
0.0
220
0.0
230
1.0
 40
0.9999931172
 41
1.049698214854519
 42
2.078520568576526
  0
ELLIPSE
  5
163
330
1F
100
AcDbEntity
  8
0
  6
CONTINUOUS
 62
     7
100
AcDbEllipse
 10
535.1784974093
 20
746.3272937286
 30
0.0
 11
0.0
 21
5.820255817455177
 31
0.0
210
0.0
220
0.0
230
1.0
 40
0.9999931172
 41
4.191290868444325
 42
5.220113222166315
  0
ARC
  5
164
330
1F
100
AcDbEntity
  8
0
  6
CONTINUOUS
 62
     7
100
AcDbCircle
 10
535.1784974093
 20
746.3056994819
 30
0.0
 40
5.692904415649734
100
AcDbArc
 50
327.178143538
 51
36.6819757311
  0
ARC
  5
165
330
1F
100
AcDbEntity
  8
0
  6
CONTINUOUS
 62
     7
100
AcDbCircle
 10
535.1784974093
 20
746.3056994819
 30
0.0
 40
5.69290441564952
100
AcDbArc
 50
65.7889918847
 51
118.518321291
  0
CIRCLE
  5
166
330
1F
100
AcDbEntity
  8
0
  6
CONTINUOUS
 62
     7
100
AcDbCircle
 10
535.1784974093
 20
746.3056994819
 30
0.0
 40
3.499999999993065
  0
ARC
  5
167
330
1F
100
AcDbEntity
  8
0
  6
CONTINUOUS
 62
     7
100
AcDbCircle
 10
800.8784974093
 20
746.3056994819
 30
0.0
 40
5.6929044156497
100
AcDbArc
 50
143.3180242689
 51
212.821856462
  0
ARC
  5
168
330
1F
100
AcDbEntity
  8
0
  6
CONTINUOUS
 62
     7
100
AcDbCircle
 10
800.8784974093
 20
746.3056994819
 30
0.0
 40
5.69290441564952
100
AcDbArc
 50
61.481678709
 51
114.2110081153
  0
CIRCLE
  5
169
330
1F
100
AcDbEntity
  8
0
  6
CONTINUOUS
 62
     7
100
AcDbCircle
 10
800.8784974093
 20
746.3056994819
 30
0.0
 40
3.499999999993065
  0
ELLIPSE
  5
16A
330
1F
100
AcDbEntity
  8
0
  6
CONTINUOUS
 62
     7
100
AcDbEllipse
 10
800.8784974093
 20
746.3272937286
 30
0.0
 11
0.0
 21
5.820255817454722
 31
0.0
210
0.0
220
0.0
230
1.0
 40
0.9999931172
 41
1.063072085773706
 42
2.091894438703674
  0
ARC
  5
16B
330
1F
100
AcDbEntity
  8
0
  6
CONTINUOUS
 62
     7
100
AcDbCircle
 10
535.1784974093
 20
1014.3056994819
 30
0.0
 40
5.692904415649734
100
AcDbArc
 50
323.3180242689
 51
32.821856462
  0
ELLIPSE
  5
16C
330
1F
100
AcDbEntity
  8
0
  6
CONTINUOUS
 62
     7
100
AcDbEllipse
 10
535.1784974093
 20
1014.2841052352
 30
0.0
 11
0.0
 21
5.820255817454722
 31
0.0
210
0.0
220
0.0
230
1.0
 40
0.9999931172
 41
4.204664739363521
 42
5.233487092293473
  0
ARC
  5
16D
330
1F
100
AcDbEntity
  8
0
  6
CONTINUOUS
 62
     7
100
AcDbCircle
 10
535.1784974093
 20
1014.3056994819
 30
0.0
 40
5.69290441564952
100
AcDbArc
 50
241.481678709
 51
294.2110081153
  0
CIRCLE
  5
16E
330
1F
100
AcDbEntity
  8
0
  6
CONTINUOUS
 62
     7
100
AcDbCircle
 10
535.1784974093
 20
1014.3056994819
 30
0.0
 40
3.499999999992951
  0
ELLIPSE
  5
16F
330
1F
100
AcDbEntity
  8
0
  6
CONTINUOUS
 62
     7
100
AcDbEllipse
 10
800.8569086689
 20
746.3056994819
 30
0.0
 11
5.818771721591928
 21
0.0
 31
0.0
210
0.0
220
0.0
230
1.0
 40
0.9999931172
 41
1.12109174866896
 42
1.856663365371056
  0
ELLIPSE
  5
170
330
1F
100
AcDbEntity
  8
0
  6
CONTINUOUS
 62
     7
100
AcDbEllipse
 10
535.2000861497
 20
1014.3056994819
 30
0.0
 11
5.818771721591928
 21
0.0
 31
0.0
210
0.0
220
0.0
230
1.0
 40
0.9999931172
 41
4.262684402258785
 42
4.99825601896057
  0
ELLIPSE
  5
171
330
1F
100
AcDbEntity
  8
0
  6
CONTINUOUS
 62
     7
100
AcDbEllipse
 10
800.8569086689
 20
1014.3056994819
 30
0.0
 11
5.818771721591474
 21
0.0
 31
0.0
210
0.0
220
0.0
230
1.0
 40
0.9999931172
 41
4.42652194122182
 42
5.162093558486843
  0
ELLIPSE
  5
172
330
1F
100
AcDbEntity
  8
0
  6
CONTINUOUS
 62
     7
100
AcDbEllipse
 10
535.2000861497
 20
746.3056994819
 30
0.0
 11
5.818771721591474
 21
0.0
 31
0.0
210
0.0
220
0.0
230
1.0
 40
0.9999931172
 41
1.284929287632031
 42
2.020500904897071
  0
CIRCLE
  5
173
330
1F
100
AcDbEntity
  8
0
  6
CONTINUOUS
 62
     7
100
AcDbCircle
 10
800.8784974093
 20
746.3056994819
 30
0.0
 40
3.028329986450558
  0
CIRCLE
  5
174
330
1F
100
AcDbEntity
  8
0
  6
CONTINUOUS
 62
     7
100
AcDbCircle
 10
800.8784974093
 20
1014.3056994819
 30
0.0
 40
3.028329986450444
  0
CIRCLE
  5
175
330
1F
100
AcDbEntity
  8
0
  6
CONTINUOUS
 62
     7
100
AcDbCircle
 10
535.1784974093
 20
1014.3056994819
 30
0.0
 40
3.028329986450444
  0
CIRCLE
  5
176
330
1F
100
AcDbEntity
  8
0
  6
CONTINUOUS
 62
     7
100
AcDbCircle
 10
535.1784974093
 20
746.3056994819
 30
0.0
 40
3.028329986450558
  0
LINE
  5
177
330
1F
100
AcDbEntity
  8
0
  6
CONTINUOUS
 62
     7
100
AcDbLine
 10
800.1226273293
 20
873.911576289
 30
0.0
 11
800.1226273293
 21
869.3998227262
 31
0.0
  0
LINE
  5
178
330
1F
100
AcDbEntity
  8
0
  6
CONTINUOUS
 62
     7
100
AcDbLine
 10
800.1226273293
 20
869.3998227262
 30
0.0
 11
804.0055570121
 21
869.4286443659
 31
0.0
  0
LINE
  5
179
330
1F
100
AcDbEntity
  8
0
  6
CONTINUOUS
 62
     7
100
AcDbLine
 10
804.0055570121
 20
869.4286443659
 30
0.0
 11
804.0055570121
 21
873.8827546493
 31
0.0
  0
LINE
  5
17A
330
1F
100
AcDbEntity
  8
0
  6
CONTINUOUS
 62
     7
100
AcDbLine
 10
804.0055570121
 20
873.8827546493
 30
0.0
 11
800.1226273293
 21
873.911576289
 31
0.0
  0
LINE
  5
17B
330
1F
100
AcDbEntity
  8
0
  6
CONTINUOUS
 62
     7
100
AcDbLine
 10
800.1226273293
 20
891.3115760677
 30
0.0
 11
800.1226273293
 21
886.7998225049
 31
0.0
  0
LINE
  5
17C
330
1F
100
AcDbEntity
  8
0
  6
CONTINUOUS
 62
     7
100
AcDbLine
 10
800.1226273293
 20
886.7998225049
 30
0.0
 11
804.0055570121
 21
886.8286441446
 31
0.0
  0
LINE
  5
17D
330
1F
100
AcDbEntity
  8
0
  6
CONTINUOUS
 62
     7
100
AcDbLine
 10
804.0055570121
 20
886.8286441446
 30
0.0
 11
804.0055570121
 21
891.282754428
 31
0.0
  0
LINE
  5
17E
330
1F
100
AcDbEntity
  8
0
  6
CONTINUOUS
 62
     7
100
AcDbLine
 10
804.0055570121
 20
891.282754428
 30
0.0
 11
800.1226273293
 21
891.3115760677
 31
0.0
  0
LINE
  5
17F
330
1F
100
AcDbEntity
  8
0
  6
CONTINUOUS
 62
     7
100
AcDbLine
 10
532.0514378066
 20
873.8827546493
 30
0.0
 11
535.9343674893
 21
873.911576289
 31
0.0
  0
LINE
  5
180
330
1F
100
AcDbEntity
  8
0
  6
CONTINUOUS
 62
     7
100
AcDbLine
 10
532.0514378066
 20
869.4286443659
 30
0.0
 11
532.0514378066
 21
873.8827546493
 31
0.0
  0
LINE
  5
181
330
1F
100
AcDbEntity
  8
0
  6
CONTINUOUS
 62
     7
100
AcDbLine
 10
535.9343674893
 20
869.3998227262
 30
0.0
 11
532.0514378066
 21
869.4286443659
 31
0.0
  0
LINE
  5
182
330
1F
100
AcDbEntity
  8
0
  6
CONTINUOUS
 62
     7
100
AcDbLine
 10
535.9343674893
 20
873.911576289
 30
0.0
 11
535.9343674893
 21
869.3998227262
 31
0.0
  0
LINE
  5
183
330
1F
100
AcDbEntity
  8
0
  6
CONTINUOUS
 62
     7
100
AcDbLine
 10
532.0514378066
 20
891.282754428
 30
0.0
 11
535.9343674893
 21
891.3115760677
 31
0.0
  0
LINE
  5
184
330
1F
100
AcDbEntity
  8
0
  6
CONTINUOUS
 62
     7
100
AcDbLine
 10
532.0514378066
 20
886.8286441446
 30
0.0
 11
532.0514378066
 21
891.282754428
 31
0.0
  0
LINE
  5
185
330
1F
100
AcDbEntity
  8
0
  6
CONTINUOUS
 62
     7
100
AcDbLine
 10
535.9343674893
 20
886.7998225049
 30
0.0
 11
532.0514378066
 21
886.8286441446
 31
0.0
  0
LINE
  5
186
330
1F
100
AcDbEntity
  8
0
  6
CONTINUOUS
 62
     7
100
AcDbLine
 10
535.9343674893
 20
891.3115760677
 30
0.0
 11
535.9343674893
 21
886.7998225049
 31
0.0
  0
ARC
  5
187
330
1F
100
AcDbEntity
  8
0
  6
CONTINUOUS
 62
     7
100
AcDbCircle
 10
793.7310835416
 20
1005.5036003908
 30
0.0
 40
3.39265532438781
100
AcDbArc
 50
359.9924742562
 51
89.0076194619
  0
ARC
  5
188
330
1F
100
AcDbEntity
  8
0
  6
CONTINUOUS
 62
     7
100
AcDbCircle
 10
542.325911277
 20
755.107798573
 30
0.0
 40
3.39265532438747
100
AcDbArc
 50
179.9924742562
 51
269.0076194619
  0
ARC
  5
189
330
1F
100
AcDbEntity
  8
0
  6
CONTINUOUS
 62
     7
100
AcDbCircle
 10
793.7311916746
 20
755.1076923109
 30
0.0
 40
3.39254720707
100
AcDbArc
 50
270.9905856671
 51
0.0093206148
  0
ARC
  5
18A
330
1F
100
AcDbEntity
  8
0
  6
CONTINUOUS
 62
     7
100
AcDbCircle
 10
542.3258031441
 20
1005.5037066529
 30
0.0
 40
3.392547207069845
100
AcDbArc
 50
90.9905856671
 51
180.0093206148
  0
LINE
  5
18B
330
1F
100
AcDbEntity
  8
0
  6
CONTINUOUS
 62
     7
100
AcDbLine
 10
552.9171463961
 20
1002.9509136819
 30
0.0
 11
553.6062058921
 21
1002.262316122
 31
0.0
  0
LINE
  5
18C
330
1F
100
AcDbEntity
  8
0
  6
CONTINUOUS
 62
     7
100
AcDbLine
 10
545.1457065458
 20
995.1794738316
 30
0.0
 11
552.9171463961
 21
1002.9509136819
 31
0.0
  0
LINE
  5
18D
330
1F
100
AcDbEntity
  8
0
  6
CONTINUOUS
 62
     7
100
AcDbLine
 10
545.8347660417
 20
994.4908762716
 30
0.0
 11
545.1457065458
 21
995.1794738316
 31
0.0
  0
LINE
  5
18E
330
1F
100
AcDbEntity
  8
0
  6
CONTINUOUS
 62
     7
100
AcDbLine
 10
540.1203867907
 20
988.77648957
 30
0.0
 11
545.8347660417
 21
994.4908762716
 31
0.0
  0
LINE
  5
18F
330
1F
100
AcDbEntity
  8
0
  6
CONTINUOUS
 62
     7
100
AcDbLine
 10
540.1203867907
 20
771.8349093937
 30
0.0
 11
540.1203867907
 21
988.77648957
 31
0.0
  0
LINE
  5
190
330
1F
100
AcDbEntity
  8
0
  6
CONTINUOUS
 62
     7
100
AcDbLine
 10
545.8347660417
 20
766.1205226921
 30
0.0
 11
540.1203867907
 21
771.8349093937
 31
0.0
  0
LINE
  5
191
330
1F
100
AcDbEntity
  8
0
  6
CONTINUOUS
 62
     7
100
AcDbLine
 10
545.1457065458
 20
765.4319251322
 30
0.0
 11
545.8347660417
 21
766.1205226921
 31
0.0
  0
LINE
  5
192
330
1F
100
AcDbEntity
  8
0
  6
CONTINUOUS
 62
     7
100
AcDbLine
 10
552.9171463961
 20
757.6604852818
 30
0.0
 11
545.1457065458
 21
765.4319251322
 31
0.0
  0
LINE
  5
193
330
1F
100
AcDbEntity
  8
0
  6
CONTINUOUS
 62
     7
100
AcDbLine
 10
553.6062058921
 20
758.3490828418
 30
0.0
 11
552.9171463961
 21
757.6604852818
 31
0.0
  0
LINE
  5
194
330
1F
100
AcDbEntity
  8
0
  6
CONTINUOUS
 62
     7
100
AcDbLine
 10
559.1477018709
 20
752.8075943135
 30
0.0
 11
553.6062058921
 21
758.3490828418
 31
0.0
  0
LINE
  5
195
330
1F
100
AcDbEntity
  8
0
  6
CONTINUOUS
 62
     7
100
AcDbLine
 10
776.9092929478
 20
752.8075943135
 30
0.0
 11
559.1477018709
 21
752.8075943135
 31
0.0
  0
LINE
  5
196
330
1F
100
AcDbEntity
  8
0
  6
CONTINUOUS
 62
     7
100
AcDbLine
 10
782.4507889266
 20
758.3490828418
 30
0.0
 11
776.9092929478
 21
752.8075943135
 31
0.0
  0
LINE
  5
197
330
1F
100
AcDbEntity
  8
0
  6
CONTINUOUS
 62
     7
100
AcDbLine
 10
783.1398484225
 20
757.6604852818
 30
0.0
 11
782.4507889266
 21
758.3490828418
 31
0.0
  0
LINE
  5
198
330
1F
100
AcDbEntity
  8
0
  6
CONTINUOUS
 62
     7
100
AcDbLine
 10
790.9112882728
 20
765.4319251322
 30
0.0
 11
783.1398484225
 21
757.6604852818
 31
0.0
  0
LINE
  5
199
330
1F
100
AcDbEntity
  8
0
  6
CONTINUOUS
 62
     7
100
AcDbLine
 10
790.2222287769
 20
766.1205226921
 30
0.0
 11
790.9112882728
 21
765.4319251322
 31
0.0
  0
LINE
  5
19A
330
1F
100
AcDbEntity
  8
0
  6
CONTINUOUS
 62
     7
100
AcDbLine
 10
795.9366080279
 20
771.8349093937
 30
0.0
 11
790.2222287769
 21
766.1205226921
 31
0.0
  0
LINE
  5
19B
330
1F
100
AcDbEntity
  8
0
  6
CONTINUOUS
 62
     7
100
AcDbLine
 10
795.9366080279
 20
988.77648957
 30
0.0
 11
795.9366080279
 21
771.8349093937
 31
0.0
  0
LINE
  5
19C
330
1F
100
AcDbEntity
  8
0
  6
CONTINUOUS
 62
     7
100
AcDbLine
 10
790.2222287769
 20
994.4908762716
 30
0.0
 11
795.9366080279
 21
988.77648957
 31
0.0
  0
LINE
  5
19D
330
1F
100
AcDbEntity
  8
0
  6
CONTINUOUS
 62
     7
100
AcDbLine
 10
790.9112882728
 20
995.1794738316
 30
0.0
 11
790.2222287769
 21
994.4908762716
 31
0.0
  0
LINE
  5
19E
330
1F
100
AcDbEntity
  8
0
  6
CONTINUOUS
 62
     7
100
AcDbLine
 10
783.1398484225
 20
1002.9509136819
 30
0.0
 11
790.9112882728
 21
995.1794738316
 31
0.0
  0
LINE
  5
19F
330
1F
100
AcDbEntity
  8
0
  6
CONTINUOUS
 62
     7
100
AcDbLine
 10
782.4507889266
 20
1002.262316122
 30
0.0
 11
783.1398484225
 21
1002.9509136819
 31
0.0
  0
LINE
  5
1A0
330
1F
100
AcDbEntity
  8
0
  6
CONTINUOUS
 62
     7
100
AcDbLine
 10
776.9092929478
 20
1007.8038046502
 30
0.0
 11
782.4507889266
 21
1002.262316122
 31
0.0
  0
LINE
  5
1A1
330
1F
100
AcDbEntity
  8
0
  6
CONTINUOUS
 62
     7
100
AcDbLine
 10
559.1477018709
 20
1007.8038046502
 30
0.0
 11
776.9092929478
 21
1007.8038046502
 31
0.0
  0
LINE
  5
1A2
330
1F
100
AcDbEntity
  8
0
  6
CONTINUOUS
 62
     7
100
AcDbLine
 10
553.6062058921
 20
1002.262316122
 30
0.0
 11
559.1477018709
 21
1007.8038046502
 31
0.0
  0
CIRCLE
  5
1A3
330
1F
100
AcDbEntity
  8
0
  6
CONTINUOUS
 62
     7
100
AcDbCircle
 10
544.8784974093
 20
757.9056994819
 30
0.0
 40
3.500000000003183
  0
CIRCLE
  5
1A4
330
1F
100
AcDbEntity
  8
0
  6
CONTINUOUS
 62
     7
100
AcDbCircle
 10
544.8784974093
 20
1002.7056994819
 30
0.0
 40
3.500000000003297
  0
CIRCLE
  5
1A5
330
1F
100
AcDbEntity
  8
0
  6
CONTINUOUS
 62
     7
100
AcDbCircle
 10
791.1784974093
 20
1002.7056994819
 30
0.0
 40
3.500000000003297
  0
CIRCLE
  5
1A6
330
1F
100
AcDbEntity
  8
0
  6
CONTINUOUS
 62
     7
100
AcDbCircle
 10
791.1784974093
 20
757.9056994819
 30
0.0
 40
3.500000000003183
  0
LINE
  5
1A7
330
1F
100
AcDbEntity
  8
0
  6
CONTINUOUS
 62
     7
100
AcDbLine
 10
794.2069855447
 20
985.9190130972
 30
0.0
 11
795.9366080279
 21
988.77648957
 31
0.0
  0
ELLIPSE
  5
1A8
330
1F
100
AcDbEntity
  8
0
  6
CONTINUOUS
 62
     7
100
AcDbEllipse
 10
793.7070337983
 20
986.4192219917
 30
0.0
 11
-0.49991425046926
 21
0.5002571604418335
 31
0.0
210
0.0
220
0.0
230
1.0
 40
0.0185098944
 41
3.133933188012955
 42
3.146150492774976
  0
LINE
  5
1A9
330
1F
100
AcDbEntity
  8
0
  6
CONTINUOUS
 62
     7
100
AcDbLine
 10
794.2068663354
 20
985.9189087891
 30
0.0
 11
774.0517047162
 21
1006.0740629577
 31
0.0
  0
ELLIPSE
  5
1AA
330
1F
100
AcDbEntity
  8
0
  6
CONTINUOUS
 62
     7
100
AcDbEllipse
 10
774.5520199191
 20
1005.5742358709
 30
0.0
 11
0.5002571604417199
 21
-0.49991425046926
 31
0.0
210
0.0
220
0.0
230
1.0
 40
0.0185098944
 41
3.13703481441762
 42
3.149252119173574
  0
LINE
  5
1AB
330
1F
100
AcDbEntity
  8
0
  6
CONTINUOUS
 62
     7
100
AcDbLine
 10
774.0518090243
 20
1006.074182167
 30
0.0
 11
776.9092929478
 21
1007.8038046502
 31
0.0
  0
LINE
  5
1AC
330
1F
100
AcDbEntity
  8
0
  6
CONTINUOUS
 62
     7
100
AcDbLine
 10
782.4507889266
 20
1002.262316122
 30
0.0
 11
782.4567940945
 21
1002.2202426933
 31
0.0
  0
LINE
  5
1AD
330
1F
100
AcDbEntity
  8
0
  6
CONTINUOUS
 62
     7
100
AcDbLine
 10
782.4567940945
 20
1002.2202426933
 30
0.0
 11
790.1801404471
 21
994.4968963407
 31
0.0
  0
LINE
  5
1AE
330
1F
100
AcDbEntity
  8
0
  6
CONTINUOUS
 62
     7
100
AcDbLine
 10
790.1801404471
 20
994.4968963407
 30
0.0
 11
790.2222287769
 21
994.4908762716
 31
0.0
  0
LINE
  5
1AF
330
1F
100
AcDbEntity
  8
0
  6
CONTINUOUS
 62
     7
100
AcDbLine
 10
795.9366080279
 20
771.8349093937
 30
0.0
 11
794.2069855447
 21
774.6923858665
 31
0.0
  0
LINE
  5
1B0
330
1F
100
AcDbEntity
  8
0
  6
CONTINUOUS
 62
     7
100
AcDbLine
 10
790.1801404471
 20
766.114502623
 30
0.0
 11
790.2222287769
 21
766.1205226921
 31
0.0
  0
LINE
  5
1B1
330
1F
100
AcDbEntity
  8
0
  6
CONTINUOUS
 62
     7
100
AcDbLine
 10
782.4567940945
 20
758.3911562704
 30
0.0
 11
790.1801404471
 21
766.114502623
 31
0.0
  0
LINE
  5
1B2
330
1F
100
AcDbEntity
  8
0
  6
CONTINUOUS
 62
     7
100
AcDbLine
 10
782.4507889266
 20
758.3490828418
 30
0.0
 11
782.4567940945
 21
758.3911562704
 31
0.0
  0
LINE
  5
1B3
330
1F
100
AcDbEntity
  8
0
  6
CONTINUOUS
 62
     7
100
AcDbLine
 10
774.0518090243
 20
754.5372167968
 30
0.0
 11
776.9092929478
 21
752.8075943135
 31
0.0
  0
ELLIPSE
  5
1B4
330
1F
100
AcDbEntity
  8
0
  6
CONTINUOUS
 62
     7
100
AcDbEllipse
 10
774.5520199191
 20
755.0371630929
 30
0.0
 11
0.5002571604417199
 21
0.49991425046926
 31
0.0
210
0.0
220
0.0
230
1.0
 40
0.0185098944
 41
3.13393318800672
 42
3.146150492762748
  0
LINE
  5
1B5
330
1F
100
AcDbEntity
  8
0
  6
CONTINUOUS
 62
     7
100
AcDbLine
 10
794.2068663354
 20
774.6924901747
 30
0.0
 11
774.0517047162
 21
754.5373360061
 31
0.0
  0
ELLIPSE
  5
1B6
330
1F
100
AcDbEntity
  8
0
  6
CONTINUOUS
 62
     7
100
AcDbEllipse
 10
793.7070337983
 20
774.1921769721
 30
0.0
 11
0.4999142504694873
 21
0.5002571604418335
 31
0.0
210
0.0
220
0.0
230
1.0
 40
0.0185098944
 41
6.278627468014287
 42
6.29084477277495
  0
LINE
  5
1B7
330
1F
100
AcDbEntity
  8
0
  6
CONTINUOUS
 62
     7
100
AcDbLine
 10
794.2069855447
 20
774.6923858665
 30
0.0
 11
794.2069855447
 21
985.9190130972
 31
0.0
  0
LINE
  5
1B8
330
1F
100
AcDbEntity
  8
0
  6
CONTINUOUS
 62
     7
100
AcDbLine
 10
562.0051857943
 20
1006.074182167
 30
0.0
 11
774.0518090243
 21
1006.074182167
 31
0.0
  0
LINE
  5
1B9
330
1F
100
AcDbEntity
  8
0
  6
CONTINUOUS
 62
     7
100
AcDbLine
 10
559.1477018709
 20
1007.8038046502
 30
0.0
 11
562.0051857943
 21
1006.074182167
 31
0.0
  0
LINE
  5
1BA
330
1F
100
AcDbEntity
  8
0
  6
CONTINUOUS
 62
     7
100
AcDbLine
 10
562.0051857943
 20
754.5372167968
 30
0.0
 11
559.1477018709
 21
752.8075943135
 31
0.0
  0
LINE
  5
1BB
330
1F
100
AcDbEntity
  8
0
  6
CONTINUOUS
 62
     7
100
AcDbLine
 10
562.0051857943
 20
754.5372167968
 30
0.0
 11
774.0518090243
 21
754.5372167968
 31
0.0
  0
ELLIPSE
  5
1BC
330
1F
100
AcDbEntity
  8
0
  6
CONTINUOUS
 62
     7
100
AcDbEllipse
 10
790.8865963727
 20
995.2041689209
 30
0.0
 11
0.7073432114473236
 21
0.706870350829263
 31
0.0
210
0.0
220
0.0
230
1.0
 40
0.0349207675
 41
3.167784268578113
 42
4.712400656595446
  0
ELLIPSE
  5
1BD
330
1F
100
AcDbEntity
  8
0
  6
CONTINUOUS
 62
     7
100
AcDbEllipse
 10
790.8865963727
 20
765.4072300428
 30
0.0
 11
0.7073432114473236
 21
-0.706870350829263
 31
0.0
210
0.0
220
0.0
230
1.0
 40
0.0349207675
 41
1.57078465058414
 42
3.115401038601873
  0
ELLIPSE
  5
1BE
330
1F
100
AcDbEntity
  8
0
  6
CONTINUOUS
 62
     7
100
AcDbEllipse
 10
783.1645416961
 20
1002.9262235975
 30
0.0
 11
0.7073432114475509
 21
0.7068703508292629
 31
0.0
210
0.0
220
0.0
230
1.0
 40
0.0349207675
 41
1.570808003005739
 42
3.115424391023549
  0
ELLIPSE
  5
1BF
330
1F
100
AcDbEntity
  8
0
  6
CONTINUOUS
 62
     7
100
AcDbEllipse
 10
783.1645416961
 20
757.6851753662
 30
0.0
 11
0.7073432114475509
 21
-0.7068703508292629
 31
0.0
210
0.0
220
0.0
230
1.0
 40
0.0349207675
 41
3.167760916156316
 42
4.712377304173848
  0
LINE
  5
1C0
330
1F
100
AcDbEntity
  8
0
  6
CONTINUOUS
 62
     7
100
AcDbLine
 10
540.1203867907
 20
771.8349093937
 30
0.0
 11
541.850009274
 21
774.6923858665
 31
0.0
  0
ELLIPSE
  5
1C1
330
1F
100
AcDbEntity
  8
0
  6
CONTINUOUS
 62
     7
100
AcDbEllipse
 10
542.3499610203
 20
774.1921769721
 30
0.0
 11
-0.4999142504693737
 21
0.5002571604418334
 31
0.0
210
0.0
220
0.0
230
0.9999999999999998
 40
0.0185098944
 41
6.275525841584965
 42
6.287743146345626
  0
LINE
  5
1C2
330
1F
100
AcDbEntity
  8
0
  6
CONTINUOUS
 62
     7
100
AcDbLine
 10
541.8501284833
 20
774.6924901747
 30
0.0
 11
562.0052901025
 21
754.5373360061
 31
0.0
  0
ELLIPSE
  5
1C3
330
1F
100
AcDbEntity
  8
0
  6
CONTINUOUS
 62
     7
100
AcDbEllipse
 10
561.5049748995
 20
755.0371630929
 30
0.0
 11
0.5002571604417199
 21
-0.4999142504693737
 31
0.0
210
0.0
220
0.0
230
1.0
 40
0.0185098944
 41
6.27862746802043
 42
6.290844772781042
  0
LINE
  5
1C4
330
1F
100
AcDbEntity
  8
0
  6
CONTINUOUS
 62
     7
100
AcDbLine
 10
553.6062058921
 20
758.3490828418
 30
0.0
 11
553.6002007241
 21
758.3911562704
 31
0.0
  0
LINE
  5
1C5
330
1F
100
AcDbEntity
  8
0
  6
CONTINUOUS
 62
     7
100
AcDbLine
 10
553.6002007241
 20
758.3911562704
 30
0.0
 11
545.8768543715
 21
766.114502623
 31
0.0
  0
LINE
  5
1C6
330
1F
100
AcDbEntity
  8
0
  6
CONTINUOUS
 62
     7
100
AcDbLine
 10
545.8768543715
 20
766.114502623
 30
0.0
 11
545.8347660417
 21
766.1205226921
 31
0.0
  0
LINE
  5
1C7
330
1F
100
AcDbEntity
  8
0
  6
CONTINUOUS
 62
     7
100
AcDbLine
 10
540.1203867907
 20
988.77648957
 30
0.0
 11
541.850009274
 21
985.9190130972
 31
0.0
  0
LINE
  5
1C8
330
1F
100
AcDbEntity
  8
0
  6
CONTINUOUS
 62
     7
100
AcDbLine
 10
545.8768543715
 20
994.4968963407
 30
0.0
 11
545.8347660417
 21
994.4908762716
 31
0.0
  0
LINE
  5
1C9
330
1F
100
AcDbEntity
  8
0
  6
CONTINUOUS
 62
     7
100
AcDbLine
 10
553.6002007241
 20
1002.2202426933
 30
0.0
 11
545.8768543715
 21
994.4968963407
 31
0.0
  0
LINE
  5
1CA
330
1F
100
AcDbEntity
  8
0
  6
CONTINUOUS
 62
     7
100
AcDbLine
 10
553.6062058921
 20
1002.262316122
 30
0.0
 11
553.6002007241
 21
1002.2202426933
 31
0.0
  0
ELLIPSE
  5
1CB
330
1F
100
AcDbEntity
  8
0
  6
CONTINUOUS
 62
     7
100
AcDbEllipse
 10
561.5049748995
 20
1005.5742358709
 30
0.0
 11
0.5002571604417199
 21
0.4999142504693737
 31
0.0
210
0.0
220
0.0
230
1.0
 40
0.0185098944
 41
6.275525841578872
 42
6.287743146339484
  0
LINE
  5
1CC
330
1F
100
AcDbEntity
  8
0
  6
CONTINUOUS
 62
     7
100
AcDbLine
 10
541.8501284833
 20
985.9189087891
 30
0.0
 11
562.0052901025
 21
1006.0740629577
 31
0.0
  0
ELLIPSE
  5
1CD
330
1F
100
AcDbEntity
  8
0
  6
CONTINUOUS
 62
     7
100
AcDbEllipse
 10
542.3499610203
 20
986.4192219917
 30
0.0
 11
0.4999142504693737
 21
0.5002571604418334
 31
0.0
210
0.0
220
0.0
230
0.9999999999999999
 40
0.0185098944
 41
3.137034814417643
 42
3.149252119179717
  0
LINE
  5
1CE
330
1F
100
AcDbEntity
  8
0
  6
CONTINUOUS
 62
     7
100
AcDbLine
 10
541.850009274
 20
774.6923858665
 30
0.0
 11
541.850009274
 21
985.9190130972
 31
0.0
  0
ELLIPSE
  5
1CF
330
1F
100
AcDbEntity
  8
0
  6
CONTINUOUS
 62
     7
100
AcDbEllipse
 10
552.8924531225
 20
1002.9262235975
 30
0.0
 11
0.7073432114474371
 21
-0.7068703508292629
 31
0.0
210
0.0
220
0.0
230
0.9999999999999999
 40
0.0349207675
 41
0.0261682625685388
 42
1.570784650584057
  0
ELLIPSE
  5
1D0
330
1F
100
AcDbEntity
  8
0
  6
CONTINUOUS
 62
     7
100
AcDbEllipse
 10
552.8924531225
 20
757.6851753662
 30
0.0
 11
0.7073432114474371
 21
0.7068703508292629
 31
0.0
210
0.0
220
0.0
230
0.9999999999999999
 40
0.0349207675
 41
4.71240065659553
 42
6.257017044611507
  0
ELLIPSE
  5
1D1
330
1F
100
AcDbEntity
  8
0
  6
CONTINUOUS
 62
     7
100
AcDbEllipse
 10
545.1703984459
 20
765.4072300428
 30
0.0
 11
0.7073432114474373
 21
0.7068703508293767
 31
0.0
210
0.0
220
0.0
230
0.9999999999999998
 40
0.0349207675
 41
0.0261916149901638
 42
1.570808003005733
  0
ELLIPSE
  5
1D2
330
1F
100
AcDbEntity
  8
0
  6
CONTINUOUS
 62
     7
100
AcDbEllipse
 10
545.1703984459
 20
995.2041689209
 30
0.0
 11
0.7073432114474373
 21
-0.7068703508293767
 31
0.0
210
0.0
220
0.0
230
0.9999999999999998
 40
0.0349207675
 41
4.712377304173853
 42
6.256993692189825
  0
CIRCLE
  5
1D3
330
1F
100
AcDbEntity
  8
0
  6
CONTINUOUS
 62
     7
100
AcDbCircle
 10
791.1784974093
 20
1002.7056994819
 30
0.0
 40
2.965440651313884
  0
CIRCLE
  5
1D4
330
1F
100
AcDbEntity
  8
0
  6
CONTINUOUS
 62
     7
100
AcDbCircle
 10
791.1784974093
 20
757.9056994819
 30
0.0
 40
2.96544065131377
  0
CIRCLE
  5
1D5
330
1F
100
AcDbEntity
  8
0
  6
CONTINUOUS
 62
     7
100
AcDbCircle
 10
544.8784974093
 20
757.9056994819
 30
0.0
 40
2.96544065131377
  0
CIRCLE
  5
1D6
330
1F
100
AcDbEntity
  8
0
  6
CONTINUOUS
 62
     7
100
AcDbCircle
 10
544.8784974093
 20
1002.7056994819
 30
0.0
 40
2.965440651313884
  0
CIRCLE
  5
1D7
330
1F
100
AcDbEntity
  8
0
  6
CONTINUOUS
 62
     7
100
AcDbCircle
 10
772.9284974093
 20
985.1056994819
 30
0.0
 40
7.360359480573379
  0
CIRCLE
  5
1D8
330
1F
100
AcDbEntity
  8
0
  6
CONTINUOUS
 62
     7
100
AcDbCircle
 10
772.9284974093
 20
985.1056994819
 30
0.0
 40
3.499999999989654
  0
CIRCLE
  5
1D9
330
1F
100
AcDbEntity
  8
0
  6
CONTINUOUS
 62
     7
100
AcDbCircle
 10
772.9284974093
 20
775.5056994819
 30
0.0
 40
3.499999999989654
  0
CIRCLE
  5
1DA
330
1F
100
AcDbEntity
  8
0
  6
CONTINUOUS
 62
     7
100
AcDbCircle
 10
772.9284974093
 20
775.5056994819
 30
0.0
 40
2.800731880556327
  0
ARC
  5
1DB
330
1F
100
AcDbEntity
  8
0
  6
CONTINUOUS
 62
     7
100
AcDbCircle
 10
772.9284974093
 20
985.1056994819
 30
0.0
 40
7.500000000001084
100
AcDbArc
 50
22.3032318396
 51
65.5964944153
  0
LINE
  5
1DC
330
1F
100
AcDbEntity
  8
0
  6
CONTINUOUS
 62
     7
100
AcDbLine
 10
779.774525475
 20
987.8183002018
 30
0.0
 11
779.8674118633
 21
987.9520157718
 31
0.0
  0
ARC
  5
1DD
330
1F
100
AcDbEntity
  8
0
  6
CONTINUOUS
 62
     7
100
AcDbCircle
 10
772.9284974093
 20
985.1056994819
 30
0.0
 40
7.363850493558607
100
AcDbArc
 50
7.4077905198
 51
21.6149659956
  0
LINE
  5
1DE
330
1F
100
AcDbEntity
  8
0
  6
CONTINUOUS
 62
     7
100
AcDbLine
 10
780.3868812437
 20
985.8947093033
 30
0.0
 11
780.2308884377
 21
986.0551203035
 31
0.0
  0
ARC
  5
1DF
330
1F
100
AcDbEntity
  8
0
  6
CONTINUOUS
 62
     7
100
AcDbCircle
 10
772.9284974093
 20
985.1056994819
 30
0.0
 40
7.500000000001191
100
AcDbArc
 50
168.2156924965
 51
6.0387506125
  0
LINE
  5
1E0
330
1F
100
AcDbEntity
  8
0
  6
CONTINUOUS
 62
     7
100
AcDbLine
 10
765.7379594559
 20
986.6939107322
 30
0.0
 11
765.5865711088
 21
986.6374055289
 31
0.0
  0
ARC
  5
1E1
330
1F
100
AcDbEntity
  8
0
  6
CONTINUOUS
 62
     7
100
AcDbCircle
 10
772.9284974093
 20
985.1056994819
 30
0.0
 40
7.363850493558633
100
AcDbArc
 50
66.2674144421
 51
167.5447724698
  0
LINE
  5
1E2
330
1F
100
AcDbEntity
  8
0
  6
CONTINUOUS
 62
     7
100
AcDbLine
 10
776.0271963591
 20
991.9356400513
 30
0.0
 11
775.8922141905
 21
991.8468142294
 31
0.0
  0
ARC
  5
1E3
330
1F
100
AcDbEntity
  8
0
  6
CONTINUOUS
 62
     7
100
AcDbCircle
 10
772.9284974093
 20
775.5056994819
 30
0.0
 40
7.363850493558774
100
AcDbArc
 50
338.3850340044
 51
352.5922094802
  0
LINE
  5
1E4
330
1F
100
AcDbEntity
  8
0
  6
CONTINUOUS
 62
     7
100
AcDbLine
 10
779.8674118633
 20
772.659383192
 30
0.0
 11
779.774525475
 21
772.7930987619
 31
0.0
  0
ARC
  5
1E5
330
1F
100
AcDbEntity
  8
0
  6
CONTINUOUS
 62
     7
100
AcDbCircle
 10
772.9284974093
 20
775.5056994819
 30
0.0
 40
7.500000000001212
100
AcDbArc
 50
294.4035055847
 51
337.6967681604
  0
LINE
  5
1E6
330
1F
100
AcDbEntity
  8
0
  6
CONTINUOUS
 62
     7
100
AcDbLine
 10
775.8922141905
 20
768.7645847343
 30
0.0
 11
776.0271963591
 21
768.6757589125
 31
0.0
  0
ARC
  5
1E7
330
1F
100
AcDbEntity
  8
0
  6
CONTINUOUS
 62
     7
100
AcDbCircle
 10
772.9284974093
 20
775.5056994819
 30
0.0
 40
7.363850493558683
100
AcDbArc
 50
192.4552275302
 51
293.7325855579
  0
LINE
  5
1E8
330
1F
100
AcDbEntity
  8
0
  6
CONTINUOUS
 62
     7
100
AcDbLine
 10
765.7379594559
 20
773.9174882316
 30
0.0
 11
765.5865711088
 21
773.9739934348
 31
0.0
  0
ARC
  5
1E9
330
1F
100
AcDbEntity
  8
0
  6
CONTINUOUS
 62
     7
100
AcDbCircle
 10
772.9284974093
 20
775.5056994819
 30
0.0
 40
7.500000000001098
100
AcDbArc
 50
353.9612493876
 51
191.7843075035
  0
LINE
  5
1EA
330
1F
100
AcDbEntity
  8
0
  6
CONTINUOUS
 62
     7
100
AcDbLine
 10
780.2308884377
 20
774.5562786602
 30
0.0
 11
780.3868812437
 21
774.7166896605
 31
0.0
  0
CIRCLE
  5
1EB
330
1F
100
AcDbEntity
  8
0
  6
CONTINUOUS
 62
     7
100
AcDbCircle
 10
772.9284974093
 20
775.5056994819
 30
0.0
 40
7.360359480573493
  0
CIRCLE
  5
1EC
330
1F
100
AcDbEntity
  8
0
  6
CONTINUOUS
 62
     7
100
AcDbCircle
 10
772.9284974093
 20
985.1056994819
 30
0.0
 40
2.800731880556327
  0
ARC
  5
1ED
330
1F
100
AcDbEntity
  8
0
  6
CONTINUOUS
 62
     7
100
AcDbCircle
 10
563.1284974093
 20
985.1056994819
 30
0.0
 40
7.363850493558774
100
AcDbArc
 50
158.3850340044
 51
172.5922094802
  0
LINE
  5
1EE
330
1F
100
AcDbEntity
  8
0
  6
CONTINUOUS
 62
     7
100
AcDbLine
 10
556.1895829553
 20
987.9520157718
 30
0.0
 11
556.2824693436
 21
987.8183002018
 31
0.0
  0
ARC
  5
1EF
330
1F
100
AcDbEntity
  8
0
  6
CONTINUOUS
 62
     7
100
AcDbCircle
 10
563.1284974093
 20
985.1056994819
 30
0.0
 40
7.500000000001108
100
AcDbArc
 50
114.4035055847
 51
157.6967681604
  0
LINE
  5
1F0
330
1F
100
AcDbEntity
  8
0
  6
CONTINUOUS
 62
     7
100
AcDbLine
 10
560.1647806282
 20
991.8468142294
 30
0.0
 11
560.0297984595
 21
991.9356400513
 31
0.0
  0
ARC
  5
1F1
330
1F
100
AcDbEntity
  8
0
  6
CONTINUOUS
 62
     7
100
AcDbCircle
 10
563.1284974093
 20
985.1056994819
 30
0.0
 40
7.363850493558683
100
AcDbArc
 50
12.4552275302
 51
113.7325855579
  0
LINE
  5
1F2
330
1F
100
AcDbEntity
  8
0
  6
CONTINUOUS
 62
     7
100
AcDbLine
 10
570.3190353627
 20
986.6939107322
 30
0.0
 11
570.4704237099
 21
986.6374055289
 31
0.0
  0
ARC
  5
1F3
330
1F
100
AcDbEntity
  8
0
  6
CONTINUOUS
 62
     7
100
AcDbCircle
 10
563.1284974093
 20
985.1056994819
 30
0.0
 40
7.500000000001098
100
AcDbArc
 50
173.9612493876
 51
11.7843075035
  0
LINE
  5
1F4
330
1F
100
AcDbEntity
  8
0
  6
CONTINUOUS
 62
     7
100
AcDbLine
 10
555.8261063809
 20
986.0551203035
 30
0.0
 11
555.670113575
 21
985.8947093033
 31
0.0
  0
CIRCLE
  5
1F5
330
1F
100
AcDbEntity
  8
0
  6
CONTINUOUS
 62
     7
100
AcDbCircle
 10
563.1284974093
 20
985.1056994819
 30
0.0
 40
7.360359480573379
  0
CIRCLE
  5
1F6
330
1F
100
AcDbEntity
  8
0
  6
CONTINUOUS
 62
     7
100
AcDbCircle
 10
563.1284974093
 20
985.1056994819
 30
0.0
 40
3.499999999989654
  0
CIRCLE
  5
1F7
330
1F
100
AcDbEntity
  8
0
  6
CONTINUOUS
 62
     7
100
AcDbCircle
 10
563.1284974093
 20
775.5056994819
 30
0.0
 40
7.360359480573493
  0
CIRCLE
  5
1F8
330
1F
100
AcDbEntity
  8
0
  6
CONTINUOUS
 62
     7
100
AcDbCircle
 10
563.1284974093
 20
775.5056994819
 30
0.0
 40
3.499999999989654
  0
ARC
  5
1F9
330
1F
100
AcDbEntity
  8
0
  6
CONTINUOUS
 62
     7
100
AcDbCircle
 10
563.1284974093
 20
775.5056994819
 30
0.0
 40
7.500000000001084
100
AcDbArc
 50
202.3032318396
 51
245.5964944153
  0
LINE
  5
1FA
330
1F
100
AcDbEntity
  8
0
  6
CONTINUOUS
 62
     7
100
AcDbLine
 10
556.2824693436
 20
772.7930987619
 30
0.0
 11
556.1895829553
 21
772.659383192
 31
0.0
  0
ARC
  5
1FB
330
1F
100
AcDbEntity
  8
0
  6
CONTINUOUS
 62
     7
100
AcDbCircle
 10
563.1284974093
 20
775.5056994819
 30
0.0
 40
7.363850493558712
100
AcDbArc
 50
187.4077905198
 51
201.6149659956
  0
LINE
  5
1FC
330
1F
100
AcDbEntity
  8
0
  6
CONTINUOUS
 62
     7
100
AcDbLine
 10
555.670113575
 20
774.7166896605
 30
0.0
 11
555.8261063809
 21
774.5562786602
 31
0.0
  0
ARC
  5
1FD
330
1F
100
AcDbEntity
  8
0
  6
CONTINUOUS
 62
     7
100
AcDbCircle
 10
563.1284974093
 20
775.5056994819
 30
0.0
 40
7.500000000001191
100
AcDbArc
 50
348.2156924965
 51
186.0387506125
  0
LINE
  5
1FE
330
1F
100
AcDbEntity
  8
0
  6
CONTINUOUS
 62
     7
100
AcDbLine
 10
570.3190353627
 20
773.9174882316
 30
0.0
 11
570.4704237099
 21
773.9739934348
 31
0.0
  0
ARC
  5
1FF
330
1F
100
AcDbEntity
  8
0
  6
CONTINUOUS
 62
     7
100
AcDbCircle
 10
563.1284974093
 20
775.5056994819
 30
0.0
 40
7.363850493558633
100
AcDbArc
 50
246.2674144421
 51
347.5447724698
  0
LINE
  5
200
330
1F
100
AcDbEntity
  8
0
  6
CONTINUOUS
 62
     7
100
AcDbLine
 10
560.0297984595
 20
768.6757589125
 30
0.0
 11
560.1647806282
 21
768.7645847343
 31
0.0
  0
CIRCLE
  5
201
330
1F
100
AcDbEntity
  8
0
  6
CONTINUOUS
 62
     7
100
AcDbCircle
 10
563.1284974093
 20
985.1056994819
 30
0.0
 40
2.800731880556327
  0
CIRCLE
  5
202
330
1F
100
AcDbEntity
  8
0
  6
CONTINUOUS
 62
     7
100
AcDbCircle
 10
563.1284974093
 20
775.5056994819
 30
0.0
 40
2.800731880556327
  0
LINE
  5
203
330
1F
100
AcDbEntity
  8
0
  6
CONTINUOUS
 62
     7
100
AcDbLine
 10
783.0599781985
 20
984.9990377568
 30
0.0
 11
783.8669431324
 21
985.7920403027
 31
0.0
  0
ARC
  5
204
330
1F
100
AcDbEntity
  8
0
  6
CONTINUOUS
 62
     7
100
AcDbCircle
 10
782.8497440933
 20
985.2129408534
 30
0.0
 40
0.2999215125909649
100
AcDbArc
 50
229.5627412429
 51
314.504376243
  0
ARC
  5
205
330
1F
100
AcDbEntity
  8
0
  6
CONTINUOUS
 62
     7
100
AcDbCircle
 10
779.6484974093
 20
981.4556994819
 30
0.0
 40
4.636149506438465
100
AcDbArc
 50
49.5687030416
 51
82.7834877874
  0
ARC
  5
206
330
1F
100
AcDbEntity
  8
0
  6
CONTINUOUS
 62
     7
100
AcDbCircle
 10
779.6484974093
 20
981.4556994819
 30
0.0
 40
6.363850493558158
100
AcDbArc
 50
48.6241805132
 51
88.8652669882
  0
ARC
  5
207
330
1F
100
AcDbEntity
  8
0
  6
CONTINUOUS
 62
     7
100
AcDbCircle
 10
783.6567218575
 20
986.0059865173
 30
0.0
 40
0.2999432732567192
100
AcDbArc
 50
314.4968547783
 51
48.6255634681
  0
LINE
  5
208
330
1F
100
AcDbEntity
  8
0
  6
CONTINUOUS
 62
     7
100
AcDbLine
 10
782.6552030558
 20
984.9846655869
 30
0.0
 11
782.6547485704
 21
984.8041976236
 31
0.0
  0
ARC
  5
209
330
1F
100
AcDbEntity
  8
0
  6
CONTINUOUS
 62
     7
100
AcDbCircle
 10
779.6484974093
 20
981.4556994819
 30
0.0
 40
4.499999999998729
100
AcDbArc
 50
48.0827903313
 51
80.5559182577
  0
ARC
  5
20A
330
1F
100
AcDbEntity
  8
0
  6
CONTINUOUS
 62
     7
100
AcDbCircle
 10
556.4084974093
 20
779.1556994819
 30
0.0
 40
4.636149506438451
100
AcDbArc
 50
229.5687030416
 51
262.7834877874
  0
LINE
  5
20B
330
1F
100
AcDbEntity
  8
0
  6
CONTINUOUS
 62
     7
100
AcDbLine
 10
553.4017917628
 20
775.6267333769
 30
0.0
 11
553.4022462482
 21
775.8072013401
 31
0.0
  0
ARC
  5
20C
330
1F
100
AcDbEntity
  8
0
  6
CONTINUOUS
 62
     7
100
AcDbCircle
 10
556.4084974093
 20
779.1556994819
 30
0.0
 40
4.499999999998729
100
AcDbArc
 50
228.0827903313
 51
260.5559182577
  0
LINE
  5
20D
330
1F
100
AcDbEntity
  8
0
  6
CONTINUOUS
 62
     7
100
AcDbLine
 10
552.9970166201
 20
775.6123612069
 30
0.0
 11
552.1900516863
 21
774.8193586611
 31
0.0
  0
ARC
  5
20E
330
1F
100
AcDbEntity
  8
0
  6
CONTINUOUS
 62
     7
100
AcDbCircle
 10
553.2072507254
 20
775.3984581104
 30
0.0
 40
0.2999215125910514
100
AcDbArc
 50
49.5627412429
 51
134.504376243
  0
ARC
  5
20F
330
1F
100
AcDbEntity
  8
0
  6
CONTINUOUS
 62
     7
100
AcDbCircle
 10
556.4084974093
 20
779.1556994819
 30
0.0
 40
6.363850493558161
100
AcDbArc
 50
228.6241805132
 51
268.8652669882
  0
ARC
  5
210
330
1F
100
AcDbEntity
  8
0
  6
CONTINUOUS
 62
     7
100
AcDbCircle
 10
552.4002729611
 20
774.6054124464
 30
0.0
 40
0.2999432732564102
100
AcDbArc
 50
134.4968547782
 51
228.6255634682
  0
ARC
  5
211
330
1F
100
AcDbEntity
  8
0
  6
CONTINUOUS
 62
     7
100
AcDbCircle
 10
783.6567218575
 20
774.6054124464
 30
0.0
 40
0.2999432732564853
100
AcDbArc
 50
311.3744365319
 51
45.5031452218
  0
ARC
  5
212
330
1F
100
AcDbEntity
  8
0
  6
CONTINUOUS
 62
     7
100
AcDbCircle
 10
779.6484974093
 20
779.1556994819
 30
0.0
 40
6.363850493558614
100
AcDbArc
 50
271.1347330118
 51
311.3758194868
  0
ARC
  5
213
330
1F
100
AcDbEntity
  8
0
  6
CONTINUOUS
 62
     7
100
AcDbCircle
 10
779.6484974093
 20
779.1556994819
 30
0.0
 40
4.636149506437577
100
AcDbArc
 50
277.2165122126
 51
310.4312969584
  0
ARC
  5
214
330
1F
100
AcDbEntity
  8
0
  6
CONTINUOUS
 62
     7
100
AcDbCircle
 10
782.8497440933
 20
775.3984581104
 30
0.0
 40
0.2999215125910514
100
AcDbArc
 50
45.495623757
 51
130.4372587571
  0
LINE
  5
215
330
1F
100
AcDbEntity
  8
0
  6
CONTINUOUS
 62
     7
100
AcDbLine
 10
783.0599781985
 20
775.6123612069
 30
0.0
 11
783.8669431324
 21
774.8193586611
 31
0.0
  0
ARC
  5
216
330
1F
100
AcDbEntity
  8
0
  6
CONTINUOUS
 62
     7
100
AcDbCircle
 10
779.6484974093
 20
779.1556994819
 30
0.0
 40
4.49999999999714
100
AcDbArc
 50
279.4440817423
 51
311.9172096687
  0
LINE
  5
217
330
1F
100
AcDbEntity
  8
0
  6
CONTINUOUS
 62
     7
100
AcDbLine
 10
782.6547485704
 20
775.8072013401
 30
0.0
 11
782.6552030558
 21
775.6267333769
 31
0.0
  0
ARC
  5
218
330
1F
100
AcDbEntity
  8
0
  6
CONTINUOUS
 62
     7
100
AcDbCircle
 10
556.4084974093
 20
981.4556994819
 30
0.0
 40
4.49999999999714
100
AcDbArc
 50
99.4440817423
 51
131.9172096687
  0
LINE
  5
219
330
1F
100
AcDbEntity
  8
0
  6
CONTINUOUS
 62
     7
100
AcDbLine
 10
553.4022462482
 20
984.8041976236
 30
0.0
 11
553.4017917628
 21
984.9846655869
 31
0.0
  0
ARC
  5
21A
330
1F
100
AcDbEntity
  8
0
  6
CONTINUOUS
 62
     7
100
AcDbCircle
 10
556.4084974093
 20
981.4556994819
 30
0.0
 40
4.636149506437651
100
AcDbArc
 50
97.2165122126
 51
130.4312969584
  0
ARC
  5
21B
330
1F
100
AcDbEntity
  8
0
  6
CONTINUOUS
 62
     7
100
AcDbCircle
 10
552.4002729611
 20
986.0059865173
 30
0.0
 40
0.2999432732564853
100
AcDbArc
 50
131.3744365319
 51
225.5031452218
  0
ARC
  5
21C
330
1F
100
AcDbEntity
  8
0
  6
CONTINUOUS
 62
     7
100
AcDbCircle
 10
556.4084974093
 20
981.4556994819
 30
0.0
 40
6.363850493558614
100
AcDbArc
 50
91.1347330118
 51
131.3758194868
  0
ARC
  5
21D
330
1F
100
AcDbEntity
  8
0
  6
CONTINUOUS
 62
     7
100
AcDbCircle
 10
553.2072507254
 20
985.2129408534
 30
0.0
 40
0.2999215125909649
100
AcDbArc
 50
225.495623757
 51
310.4372587571
  0
LINE
  5
21E
330
1F
100
AcDbEntity
  8
0
  6
CONTINUOUS
 62
     7
100
AcDbLine
 10
552.9970166201
 20
984.9990377568
 30
0.0
 11
552.1900516863
 21
985.7920403027
 31
0.0
  0
LINE
  5
21F
330
1F
100
AcDbEntity
  8
0
  6
CONTINUOUS
 62
     7
100
AcDbLine
 10
783.0653724189
 20
984.8134586953
 30
0.0
 11
783.0599781985
 21
984.9990377568
 31
0.0
  0
ARC
  5
220
330
1F
100
AcDbEntity
  8
0
  6
CONTINUOUS
 62
     7
100
AcDbCircle
 10
782.8551314843
 20
985.027374056
 30
0.0
 40
0.2999350465035269
100
AcDbArc
 50
228.0803568
 51
314.5036644682
  0
LINE
  5
221
330
1F
100
AcDbEntity
  8
0
  6
CONTINUOUS
 62
     7
100
AcDbLine
 10
552.9916223998
 20
775.7979402684
 30
0.0
 11
552.9970166201
 21
775.6123612069
 31
0.0
  0
ARC
  5
222
330
1F
100
AcDbEntity
  8
0
  6
CONTINUOUS
 62
     7
100
AcDbCircle
 10
553.2018633344
 20
775.5840249077
 30
0.0
 40
0.2999350465033548
100
AcDbArc
 50
48.0803568
 51
134.5036644682
  0
ARC
  5
223
330
1F
100
AcDbEntity
  8
0
  6
CONTINUOUS
 62
     7
100
AcDbCircle
 10
782.8551311136
 20
775.5840084736
 30
0.0
 40
0.2999470274210226
100
AcDbArc
 50
45.4984854998
 51
131.9174932319
  0
LINE
  5
224
330
1F
100
AcDbEntity
  8
0
  6
CONTINUOUS
 62
     7
100
AcDbLine
 10
783.0599781985
 20
775.6123612069
 30
0.0
 11
783.0653724189
 21
775.7979402684
 31
0.0
  0
ARC
  5
225
330
1F
100
AcDbEntity
  8
0
  6
CONTINUOUS
 62
     7
100
AcDbCircle
 10
553.201863705
 20
985.0273904901
 30
0.0
 40
0.2999470274209097
100
AcDbArc
 50
225.4984854998
 51
311.917493232
  0
LINE
  5
226
330
1F
100
AcDbEntity
  8
0
  6
CONTINUOUS
 62
     7
100
AcDbLine
 10
552.9970166201
 20
984.9990377568
 30
0.0
 11
552.9916223998
 21
984.8134586953
 31
0.0
  0
LINE
  5
227
330
1F
100
AcDbEntity
  8
0
  6
CONTINUOUS
 62
     7
100
AcDbLine
 10
784.0587881322
 20
774.3808323883
 30
0.0
 11
783.8549700494
 21
774.3803257488
 31
0.0
  0
ARC
  5
228
330
1F
100
AcDbEntity
  8
0
  6
CONTINUOUS
 62
     7
100
AcDbCircle
 10
779.6484974093
 20
779.1556994819
 30
0.0
 40
6.50000000000029
100
AcDbArc
 50
271.9300193893
 51
312.7269959957
  0
LINE
  5
229
330
1F
100
AcDbEntity
  8
0
  6
CONTINUOUS
 62
     7
100
AcDbLine
 10
551.9982066865
 20
986.2305665754
 30
0.0
 11
552.2020247693
 21
986.2310732149
 31
0.0
  0
ARC
  5
22A
330
1F
100
AcDbEntity
  8
0
  6
CONTINUOUS
 62
     7
100
AcDbCircle
 10
556.4084974093
 20
981.4556994819
 30
0.0
 40
6.50000000000029
100
AcDbArc
 50
91.9300193893
 51
132.7269959957
  0
ARC
  5
22B
330
1F
100
AcDbEntity
  8
0
  6
CONTINUOUS
 62
     7
100
AcDbCircle
 10
779.6484974093
 20
981.4556994819
 30
0.0
 40
6.500000000000312
100
AcDbArc
 50
47.2730040043
 51
88.0699806107
  0
LINE
  5
22C
330
1F
100
AcDbEntity
  8
0
  6
CONTINUOUS
 62
     7
100
AcDbLine
 10
783.8549700494
 20
986.2310732149
 30
0.0
 11
784.0587881322
 21
986.2305665754
 31
0.0
  0
ARC
  5
22D
330
1F
100
AcDbEntity
  8
0
  6
CONTINUOUS
 62
     7
100
AcDbCircle
 10
556.4084974093
 20
779.1556994819
 30
0.0
 40
6.500000000000308
100
AcDbArc
 50
227.2730040043
 51
268.0699806107
  0
LINE
  5
22E
330
1F
100
AcDbEntity
  8
0
  6
CONTINUOUS
 62
     7
100
AcDbLine
 10
552.2020247693
 20
774.3803257488
 30
0.0
 11
551.9982066865
 21
774.3808323883
 31
0.0
  0
LINE
  5
22F
330
1F
100
AcDbEntity
  8
0
  6
CONTINUOUS
 62
     7
100
AcDbLine
 10
784.0655011053
 20
774.8151192807
 30
0.0
 11
783.8669431324
 21
774.8193586611
 31
0.0
  0
ARC
  5
230
330
1F
100
AcDbEntity
  8
0
  6
CONTINUOUS
 62
     7
100
AcDbCircle
 10
783.8552898075
 20
774.6011732849
 30
0.0
 40
0.2999361246167146
100
AcDbArc
 50
312.7243710229
 51
45.5044753664
  0
LINE
  5
231
330
1F
100
AcDbEntity
  8
0
  6
CONTINUOUS
 62
     7
100
AcDbLine
 10
551.9914937134
 20
985.796279683
 30
0.0
 11
552.1900516863
 21
985.7920403027
 31
0.0
  0
ARC
  5
232
330
1F
100
AcDbEntity
  8
0
  6
CONTINUOUS
 62
     7
100
AcDbCircle
 10
552.2017050111
 20
986.0102256788
 30
0.0
 40
0.2999361246162963
100
AcDbArc
 50
132.7243710228
 51
225.5044753664
  0
LINE
  5
233
330
1F
100
AcDbEntity
  8
0
  6
CONTINUOUS
 62
     7
100
AcDbLine
 10
783.8669431324
 20
985.7920403027
 30
0.0
 11
784.0655011053
 21
985.796279683
 31
0.0
  0
ARC
  5
234
330
1F
100
AcDbEntity
  8
0
  6
CONTINUOUS
 62
     7
100
AcDbCircle
 10
783.8552857547
 20
986.0102256162
 30
0.0
 40
0.2999389203849121
100
AcDbArc
 50
314.4960852553
 51
47.2750683555
  0
LINE
  5
235
330
1F
100
AcDbEntity
  8
0
  6
CONTINUOUS
 62
     7
100
AcDbLine
 10
552.1900516863
 20
774.8193586611
 30
0.0
 11
551.9914937134
 21
774.8151192807
 31
0.0
  0
ARC
  5
236
330
1F
100
AcDbEntity
  8
0
  6
CONTINUOUS
 62
     7
100
AcDbCircle
 10
552.201709064
 20
774.6011733475
 30
0.0
 40
0.2999389203850727
100
AcDbArc
 50
134.4960852553
 51
227.2750683555
  0
ARC
  5
237
330
1F
100
AcDbEntity
  8
0
  6
CONTINUOUS
 62
     7
100
AcDbCircle
 10
769.5284974093
 20
991.8056994819
 30
0.0
 40
6.363850493558207
100
AcDbArc
 50
0.3702009702
 51
233.4419859417
  0
ARC
  5
238
330
1F
100
AcDbEntity
  8
0
  6
CONTINUOUS
 62
     7
100
AcDbCircle
 10
769.5284974093
 20
991.8056994819
 30
0.0
 40
6.499999999999551
100
AcDbArc
 50
1.1454442992
 51
232.6667426127
  0
ARC
  5
239
330
1F
100
AcDbEntity
  8
0
  6
CONTINUOUS
 62
     7
100
AcDbCircle
 10
566.5284974093
 20
768.8056994819
 30
0.0
 40
6.363850493558321
100
AcDbArc
 50
180.3702009702
 51
53.4419859417
  0
ARC
  5
23A
330
1F
100
AcDbEntity
  8
0
  6
CONTINUOUS
 62
     7
100
AcDbCircle
 10
566.5284974093
 20
768.8056994819
 30
0.0
 40
6.499999999999551
100
AcDbArc
 50
181.1454442992
 51
52.6667426127
  0
ARC
  5
23B
330
1F
100
AcDbEntity
  8
0
  6
CONTINUOUS
 62
     7
100
AcDbCircle
 10
769.5284974093
 20
768.8056994819
 30
0.0
 40
6.363850493558323
100
AcDbArc
 50
126.5580140583
 51
359.6297990298
  0
ARC
  5
23C
330
1F
100
AcDbEntity
  8
0
  6
CONTINUOUS
 62
     7
100
AcDbCircle
 10
769.5284974093
 20
768.8056994819
 30
0.0
 40
6.499999999999953
100
AcDbArc
 50
127.3332573873
 51
358.8545557008
  0
ARC
  5
23D
330
1F
100
AcDbEntity
  8
0
  6
CONTINUOUS
 62
     7
100
AcDbCircle
 10
566.5284974093
 20
991.8056994819
 30
0.0
 40
6.363850493558323
100
AcDbArc
 50
306.5580140583
 51
179.6297990298
  0
ARC
  5
23E
330
1F
100
AcDbEntity
  8
0
  6
CONTINUOUS
 62
     7
100
AcDbCircle
 10
566.5284974093
 20
991.8056994819
 30
0.0
 40
6.499999999999953
100
AcDbArc
 50
307.3332573873
 51
178.8545557008
  0
LINE
  5
23F
330
1F
100
AcDbEntity
  8
0
  6
CONTINUOUS
 62
     7
100
AcDbLine
 10
784.0655011053
 20
985.796279683
 30
0.0
 11
783.0653724189
 21
984.8134586953
 31
0.0
  0
LINE
  5
240
330
1F
100
AcDbEntity
  8
0
  6
CONTINUOUS
 62
     7
100
AcDbLine
 10
784.0655011053
 20
774.8151192807
 30
0.0
 11
783.0653724189
 21
775.7979402684
 31
0.0
  0
LINE
  5
241
330
1F
100
AcDbEntity
  8
0
  6
CONTINUOUS
 62
     7
100
AcDbLine
 10
551.9914937134
 20
985.796279683
 30
0.0
 11
552.9916223998
 21
984.8134586953
 31
0.0
  0
LINE
  5
242
330
1F
100
AcDbEntity
  8
0
  6
CONTINUOUS
 62
     7
100
AcDbLine
 10
551.9914937134
 20
774.8151192807
 30
0.0
 11
552.9916223998
 21
775.7979402684
 31
0.0
  0
LWPOLYLINE
  5
243
330
1F
100
AcDbEntity
  8
0
  6
CONTINUOUS
 62
     7
100
AcDbPolyline
 90
        9
 70
   128
 43
0.0
 10
793.7070366854
 20
985.7118720554
 10
793.8029703612
 20
985.7516134523
 10
793.8953426595
 20
985.7898721837
 10
793.9807263131
 20
985.8252400898
 10
794.0559324736
 20
985.8563909673
 10
794.1181746239
 20
985.8821699761
 10
794.1651281829
 20
985.9016234421
 10
794.1950646157
 20
985.9140212082
 10
794.2068663354
 20
985.9189087891
  0
LWPOLYLINE
  5
244
330
1F
100
AcDbEntity
  8
0
  6
CONTINUOUS
 62
     7
100
AcDbPolyline
 90
        9
 70
   128
 43
0.0
 10
793.7070366854
 20
774.8995269083
 10
793.8029703612
 20
774.8597855114
 10
793.8953426595
 20
774.82152678
 10
793.9807263131
 20
774.7861588739
 10
794.0559324736
 20
774.7550079965
 10
794.1181746239
 20
774.7292289876
 10
794.1651281829
 20
774.7097755217
 10
794.1950646157
 20
774.6973777555
 10
794.2068663354
 20
774.6924901747
  0
LINE
  5
245
330
1F
100
AcDbEntity
  8
0
  6
CONTINUOUS
 62
     7
100
AcDbLine
 10
793.7070366854
 20
774.8995269083
 30
0.0
 11
793.7070366854
 21
985.7118720554
 31
0.0
  0
LWPOLYLINE
  5
246
330
1F
100
AcDbEntity
  8
0
  6
CONTINUOUS
 62
     7
100
AcDbPolyline
 90
        9
 70
   128
 43
0.0
 10
773.8446679826
 20
755.037165656
 10
773.8844093795
 20
754.9412170791
 10
773.9226755614
 20
754.8488447808
 10
773.9580360169
 20
754.7634760283
 10
773.9891868944
 20
754.6882698678
 10
774.0149659033
 20
754.6260277175
 10
774.0344193692
 20
754.5790741586
 10
774.0468171353
 20
754.5491377257
 10
774.0517047162
 20
754.5373360061
  0
LWPOLYLINE
  5
247
330
1F
100
AcDbEntity
  8
0
  6
CONTINUOUS
 62
     7
100
AcDbPolyline
 90
        9
 70
   128
 43
0.0
 10
562.2123268361
 20
755.037165656
 10
562.1725854392
 20
754.9412170791
 10
562.1343192572
 20
754.8488447808
 10
562.0989588017
 20
754.7634760283
 10
562.0678079243
 20
754.6882698678
 10
562.0420289154
 20
754.6260277175
 10
562.0225754494
 20
754.5790741586
 10
562.0101776833
 20
754.5491377257
 10
562.0052901025
 20
754.5373360061
  0
LINE
  5
248
330
1F
100
AcDbEntity
  8
0
  6
CONTINUOUS
 62
     7
100
AcDbLine
 10
562.2123268361
 20
755.037165656
 30
0.0
 11
773.8446679826
 21
755.037165656
 31
0.0
  0
LWPOLYLINE
  5
249
330
1F
100
AcDbEntity
  8
0
  6
CONTINUOUS
 62
     7
100
AcDbPolyline
 90
        9
 70
   128
 43
0.0
 10
774.0517047162
 20
1006.0740629577
 10
774.0468171353
 20
1006.062261238
 10
774.0344193692
 20
1006.0323248052
 10
774.0149659033
 20
1005.9853712462
 10
773.9891868944
 20
1005.9231290959
 10
773.9580360169
 20
1005.8479229354
 10
773.9226755614
 20
1005.7625541829
 10
773.8844093795
 20
1005.6701818847
 10
773.8446679826
 20
1005.5742333077
  0
LINE
  5
24A
330
1F
100
AcDbEntity
  8
0
  6
CONTINUOUS
 62
     7
100
AcDbLine
 10
773.8446679826
 20
1005.5742333077
 30
0.0
 11
562.2123268361
 21
1005.5742333077
 31
0.0
  0
LWPOLYLINE
  5
24B
330
1F
100
AcDbEntity
  8
0
  6
CONTINUOUS
 62
     7
100
AcDbPolyline
 90
        9
 70
   128
 43
0.0
 10
562.2123268361
 20
1005.5742333077
 10
562.1725854392
 20
1005.6701818847
 10
562.1343192572
 20
1005.7625541829
 10
562.0989588017
 20
1005.8479229354
 10
562.0678079243
 20
1005.9231290959
 10
562.0420289154
 20
1005.9853712462
 10
562.0225754494
 20
1006.0323248052
 10
562.0101776833
 20
1006.062261238
 10
562.0052901025
 20
1006.0740629577
  0
LWPOLYLINE
  5
24C
330
1F
100
AcDbEntity
  8
0
  6
CONTINUOUS
 62
     7
100
AcDbPolyline
 90
        9
 70
   128
 43
0.0
 10
542.3499581332
 20
774.8995269083
 10
542.2540244574
 20
774.8597855114
 10
542.1616521592
 20
774.82152678
 10
542.0762685056
 20
774.7861588739
 10
542.001062345
 20
774.7550079965
 10
541.9388201947
 20
774.7292289876
 10
541.8918666358
 20
774.7097755217
 10
541.8619302029
 20
774.6973777555
 10
541.8501284833
 20
774.6924901747
  0
LWPOLYLINE
  5
24D
330
1F
100
AcDbEntity
  8
0
  6
CONTINUOUS
 62
     7
100
AcDbPolyline
 90
        9
 70
   128
 43
0.0
 10
542.3499581332
 20
985.7118720554
 10
542.2540244574
 20
985.7516134523
 10
542.1616521592
 20
985.7898721837
 10
542.0762685056
 20
985.8252400898
 10
542.001062345
 20
985.8563909673
 10
541.9388201947
 20
985.8821699761
 10
541.8918666358
 20
985.9016234421
 10
541.8619302029
 20
985.9140212082
 10
541.8501284833
 20
985.9189087891
  0
LINE
  5
24E
330
1F
100
AcDbEntity
  8
0
  6
CONTINUOUS
 62
     7
100
AcDbLine
 10
542.3499581332
 20
985.7118720554
 30
0.0
 11
542.3499581332
 21
774.8995269083
 31
0.0
  0
LINE
  5
24F
330
1F
100
AcDbEntity
  8
0
  6
CONTINUOUS
 62
     7
100
AcDbLine
 10
773.8446679826
 20
755.037165656
 30
0.0
 11
793.7070366854
 21
774.8995269083
 31
0.0
  0
LINE
  5
250
330
1F
100
AcDbEntity
  8
0
  6
CONTINUOUS
 62
     7
100
AcDbLine
 10
793.7070366854
 20
985.7118720554
 30
0.0
 11
773.8446679826
 21
1005.5742333077
 31
0.0
  0
LINE
  5
251
330
1F
100
AcDbEntity
  8
0
  6
CONTINUOUS
 62
     7
100
AcDbLine
 10
542.3499581332
 20
774.8995269083
 30
0.0
 11
562.2123268361
 21
755.037165656
 31
0.0
  0
LINE
  5
252
330
1F
100
AcDbEntity
  8
0
  6
CONTINUOUS
 62
     7
100
AcDbLine
 10
562.2123268361
 20
1005.5742333077
 30
0.0
 11
542.3499581332
 21
985.7118720554
 31
0.0
  0
LINE
  5
253
330
1F
100
AcDbEntity
  8
0
  6
CONTINUOUS
 62
     7
100
AcDbLine
 10
690.7097467149
 20
952.4439940595
 30
0.0
 11
687.2972466911
 21
948.8056967401
 31
0.0
  0
LINE
  5
254
330
1F
100
AcDbEntity
  8
0
  6
CONTINUOUS
 62
     7
100
AcDbLine
 10
687.2972466911
 20
948.8056967401
 30
0.0
 11
685.8347461487
 21
948.8056967401
 31
0.0
  0
LINE
  5
255
330
1F
100
AcDbEntity
  8
0
  6
CONTINUOUS
 62
     7
100
AcDbLine
 10
685.8347461487
 20
948.8056967401
 30
0.0
 11
689.9784983064
 21
953.4014458202
 31
0.0
  0
LINE
  5
256
330
1F
100
AcDbEntity
  8
0
  6
CONTINUOUS
 62
     7
100
AcDbLine
 10
689.9784983064
 20
953.4014458202
 30
0.0
 11
685.8347461487
 21
957.8057000779
 31
0.0
  0
LINE
  5
257
330
1F
100
AcDbEntity
  8
0
  6
CONTINUOUS
 62
     7
100
AcDbLine
 10
685.8347461487
 20
957.8057000779
 30
0.0
 11
687.2972466911
 21
957.8057000779
 31
0.0
  0
LINE
  5
258
330
1F
100
AcDbEntity
  8
0
  6
CONTINUOUS
 62
     7
100
AcDbLine
 10
687.2972466911
 20
957.8057000779
 30
0.0
 11
690.7097467149
 21
954.1674027585
 31
0.0
  0
LINE
  5
259
330
1F
100
AcDbEntity
  8
0
  6
CONTINUOUS
 62
     7
100
AcDbLine
 10
695.5847491438
 20
957.8057000779
 30
0.0
 11
691.4409969861
 21
953.4014458202
 31
0.0
  0
LINE
  5
25A
330
1F
100
AcDbEntity
  8
0
  6
CONTINUOUS
 62
     7
100
AcDbLine
 10
691.4409969861
 20
953.4014458202
 30
0.0
 11
695.5847491438
 21
948.8056967401
 31
0.0
  0
LINE
  5
25B
330
1F
100
AcDbEntity
  8
0
  6
CONTINUOUS
 62
     7
100
AcDbLine
 10
695.5847491438
 20
948.8056967401
 30
0.0
 11
694.1222486014
 21
948.8056967401
 31
0.0
  0
LINE
  5
25C
330
1F
100
AcDbEntity
  8
0
  6
CONTINUOUS
 62
     7
100
AcDbLine
 10
694.1222486014
 20
948.8056967401
 30
0.0
 11
690.7097467149
 21
952.4439940595
 31
0.0
  0
LINE
  5
25D
330
1F
100
AcDbEntity
  8
0
  6
CONTINUOUS
 62
     7
100
AcDbLine
 10
690.7097467149
 20
954.1674027585
 30
0.0
 11
694.1222486014
 21
957.8057000779
 31
0.0
  0
LINE
  5
25E
330
1F
100
AcDbEntity
  8
0
  6
CONTINUOUS
 62
     7
100
AcDbLine
 10
694.1222486014
 20
957.8057000779
 30
0.0
 11
695.5847491438
 21
957.8057000779
 31
0.0
  0
LINE
  5
25F
330
1F
100
AcDbEntity
  8
0
  6
CONTINUOUS
 62
     7
100
AcDbLine
 10
679.984746773
 20
957.8057000779
 30
0.0
 11
681.2034978459
 21
957.614212706
 31
0.0
  0
LINE
  5
260
330
1F
100
AcDbEntity
  8
0
  6
CONTINUOUS
 62
     7
100
AcDbLine
 10
681.2034978459
 20
957.614212706
 30
0.0
 11
682.1784966553
 21
957.2312305116
 31
0.0
  0
LINE
  5
261
330
1F
100
AcDbEntity
  8
0
  6
CONTINUOUS
 62
     7
100
AcDbLine
 10
682.1784966553
 20
957.2312305116
 30
0.0
 11
683.1534982587
 21
956.4652735733
 31
0.0
  0
LINE
  5
262
330
1F
100
AcDbEntity
  8
0
  6
CONTINUOUS
 62
     7
100
AcDbLine
 10
683.8847485299
 20
954.7418723248
 30
0.0
 11
683.8847485299
 21
951.8695319437
 31
0.0
  0
LINE
  5
263
330
1F
100
AcDbEntity
  8
0
  6
CONTINUOUS
 62
     7
100
AcDbLine
 10
683.8847485299
 20
951.8695319437
 30
0.0
 11
683.6409962664
 21
950.9120801829
 31
0.0
  0
LINE
  5
264
330
1F
100
AcDbEntity
  8
0
  6
CONTINUOUS
 62
     7
100
AcDbLine
 10
683.6409962664
 20
950.9120801829
 30
0.0
 11
683.1534982587
 21
950.1461232447
 31
0.0
  0
LINE
  5
265
330
1F
100
AcDbEntity
  8
0
  6
CONTINUOUS
 62
     7
100
AcDbLine
 10
683.1534982587
 20
950.1461232447
 30
0.0
 11
682.1784966553
 21
949.3801663064
 31
0.0
  0
LINE
  5
266
330
1F
100
AcDbEntity
  8
0
  6
CONTINUOUS
 62
     7
100
AcDbLine
 10
682.1784966553
 20
949.3801663064
 30
0.0
 11
681.2034978459
 21
948.9971915626
 31
0.0
  0
LINE
  5
267
330
1F
100
AcDbEntity
  8
0
  6
CONTINUOUS
 62
     7
100
AcDbLine
 10
681.2034978459
 20
948.9971915626
 30
0.0
 11
679.984746773
 21
948.8056967401
 31
0.0
  0
LINE
  5
268
330
1F
100
AcDbEntity
  8
0
  6
CONTINUOUS
 62
     7
100
AcDbLine
 10
679.984746773
 20
948.8056967401
 30
0.0
 11
678.0347482229
 21
948.8056967401
 31
0.0
  0
LINE
  5
269
330
1F
100
AcDbEntity
  8
0
  6
CONTINUOUS
 62
     7
100
AcDbLine
 10
678.0347482229
 20
948.8056967401
 30
0.0
 11
676.81599715
 21
948.9971915626
 31
0.0
  0
LINE
  5
26A
330
1F
100
AcDbEntity
  8
0
  6
CONTINUOUS
 62
     7
100
AcDbLine
 10
676.81599715
 20
948.9971915626
 30
0.0
 11
675.8409983406
 21
949.3801663064
 31
0.0
  0
LINE
  5
26B
330
1F
100
AcDbEntity
  8
0
  6
CONTINUOUS
 62
     7
100
AcDbLine
 10
675.8409983406
 20
949.3801663064
 30
0.0
 11
674.8659962716
 21
950.1461232447
 31
0.0
  0
LINE
  5
26C
330
1F
100
AcDbEntity
  8
0
  6
CONTINUOUS
 62
     7
100
AcDbLine
 10
674.8659962716
 20
950.1461232447
 30
0.0
 11
674.3784982639
 21
950.9120801829
 31
0.0
  0
LINE
  5
26D
330
1F
100
AcDbEntity
  8
0
  6
CONTINUOUS
 62
     7
100
AcDbLine
 10
674.3784982639
 20
950.9120801829
 30
0.0
 11
674.1347464661
 21
951.8695319437
 31
0.0
  0
LINE
  5
26E
330
1F
100
AcDbEntity
  8
0
  6
CONTINUOUS
 62
     7
100
AcDbLine
 10
674.1347464661
 20
951.8695319437
 30
0.0
 11
674.1347464661
 21
954.7418723248
 31
0.0
  0
LINE
  5
26F
330
1F
100
AcDbEntity
  8
0
  6
CONTINUOUS
 62
     7
100
AcDbLine
 10
674.1347464661
 20
954.7418723248
 30
0.0
 11
674.3784982639
 21
955.699316635
 31
0.0
  0
LINE
  5
270
330
1F
100
AcDbEntity
  8
0
  6
CONTINUOUS
 62
     7
100
AcDbLine
 10
674.3784982639
 20
955.699316635
 30
0.0
 11
674.8659962716
 21
956.4652735733
 31
0.0
  0
LINE
  5
271
330
1F
100
AcDbEntity
  8
0
  6
CONTINUOUS
 62
     7
100
AcDbLine
 10
674.8659962716
 20
956.4652735733
 30
0.0
 11
675.8409983406
 21
957.2312305116
 31
0.0
  0
LINE
  5
272
330
1F
100
AcDbEntity
  8
0
  6
CONTINUOUS
 62
     7
100
AcDbLine
 10
675.8409983406
 20
957.2312305116
 30
0.0
 11
676.81599715
 21
957.614212706
 31
0.0
  0
LINE
  5
273
330
1F
100
AcDbEntity
  8
0
  6
CONTINUOUS
 62
     7
100
AcDbLine
 10
676.81599715
 20
957.614212706
 30
0.0
 11
678.0347482229
 21
957.8057000779
 31
0.0
  0
LINE
  5
274
330
1F
100
AcDbEntity
  8
0
  6
CONTINUOUS
 62
     7
100
AcDbLine
 10
676.3284963484
 20
956.0822988295
 30
0.0
 11
677.0597466196
 21
956.4652735733
 31
0.0
  0
LINE
  5
275
330
1F
100
AcDbEntity
  8
0
  6
CONTINUOUS
 62
     7
100
AcDbLine
 10
675.8409983406
 20
955.5078292631
 30
0.0
 11
676.3284963484
 21
956.0822988295
 31
0.0
  0
LINE
  5
276
330
1F
100
AcDbEntity
  8
0
  6
CONTINUOUS
 62
     7
100
AcDbLine
 10
675.5972465428
 20
954.7418723248
 30
0.0
 11
675.8409983406
 21
955.5078292631
 31
0.0
  0
LINE
  5
277
330
1F
100
AcDbEntity
  8
0
  6
CONTINUOUS
 62
     7
100
AcDbLine
 10
675.5972465428
 20
951.8695319437
 30
0.0
 11
675.5972465428
 21
954.7418723248
 31
0.0
  0
LINE
  5
278
330
1F
100
AcDbEntity
  8
0
  6
CONTINUOUS
 62
     7
100
AcDbLine
 10
675.8409983406
 20
951.1035750054
 30
0.0
 11
675.5972465428
 21
951.8695319437
 31
0.0
  0
LINE
  5
279
330
1F
100
AcDbEntity
  8
0
  6
CONTINUOUS
 62
     7
100
AcDbLine
 10
676.3284963484
 20
950.5291054391
 30
0.0
 11
675.8409983406
 21
951.1035750054
 31
0.0
  0
LINE
  5
27A
330
1F
100
AcDbEntity
  8
0
  6
CONTINUOUS
 62
     7
100
AcDbLine
 10
677.0597466196
 20
950.1461232447
 30
0.0
 11
676.3284963484
 21
950.5291054391
 31
0.0
  0
LINE
  5
27B
330
1F
100
AcDbEntity
  8
0
  6
CONTINUOUS
 62
     7
100
AcDbLine
 10
678.0347482229
 20
949.9546358727
 30
0.0
 11
677.0597466196
 21
950.1461232447
 31
0.0
  0
LINE
  5
27C
330
1F
100
AcDbEntity
  8
0
  6
CONTINUOUS
 62
     7
100
AcDbLine
 10
679.984746773
 20
949.9546358727
 30
0.0
 11
678.0347482229
 21
949.9546358727
 31
0.0
  0
LINE
  5
27D
330
1F
100
AcDbEntity
  8
0
  6
CONTINUOUS
 62
     7
100
AcDbLine
 10
680.9597483764
 20
950.1461232447
 30
0.0
 11
679.984746773
 21
949.9546358727
 31
0.0
  0
LINE
  5
27E
330
1F
100
AcDbEntity
  8
0
  6
CONTINUOUS
 62
     7
100
AcDbLine
 10
681.6909986476
 20
950.5291054391
 30
0.0
 11
680.9597483764
 21
950.1461232447
 31
0.0
  0
LINE
  5
27F
330
1F
100
AcDbEntity
  8
0
  6
CONTINUOUS
 62
     7
100
AcDbLine
 10
682.1784966553
 20
951.1035750054
 30
0.0
 11
681.6909986476
 21
950.5291054391
 31
0.0
  0
LINE
  5
280
330
1F
100
AcDbEntity
  8
0
  6
CONTINUOUS
 62
     7
100
AcDbLine
 10
682.4222479875
 20
951.8695319437
 30
0.0
 11
682.1784966553
 21
951.1035750054
 31
0.0
  0
LINE
  5
281
330
1F
100
AcDbEntity
  8
0
  6
CONTINUOUS
 62
     7
100
AcDbLine
 10
682.4222479875
 20
954.7418723248
 30
0.0
 11
682.4222479875
 21
951.8695319437
 31
0.0
  0
LINE
  5
282
330
1F
100
AcDbEntity
  8
0
  6
CONTINUOUS
 62
     7
100
AcDbLine
 10
682.1784966553
 20
955.5078292631
 30
0.0
 11
682.4222479875
 21
954.7418723248
 31
0.0
  0
LINE
  5
283
330
1F
100
AcDbEntity
  8
0
  6
CONTINUOUS
 62
     7
100
AcDbLine
 10
681.6909986476
 20
956.0822988295
 30
0.0
 11
682.1784966553
 21
955.5078292631
 31
0.0
  0
LINE
  5
284
330
1F
100
AcDbEntity
  8
0
  6
CONTINUOUS
 62
     7
100
AcDbLine
 10
680.9597483764
 20
956.4652735733
 30
0.0
 11
681.6909986476
 21
956.0822988295
 31
0.0
  0
LINE
  5
285
330
1F
100
AcDbEntity
  8
0
  6
CONTINUOUS
 62
     7
100
AcDbLine
 10
679.984746773
 20
956.6567609452
 30
0.0
 11
680.9597483764
 21
956.4652735733
 31
0.0
  0
LINE
  5
286
330
1F
100
AcDbEntity
  8
0
  6
CONTINUOUS
 62
     7
100
AcDbLine
 10
678.0347482229
 20
956.6567609452
 30
0.0
 11
679.984746773
 21
956.6567609452
 31
0.0
  0
LINE
  5
287
330
1F
100
AcDbEntity
  8
0
  6
CONTINUOUS
 62
     7
100
AcDbLine
 10
677.0597466196
 20
956.4652735733
 30
0.0
 11
678.0347482229
 21
956.6567609452
 31
0.0
  0
LINE
  5
288
330
1F
100
AcDbEntity
  8
0
  6
CONTINUOUS
 62
     7
100
AcDbLine
 10
678.0347482229
 20
957.8057000779
 30
0.0
 11
679.984746773
 21
957.8057000779
 31
0.0
  0
LINE
  5
289
330
1F
100
AcDbEntity
  8
0
  6
CONTINUOUS
 62
     7
100
AcDbLine
 10
683.1534982587
 20
956.4652735733
 30
0.0
 11
683.6409962664
 21
955.699316635
 31
0.0
  0
LINE
  5
28A
330
1F
100
AcDbEntity
  8
0
  6
CONTINUOUS
 62
     7
100
AcDbLine
 10
683.6409962664
 20
955.699316635
 30
0.0
 11
683.8847485299
 21
954.7418723248
 31
0.0
  0
LINE
  5
28B
330
1F
100
AcDbEntity
  8
0
  6
CONTINUOUS
 62
     7
100
AcDbLine
 10
671.9409979808
 20
952.4439940595
 30
0.0
 11
671.2097479424
 21
953.2099584483
 31
0.0
  0
LINE
  5
28C
330
1F
100
AcDbEntity
  8
0
  6
CONTINUOUS
 62
     7
100
AcDbLine
 10
672.1847469846
 20
951.8695319437
 30
0.0
 11
671.9409979808
 21
952.4439940595
 31
0.0
  0
LINE
  5
28D
330
1F
100
AcDbEntity
  8
0
  6
CONTINUOUS
 62
     7
100
AcDbLine
 10
671.2097479424
 20
949.5716536783
 30
0.0
 11
671.9409979808
 21
950.3376106166
 31
0.0
  0
LINE
  5
28E
330
1F
100
AcDbEntity
  8
0
  6
CONTINUOUS
 62
     7
100
AcDbLine
 10
670.2347475032
 20
948.9971915626
 30
0.0
 11
671.2097479424
 21
949.5716536783
 31
0.0
  0
LINE
  5
28F
330
1F
100
AcDbEntity
  8
0
  6
CONTINUOUS
 62
     7
100
AcDbLine
 10
669.0159978273
 20
948.8056967401
 30
0.0
 11
670.2347475032
 21
948.9971915626
 31
0.0
  0
LINE
  5
290
330
1F
100
AcDbEntity
  8
0
  6
CONTINUOUS
 62
     7
100
AcDbLine
 10
669.0159978273
 20
948.8056967401
 30
0.0
 11
663.165997986
 21
948.8056967401
 31
0.0
  0
LINE
  5
291
330
1F
100
AcDbEntity
  8
0
  6
CONTINUOUS
 62
     7
100
AcDbLine
 10
663.165997986
 20
948.8056967401
 30
0.0
 11
663.165997986
 21
957.8057000779
 31
0.0
  0
LINE
  5
292
330
1F
100
AcDbEntity
  8
0
  6
CONTINUOUS
 62
     7
100
AcDbLine
 10
663.165997986
 20
957.8057000779
 30
0.0
 11
669.0159978273
 21
957.8057000779
 31
0.0
  0
LINE
  5
293
330
1F
100
AcDbEntity
  8
0
  6
CONTINUOUS
 62
     7
100
AcDbLine
 10
669.0159978273
 20
957.8057000779
 30
0.0
 11
670.2347475032
 21
957.614212706
 31
0.0
  0
LINE
  5
294
330
1F
100
AcDbEntity
  8
0
  6
CONTINUOUS
 62
     7
100
AcDbLine
 10
670.2347475032
 20
957.614212706
 30
0.0
 11
671.2097479424
 21
957.0397431396
 31
0.0
  0
LINE
  5
295
330
1F
100
AcDbEntity
  8
0
  6
CONTINUOUS
 62
     7
100
AcDbLine
 10
671.2097479424
 20
957.0397431396
 30
0.0
 11
671.9409979808
 21
956.2737862014
 31
0.0
  0
LINE
  5
296
330
1F
100
AcDbEntity
  8
0
  6
CONTINUOUS
 62
     7
100
AcDbLine
 10
671.9409979808
 20
956.2737862014
 30
0.0
 11
672.1847469846
 21
955.699316635
 31
0.0
  0
LINE
  5
297
330
1F
100
AcDbEntity
  8
0
  6
CONTINUOUS
 62
     7
100
AcDbLine
 10
672.1847469846
 20
955.699316635
 30
0.0
 11
672.1847469846
 21
954.9333596968
 31
0.0
  0
LINE
  5
298
330
1F
100
AcDbEntity
  8
0
  6
CONTINUOUS
 62
     7
100
AcDbLine
 10
672.1847469846
 20
954.9333596968
 30
0.0
 11
671.9409979808
 21
954.3588901304
 31
0.0
  0
LINE
  5
299
330
1F
100
AcDbEntity
  8
0
  6
CONTINUOUS
 62
     7
100
AcDbLine
 10
671.9409979808
 20
954.3588901304
 30
0.0
 11
671.2097479424
 21
953.5929331922
 31
0.0
  0
LINE
  5
29A
330
1F
100
AcDbEntity
  8
0
  6
CONTINUOUS
 62
     7
100
AcDbLine
 10
671.2097479424
 20
953.5929331922
 30
0.0
 11
670.7222469079
 21
953.4014458202
 31
0.0
  0
LINE
  5
29B
330
1F
100
AcDbEntity
  8
0
  6
CONTINUOUS
 62
     7
100
AcDbLine
 10
671.2097479424
 20
953.2099584483
 30
0.0
 11
670.7222469079
 21
953.4014458202
 31
0.0
  0
LINE
  5
29C
330
1F
100
AcDbEntity
  8
0
  6
CONTINUOUS
 62
     7
100
AcDbLine
 10
669.2597469476
 20
953.9759153866
 30
0.0
 11
664.6284978299
 21
953.9759153866
 31
0.0
  0
LINE
  5
29D
330
1F
100
AcDbEntity
  8
0
  6
CONTINUOUS
 62
     7
100
AcDbLine
 10
669.9909968695
 20
954.1674027585
 30
0.0
 11
669.2597469476
 21
953.9759153866
 31
0.0
  0
LINE
  5
29E
330
1F
100
AcDbEntity
  8
0
  6
CONTINUOUS
 62
     7
100
AcDbLine
 10
670.478497904
 20
954.5503775023
 30
0.0
 11
669.9909968695
 21
954.1674027585
 31
0.0
  0
LINE
  5
29F
330
1F
100
AcDbEntity
  8
0
  6
CONTINUOUS
 62
     7
100
AcDbLine
 10
670.7222469079
 20
955.1248470687
 30
0.0
 11
670.478497904
 21
954.5503775023
 31
0.0
  0
LINE
  5
2A0
330
1F
100
AcDbEntity
  8
0
  6
CONTINUOUS
 62
     7
100
AcDbLine
 10
670.7222469079
 20
955.5078292631
 30
0.0
 11
670.7222469079
 21
955.1248470687
 31
0.0
  0
LINE
  5
2A1
330
1F
100
AcDbEntity
  8
0
  6
CONTINUOUS
 62
     7
100
AcDbLine
 10
670.478497904
 20
956.0822988295
 30
0.0
 11
670.7222469079
 21
955.5078292631
 31
0.0
  0
LINE
  5
2A2
330
1F
100
AcDbEntity
  8
0
  6
CONTINUOUS
 62
     7
100
AcDbLine
 10
669.9909968695
 20
956.4652735733
 30
0.0
 11
670.478497904
 21
956.0822988295
 31
0.0
  0
LINE
  5
2A3
330
1F
100
AcDbEntity
  8
0
  6
CONTINUOUS
 62
     7
100
AcDbLine
 10
669.2597469476
 20
956.6567609452
 30
0.0
 11
669.9909968695
 21
956.4652735733
 31
0.0
  0
LINE
  5
2A4
330
1F
100
AcDbEntity
  8
0
  6
CONTINUOUS
 62
     7
100
AcDbLine
 10
664.6284978299
 20
956.6567609452
 30
0.0
 11
669.2597469476
 21
956.6567609452
 31
0.0
  0
LINE
  5
2A5
330
1F
100
AcDbEntity
  8
0
  6
CONTINUOUS
 62
     7
100
AcDbLine
 10
664.6284978299
 20
953.9759153866
 30
0.0
 11
664.6284978299
 21
956.6567609452
 31
0.0
  0
LINE
  5
2A6
330
1F
100
AcDbEntity
  8
0
  6
CONTINUOUS
 62
     7
100
AcDbLine
 10
669.9909968695
 20
952.635488882
 30
0.0
 11
670.478497904
 21
952.2525066875
 31
0.0
  0
LINE
  5
2A7
330
1F
100
AcDbEntity
  8
0
  6
CONTINUOUS
 62
     7
100
AcDbLine
 10
669.2597469476
 20
952.8269762539
 30
0.0
 11
669.9909968695
 21
952.635488882
 31
0.0
  0
LINE
  5
2A8
330
1F
100
AcDbEntity
  8
0
  6
CONTINUOUS
 62
     7
100
AcDbLine
 10
664.6284978299
 20
952.8269762539
 30
0.0
 11
669.2597469476
 21
952.8269762539
 31
0.0
  0
LINE
  5
2A9
330
1F
100
AcDbEntity
  8
0
  6
CONTINUOUS
 62
     7
100
AcDbLine
 10
664.6284978299
 20
949.9546358727
 30
0.0
 11
664.6284978299
 21
952.8269762539
 31
0.0
  0
LINE
  5
2AA
330
1F
100
AcDbEntity
  8
0
  6
CONTINUOUS
 62
     7
100
AcDbLine
 10
669.2597469476
 20
949.9546358727
 30
0.0
 11
664.6284978299
 21
949.9546358727
 31
0.0
  0
LINE
  5
2AB
330
1F
100
AcDbEntity
  8
0
  6
CONTINUOUS
 62
     7
100
AcDbLine
 10
669.9909968695
 20
950.1461232447
 30
0.0
 11
669.2597469476
 21
949.9546358727
 31
0.0
  0
LINE
  5
2AC
330
1F
100
AcDbEntity
  8
0
  6
CONTINUOUS
 62
     7
100
AcDbLine
 10
670.478497904
 20
950.5291054391
 30
0.0
 11
669.9909968695
 21
950.1461232447
 31
0.0
  0
LINE
  5
2AD
330
1F
100
AcDbEntity
  8
0
  6
CONTINUOUS
 62
     7
100
AcDbLine
 10
670.7222469079
 20
951.1035750054
 30
0.0
 11
670.478497904
 21
950.5291054391
 31
0.0
  0
LINE
  5
2AE
330
1F
100
AcDbEntity
  8
0
  6
CONTINUOUS
 62
     7
100
AcDbLine
 10
670.7222469079
 20
951.6780371212
 30
0.0
 11
670.7222469079
 21
951.1035750054
 31
0.0
  0
LINE
  5
2AF
330
1F
100
AcDbEntity
  8
0
  6
CONTINUOUS
 62
     7
100
AcDbLine
 10
670.478497904
 20
952.2525066875
 30
0.0
 11
670.7222469079
 21
951.6780371212
 31
0.0
  0
LINE
  5
2B0
330
1F
100
AcDbEntity
  8
0
  6
CONTINUOUS
 62
     7
100
AcDbLine
 10
672.1847469846
 20
950.9120801829
 30
0.0
 11
672.1847469846
 21
951.8695319437
 31
0.0
  0
LINE
  5
2B1
330
1F
100
AcDbEntity
  8
0
  6
CONTINUOUS
 62
     7
100
AcDbLine
 10
671.9409979808
 20
950.3376106166
 30
0.0
 11
672.1847469846
 21
950.9120801829
 31
0.0
  0
LINE
  5
2B2
330
1F
100
AcDbEntity
  8
0
  6
CONTINUOUS
 62
     7
100
AcDbLine
 10
649.0284980203
 20
948.8056967401
 30
0.0
 11
649.0284980203
 21
957.8057000779
 31
0.0
  0
LINE
  5
2B3
330
1F
100
AcDbEntity
  8
0
  6
CONTINUOUS
 62
     7
100
AcDbLine
 10
649.0284980203
 20
957.8057000779
 30
0.0
 11
657.8034975494
 21
957.8057000779
 31
0.0
  0
LINE
  5
2B4
330
1F
100
AcDbEntity
  8
0
  6
CONTINUOUS
 62
     7
100
AcDbLine
 10
657.8034975494
 20
956.6567609452
 30
0.0
 11
650.4909967
 21
956.6567609452
 31
0.0
  0
LINE
  5
2B5
330
1F
100
AcDbEntity
  8
0
  6
CONTINUOUS
 62
     7
100
AcDbLine
 10
650.4909967
 20
956.6567609452
 30
0.0
 11
650.4909967
 21
954.1674027585
 31
0.0
  0
LINE
  5
2B6
330
1F
100
AcDbEntity
  8
0
  6
CONTINUOUS
 62
     7
100
AcDbLine
 10
650.4909967
 20
954.1674027585
 30
0.0
 11
656.8284978087
 21
954.1674027585
 31
0.0
  0
LINE
  5
2B7
330
1F
100
AcDbEntity
  8
0
  6
CONTINUOUS
 62
     7
100
AcDbLine
 10
656.8284978087
 20
954.1674027585
 30
0.0
 11
656.8284978087
 21
953.0184636258
 31
0.0
  0
LINE
  5
2B8
330
1F
100
AcDbEntity
  8
0
  6
CONTINUOUS
 62
     7
100
AcDbLine
 10
656.8284978087
 20
953.0184636258
 30
0.0
 11
650.4909967
 21
953.0184636258
 31
0.0
  0
LINE
  5
2B9
330
1F
100
AcDbEntity
  8
0
  6
CONTINUOUS
 62
     7
100
AcDbLine
 10
650.4909967
 20
953.0184636258
 30
0.0
 11
650.4909967
 21
948.8056967401
 31
0.0
  0
LINE
  5
2BA
330
1F
100
AcDbEntity
  8
0
  6
CONTINUOUS
 62
     7
100
AcDbLine
 10
649.0284980203
 20
948.8056967401
 30
0.0
 11
650.4909967
 21
948.8056967401
 31
0.0
  0
LINE
  5
2BB
330
1F
100
AcDbEntity
  8
0
  6
CONTINUOUS
 62
     7
100
AcDbLine
 10
657.8034975494
 20
957.8057000779
 30
0.0
 11
657.8034975494
 21
956.6567609452
 31
0.0
  0
LINE
  5
2BC
330
1F
100
AcDbEntity
  8
0
  6
CONTINUOUS
 62
     7
100
AcDbLine
 10
659.7534979622
 20
957.8057000779
 30
0.0
 11
661.2159971076
 21
957.8057000779
 31
0.0
  0
LINE
  5
2BD
330
1F
100
AcDbEntity
  8
0
  6
CONTINUOUS
 62
     7
100
AcDbLine
 10
659.7534979622
 20
948.8056967401
 30
0.0
 11
661.2159971076
 21
948.8056967401
 31
0.0
  0
LINE
  5
2BE
330
1F
100
AcDbEntity
  8
0
  6
CONTINUOUS
 62
     7
100
AcDbLine
 10
659.7534979622
 20
948.8056967401
 30
0.0
 11
659.7534979622
 21
957.8057000779
 31
0.0
  0
LINE
  5
2BF
330
1F
100
AcDbEntity
  8
0
  6
CONTINUOUS
 62
     7
100
AcDbLine
 10
661.2159971076
 20
957.8057000779
 30
0.0
 11
661.2159971076
 21
948.8056967401
 31
0.0
  0
LINE
  5
2C0
330
1F
100
AcDbEntity
  8
0
  6
CONTINUOUS
 62
     7
100
AcDbLine
 10
262.2000904949
 20
1021.3057021045
 30
0.0
 11
262.2000904949
 21
1015.8090511703
 31
0.0
  0
LINE
  5
2C1
330
1F
100
AcDbEntity
  8
0
  6
CONTINUOUS
 62
     7
100
AcDbLine
 10
274.1826497213
 20
1020.887262597
 30
0.0
 11
262.2000904949
 21
1021.3057021045
 31
0.0
  0
ARC
  5
2C2
330
1F
100
AcDbEntity
  8
0
  6
CONTINUOUS
 62
     7
100
AcDbCircle
 10
387.2543026454
 20
1018.1389562881
 30
0.0
 40
113.1050479976327
100
AcDbArc
 50
178.6076496618
 51
181.3923697539
  0
LINE
  5
2C3
330
1F
100
AcDbEntity
  8
0
  6
CONTINUOUS
 62
     7
100
AcDbLine
 10
274.1826506526
 20
1015.3906116628
 30
0.0
 11
262.2000904949
 21
1015.8090511703
 31
0.0
  0
LINE
  5
2C4
330
1F
100
AcDbEntity
  8
0
  6
CONTINUOUS
 62
     7
100
AcDbLine
 10
274.1826506526
 20
1015.3906116628
 30
0.0
 11
274.2481794403
 21
1013.4093085669
 31
0.0
  0
LINE
  5
2C5
330
1F
100
AcDbEntity
  8
0
  6
CONTINUOUS
 62
     7
100
AcDbLine
 10
274.2481794403
 20
1013.4093085669
 30
0.0
 11
274.2481794403
 21
747.2020903968
 31
0.0
  0
LINE
  5
2C6
330
1F
100
AcDbEntity
  8
0
  6
CONTINUOUS
 62
     7
100
AcDbLine
 10
274.2481794403
 20
747.2020903968
 30
0.0
 11
274.1826506526
 21
745.220787301
 31
0.0
  0
LINE
  5
2C7
330
1F
100
AcDbEntity
  8
0
  6
CONTINUOUS
 62
     7
100
AcDbLine
 10
262.2000904949
 20
744.8023477935
 30
0.0
 11
274.1826506526
 21
745.220787301
 31
0.0
  0
LINE
  5
2C8
330
1F
100
AcDbEntity
  8
0
  6
CONTINUOUS
 62
     7
100
AcDbLine
 10
262.2000904949
 20
1015.8090511703
 30
0.0
 11
262.2000904949
 21
744.8023477935
 31
0.0
  0
LINE
  5
2C9
330
1F
100
AcDbEntity
  8
0
  6
CONTINUOUS
 62
     7
100
AcDbLine
 10
262.2000904949
 20
744.8023477935
 30
0.0
 11
262.2000904949
 21
739.3056968593
 31
0.0
  0
ARC
  5
2CA
330
1F
100
AcDbEntity
  8
0
  6
CONTINUOUS
 62
     7
100
AcDbCircle
 10
387.2543026456
 20
742.4724426756
 30
0.0
 40
113.1050479978336
100
AcDbArc
 50
178.6076302461
 51
181.3923503382
  0
LINE
  5
2CB
330
1F
100
AcDbEntity
  8
0
  6
CONTINUOUS
 62
     7
100
AcDbLine
 10
274.1826497213
 20
739.7241363667
 30
0.0
 11
262.2000904949
 21
739.3056968593
 31
0.0
  0
LINE
  5
2CC
330
1F
100
AcDbEntity
  8
0
  6
CONTINUOUS
 62
     7
100
AcDbLine
 10
276.6062705041
 20
747.2020903968
 30
0.0
 11
276.5619013653
 21
745.0887779139
 31
0.0
  0
LINE
  5
2CD
330
1F
100
AcDbEntity
  8
0
  6
CONTINUOUS
 62
     7
100
AcDbLine
 10
276.5619013653
 20
745.0787941359
 30
0.0
 11
276.5624135927
 21
745.0888971232
 31
0.0
  0
ARC
  5
2CE
330
1F
100
AcDbEntity
  8
0
  6
CONTINUOUS
 62
     7
100
AcDbCircle
 10
251.0169954471
 20
337.0933976851
 30
0.0
 40
408.7843258725295
100
AcDbArc
 50
86.4172584721
 51
86.7513316327
  0
LINE
  5
2CF
330
1F
100
AcDbEntity
  8
0
  6
CONTINUOUS
 62
     7
100
AcDbLine
 10
276.6062705041
 20
747.2020903968
 30
0.0
 11
274.2481794403
 21
747.2020903968
 31
0.0
  0
LINE
  5
2D0
330
1F
100
AcDbEntity
  8
0
  6
CONTINUOUS
 62
     7
100
AcDbLine
 10
276.5624135927
 20
1015.5225018405
 30
0.0
 11
276.5619013653
 21
1015.5326048278
 31
0.0
  0
LINE
  5
2D1
330
1F
100
AcDbEntity
  8
0
  6
CONTINUOUS
 62
     7
100
AcDbLine
 10
276.6062705041
 20
1013.4093085669
 30
0.0
 11
276.5624135927
 21
1015.5225018405
 31
0.0
  0
LINE
  5
2D2
330
1F
100
AcDbEntity
  8
0
  6
CONTINUOUS
 62
     7
100
AcDbLine
 10
274.2481794403
 20
1013.4093085669
 30
0.0
 11
276.6062705041
 21
1013.4093085669
 31
0.0
  0
ARC
  5
2D3
330
1F
100
AcDbEntity
  8
0
  6
CONTINUOUS
 62
     7
100
AcDbCircle
 10
251.0168107231
 20
1423.5209286774
 30
0.0
 40
408.7872590351425
100
AcDbArc
 50
273.2486709649
 51
273.5827415981
  0
ARC
  5
2D4
330
1F
100
AcDbEntity
  8
0
  6
CONTINUOUS
 62
     7
100
AcDbCircle
 10
295.4716290109
 20
743.4594929996
 30
0.0
 40
18.97895070331514
100
AcDbArc
 50
175.1055219353
 51
184.8943462509
  0
ARC
  5
2D5
330
1F
100
AcDbEntity
  8
0
  6
CONTINUOUS
 62
     7
100
AcDbCircle
 10
274.0939388239
 20
742.2194921756
 30
0.0
 40
2.496932164910964
100
AcDbArc
 50
272.0360304428
 51
351.2635807453
  0
ARC
  5
2D6
330
1F
100
AcDbEntity
  8
0
  6
CONTINUOUS
 62
     7
100
AcDbCircle
 10
295.471789587
 20
1017.1519005263
 30
0.0
 40
18.97911115781521
100
AcDbArc
 50
175.105678752
 51
184.8944201084
  0
ARC
  5
2D7
330
1F
100
AcDbEntity
  8
0
  6
CONTINUOUS
 62
     7
100
AcDbCircle
 10
274.0939388239
 20
1018.3919067881
 30
0.0
 40
2.496932164911084
100
AcDbArc
 50
8.7364192547
 51
87.9639695572
  0
LINE
  5
2D8
330
1F
100
AcDbEntity
  8
0
  6
CONTINUOUS
 62
     7
100
AcDbLine
 10
276.6062705041
 20
1013.4093085669
 30
0.0
 11
276.6062705041
 21
885.6953344673
 31
0.0
  0
LINE
  5
2D9
330
1F
100
AcDbEntity
  8
0
  6
CONTINUOUS
 62
     7
100
AcDbLine
 10
276.6062705041
 20
874.9160644964
 30
0.0
 11
276.6062705041
 21
885.6953344673
 31
0.0
  0
LINE
  5
2DA
330
1F
100
AcDbEntity
  8
0
  6
CONTINUOUS
 62
     7
100
AcDbLine
 10
276.6062705041
 20
874.9160644964
 30
0.0
 11
276.6062705041
 21
747.2020903968
 31
0.0
  0
LINE
  5
2DB
330
1F
100
AcDbEntity
  8
0
  6
CONTINUOUS
 62
     7
100
AcDbLine
 10
277.8100840942
 20
747.3669270419
 30
0.0
 11
276.6062705041
 21
741.7049924277
 31
0.0
  0
LINE
  5
2DC
330
1F
100
AcDbEntity
  8
0
  6
CONTINUOUS
 62
     7
100
AcDbLine
 10
276.561900434
 20
741.8366143846
 30
0.0
 11
276.6062705041
 21
741.7049924277
 31
0.0
  0
LINE
  5
2DD
330
1F
100
AcDbEntity
  8
0
  6
CONTINUOUS
 62
     7
100
AcDbLine
 10
277.4487514244
 20
751.1655012511
 30
0.0
 11
276.6062705041
 21
747.2020903968
 31
0.0
  0
ARC
  5
2DE
330
1F
100
AcDbEntity
  8
0
  6
CONTINUOUS
 62
     7
100
AcDbCircle
 10
311.0220795806
 20
751.9424057894
 30
0.0
 40
33.58231594379455
100
AcDbArc
 50
181.3256180047
 51
187.8315875276
  0
ARC
  5
2DF
330
1F
100
AcDbEntity
  8
0
  6
CONTINUOUS
 62
     7
100
AcDbCircle
 10
311.0220795806
 20
1008.6689931744
 30
0.0
 40
33.58231594375258
100
AcDbArc
 50
172.1684124724
 51
178.6743819953
  0
LINE
  5
2E0
330
1F
100
AcDbEntity
  8
0
  6
CONTINUOUS
 62
     7
100
AcDbLine
 10
277.4487514244
 20
1009.4458977126
 30
0.0
 11
276.6062705041
 21
1013.4093085669
 31
0.0
  0
LINE
  5
2E1
330
1F
100
AcDbEntity
  8
0
  6
CONTINUOUS
 62
     7
100
AcDbLine
 10
276.561900434
 20
1018.771163597
 30
0.0
 11
276.6062705041
 21
1018.906406536
 31
0.0
  0
LINE
  5
2E2
330
1F
100
AcDbEntity
  8
0
  6
CONTINUOUS
 62
     7
100
AcDbLine
 10
276.6062705041
 20
1018.906406536
 30
0.0
 11
277.8100840942
 21
1013.2444719218
 31
0.0
  0
ELLIPSE
  5
2E3
330
1F
100
AcDbEntity
  8
0
  6
CONTINUOUS
 62
     7
100
AcDbEllipse
 10
278.5631202586
 20
1007.7376920533
 30
0.0
 11
-0.002374878144621562
 21
5.500219689613801
 31
0.0
210
0.0
220
0.0
230
1.0
 40
0.2130095649
 41
1.254911697021472
 42
1.568769290176184
  0
LINE
  5
2E4
330
1F
100
AcDbEntity
  8
0
  6
CONTINUOUS
 62
     7
100
AcDbLine
 10
277.3915188582
 20
988.4406322979
 30
0.0
 11
277.3915188582
 21
1007.7483425282
 31
0.0
  0
LINE
  5
2E5
330
1F
100
AcDbEntity
  8
0
  6
CONTINUOUS
 62
     7
100
AcDbLine
 10
277.9240435184
 20
986.2427333735
 30
0.0
 11
277.3915188582
 21
988.4406322979
 31
0.0
  0
LINE
  5
2E6
330
1F
100
AcDbEntity
  8
0
  6
CONTINUOUS
 62
     7
100
AcDbLine
 10
277.9240435184
 20
986.2427333735
 30
0.0
 11
277.9240435184
 21
886.4872399152
 31
0.0
  0
ELLIPSE
  5
2E7
330
1F
100
AcDbEntity
  8
0
  6
CONTINUOUS
 62
     7
100
AcDbEllipse
 10
277.2120366941
 20
885.6995463749
 30
0.0
 11
-0.0007511895885272679
 21
0.8001287847866934
 31
0.0
210
0.0
220
0.0
230
0.9999999999999999
 40
0.2138423392
 41
6.279251868237355
 42
7.84957625993359
  0
LINE
  5
2E8
330
1F
100
AcDbEntity
  8
0
  6
CONTINUOUS
 62
     7
100
AcDbLine
 10
276.6062705041
 20
885.6953344673
 30
0.0
 11
277.0409336508
 21
885.7029214867
 31
0.0
  0
LINE
  5
2E9
330
1F
100
AcDbEntity
  8
0
  6
CONTINUOUS
 62
     7
100
AcDbLine
 10
276.8043823735
 20
891.4246246584
 30
0.0
 11
277.6907323123
 21
891.4555762329
 31
0.0
  0
LINE
  5
2EA
330
1F
100
AcDbEntity
  8
0
  6
CONTINUOUS
 62
     7
100
AcDbLine
 10
276.8043823735
 20
886.6867743798
 30
0.0
 11
276.8043823735
 21
891.4246246584
 31
0.0
  0
LINE
  5
2EB
330
1F
100
AcDbEntity
  8
0
  6
CONTINUOUS
 62
     7
100
AcDbLine
 10
277.6907323123
 20
886.6558223397
 30
0.0
 11
276.8043823735
 21
886.6867743798
 31
0.0
  0
LINE
  5
2EC
330
1F
100
AcDbEntity
  8
0
  6
CONTINUOUS
 62
     7
100
AcDbLine
 10
277.6907323123
 20
891.4555762329
 30
0.0
 11
277.6907323123
 21
886.6558223397
 31
0.0
  0
ELLIPSE
  5
2ED
330
1F
100
AcDbEntity
  8
0
  6
CONTINUOUS
 62
     7
100
AcDbEllipse
 10
277.2120366941
 20
874.9118525889
 30
0.0
 11
0.0007511895884704244
 21
0.8001287847866934
 31
0.0
210
0.0
220
0.0
230
0.9999999999999998
 40
0.2138423392
 41
1.575201625230609
 42
3.145526092531821
  0
LINE
  5
2EE
330
1F
100
AcDbEntity
  8
0
  6
CONTINUOUS
 62
     7
100
AcDbLine
 10
277.9240435184
 20
874.1241590485
 30
0.0
 11
277.9240435184
 21
774.3686655902
 31
0.0
  0
LINE
  5
2EF
330
1F
100
AcDbEntity
  8
0
  6
CONTINUOUS
 62
     7
100
AcDbLine
 10
277.9240435184
 20
774.3686655902
 30
0.0
 11
277.3915188582
 21
772.1707666658
 31
0.0
  0
LINE
  5
2F0
330
1F
100
AcDbEntity
  8
0
  6
CONTINUOUS
 62
     7
100
AcDbLine
 10
277.3915188582
 20
772.1707666658
 30
0.0
 11
277.3915188582
 21
752.8630564355
 31
0.0
  0
ELLIPSE
  5
2F1
330
1F
100
AcDbEntity
  8
0
  6
CONTINUOUS
 62
     7
100
AcDbEllipse
 10
278.5631202586
 20
752.8737069104
 30
0.0
 11
0.002374878144564718
 21
5.500219689613687
 31
0.0
210
0.0
220
0.0
230
1.0
 40
0.2130095649
 41
1.572823363413607
 42
1.886680956568336
  0
LINE
  5
2F2
330
1F
100
AcDbEntity
  8
0
  6
CONTINUOUS
 62
     7
100
AcDbLine
 10
277.0409336508
 20
874.908477477
 30
0.0
 11
276.6062705041
 21
874.9160644964
 31
0.0
  0
LINE
  5
2F3
330
1F
100
AcDbEntity
  8
0
  6
CONTINUOUS
 62
     7
100
AcDbLine
 10
276.8043823735
 20
874.024624414
 30
0.0
 11
277.6907323123
 21
874.0555769198
 31
0.0
  0
LINE
  5
2F4
330
1F
100
AcDbEntity
  8
0
  6
CONTINUOUS
 62
     7
100
AcDbLine
 10
276.8043823735
 20
869.2867741354
 30
0.0
 11
276.8043823735
 21
874.024624414
 31
0.0
  0
LINE
  5
2F5
330
1F
100
AcDbEntity
  8
0
  6
CONTINUOUS
 62
     7
100
AcDbLine
 10
277.6907323123
 20
869.255822561
 30
0.0
 11
276.8043823735
 21
869.2867741354
 31
0.0
  0
LINE
  5
2F6
330
1F
100
AcDbEntity
  8
0
  6
CONTINUOUS
 62
     7
100
AcDbLine
 10
277.6907323123
 20
874.0555769198
 30
0.0
 11
277.6907323123
 21
869.255822561
 31
0.0
  0
LINE
  5
2F7
330
1F
100
AcDbEntity
  8
0
  6
CONTINUOUS
 62
     7
100
AcDbLine
 10
309.4131792159
 20
875.4735602432
 30
0.0
 11
309.4131792159
 21
878.74105276
 31
0.0
  0
LINE
  5
2F8
330
1F
100
AcDbEntity
  8
0
  6
CONTINUOUS
 62
     7
100
AcDbLine
 10
277.0409336508
 20
874.9084891186
 30
0.0
 11
309.4131792159
 21
875.4735602432
 31
0.0
  0
LINE
  5
2F9
330
1F
100
AcDbEntity
  8
0
  6
CONTINUOUS
 62
     7
100
AcDbLine
 10
309.4131792159
 20
885.1378387206
 30
0.0
 11
277.0409336508
 21
885.7029098452
 31
0.0
  0
LINE
  5
2FA
330
1F
100
AcDbEntity
  8
0
  6
CONTINUOUS
 62
     7
100
AcDbLine
 10
309.4131792159
 20
881.8703462037
 30
0.0
 11
309.4131792159
 21
885.1378387206
 31
0.0
  0
LINE
  5
2FB
330
1F
100
AcDbEntity
  8
0
  6
CONTINUOUS
 62
     7
100
AcDbLine
 10
309.4131792159
 20
881.8703462037
 30
0.0
 11
277.0409336508
 21
881.3052866042
 31
0.0
  0
LINE
  5
2FC
330
1F
100
AcDbEntity
  8
0
  6
CONTINUOUS
 62
     7
100
AcDbLine
 10
277.0409336508
 20
881.3052866042
 30
0.0
 11
277.0409336508
 21
879.3061123595
 31
0.0
  0
LINE
  5
2FD
330
1F
100
AcDbEntity
  8
0
  6
CONTINUOUS
 62
     7
100
AcDbLine
 10
309.4131792159
 20
878.74105276
 30
0.0
 11
277.0409336508
 21
879.3061123595
 31
0.0
  0
ARC
  5
2FE
330
1F
100
AcDbEntity
  8
0
  6
CONTINUOUS
 62
     7
100
AcDbCircle
 10
292.5300501672
 20
875.1278609346
 30
0.0
 40
16.88666795097356
100
AcDbArc
 50
358.4982493673
 51
1.173025678
  0
ELLIPSE
  5
2FF
330
1F
100
AcDbEntity
  8
0
  6
CONTINUOUS
 62
     7
100
AcDbEllipse
 10
457.6316987361
 20
878.0610895041
 30
0.0
 11
157.9809049599099
 21
3.544286533630384
 31
0.0
210
0.0
220
0.0
230
0.9999999999999996
 40
0.0009227446
 41
3.324880806179475
 42
3.494900001959216
  0
LINE
  5
300
330
1F
100
AcDbEntity
  8
0
  6
CONTINUOUS
 62
     7
100
AcDbLine
 10
277.2119589345
 20
874.1117291518
 30
0.0
 11
302.2976177008
 21
874.5496011705
 31
0.0
  0
ELLIPSE
  5
301
330
1F
100
AcDbEntity
  8
0
  6
CONTINUOUS
 62
     7
100
AcDbEllipse
 10
457.6316987361
 20
882.5503094596
 30
0.0
 11
157.98090495991
 21
-3.54428653363027
 31
0.0
210
0.0
220
0.0
230
1.0
 40
0.0009227446
 41
2.788285243230085
 42
2.958304501013209
  0
ARC
  5
302
330
1F
100
AcDbEntity
  8
0
  6
CONTINUOUS
 62
     7
100
AcDbCircle
 10
292.5298667942
 20
885.4835377645
 30
0.0
 40
16.88685128012913
100
AcDbArc
 50
358.8269879565
 51
1.501736804
  0
LINE
  5
303
330
1F
100
AcDbEntity
  8
0
  6
CONTINUOUS
 62
     7
100
AcDbLine
 10
302.2976177008
 20
886.0617977933
 30
0.0
 11
277.2119589345
 21
886.4996698119
 31
0.0
  0
LINE
  5
304
330
1F
100
AcDbEntity
  8
0
  6
CONTINUOUS
 62
     7
100
AcDbLine
 10
277.9240435184
 20
881.3207013898
 30
0.0
 11
277.9240435184
 21
879.2906975739
 31
0.0
  0
LINE
  5
305
330
1F
100
AcDbEntity
  8
0
  6
CONTINUOUS
 62
     7
100
AcDbLine
 10
309.9000895591
 20
885.1378387206
 30
0.0
 11
309.4131792159
 21
885.1378387206
 31
0.0
  0
LINE
  5
306
330
1F
100
AcDbEntity
  8
0
  6
CONTINUOUS
 62
     7
100
AcDbLine
 10
309.9000895591
 20
885.1378387206
 30
0.0
 11
309.9000895591
 21
881.8788453371
 31
0.0
  0
LWPOLYLINE
  5
307
330
1F
100
AcDbEntity
  8
0
  6
CONTINUOUS
 62
     7
100
AcDbPolyline
 90
        9
 70
   128
 43
0.0
 10
309.4131792159
 20
881.8703462037
 10
309.5088409455
 20
881.8720160651
 10
309.6004644604
 20
881.8736152623
 10
309.6846411199
 20
881.8750846565
 10
309.7582416804
 20
881.8763692996
 10
309.8185317786
 20
881.8774216941
 10
309.863272515
 20
881.8782026081
 10
309.8907986851
 20
881.8786831705
 10
309.9000895591
 20
881.8788453371
  0
LINE
  5
308
330
1F
100
AcDbEntity
  8
0
  6
CONTINUOUS
 62
     7
100
AcDbLine
 10
309.9000895591
 20
875.4735602432
 30
0.0
 11
309.9000895591
 21
878.7325536266
 31
0.0
  0
LINE
  5
309
330
1F
100
AcDbEntity
  8
0
  6
CONTINUOUS
 62
     7
100
AcDbLine
 10
309.4131792159
 20
875.4735602432
 30
0.0
 11
309.9000895591
 21
875.4735602432
 31
0.0
  0
LWPOLYLINE
  5
30A
330
1F
100
AcDbEntity
  8
0
  6
CONTINUOUS
 62
     7
100
AcDbPolyline
 90
        9
 70
   128
 43
0.0
 10
309.9000895591
 20
878.7325536266
 10
309.8907986851
 20
878.7327157932
 10
309.863272515
 20
878.7331963556
 10
309.8185317786
 20
878.7339772696
 10
309.7582416804
 20
878.7350296641
 10
309.6846411199
 20
878.7363143072
 10
309.6004644604
 20
878.7377837014
 10
309.5088409455
 20
878.7393828987
 10
309.4131792159
 20
878.74105276
  0
ARC
  5
30B
330
1F
100
AcDbEntity
  8
0
  6
CONTINUOUS
 62
     7
100
AcDbCircle
 10
309.3950496223
 20
885.4212552547
 30
0.0
 40
0.5050893204746012
100
AcDbArc
 50
359.1987849613
 51
88.1996477873
  0
LINE
  5
30C
330
1F
100
AcDbEntity
  8
0
  6
CONTINUOUS
 62
     7
100
AcDbLine
 10
309.9000895591
 20
885.4140936763
 30
0.0
 11
309.9000895591
 21
885.1378387206
 31
0.0
  0
LINE
  5
30D
330
1F
100
AcDbEntity
  8
0
  6
CONTINUOUS
 62
     7
100
AcDbLine
 10
309.9000895591
 20
875.1973052875
 30
0.0
 11
309.9000895591
 21
875.4735602432
 31
0.0
  0
ARC
  5
30E
330
1F
100
AcDbEntity
  8
0
  6
CONTINUOUS
 62
     7
100
AcDbCircle
 10
309.3950849458
 20
875.1901292958
 30
0.0
 40
0.505054202270484
100
AcDbArc
 50
271.5580110879
 51
0.802906013
  0
ARC
  5
30F
330
1F
100
AcDbEntity
  8
0
  6
CONTINUOUS
 62
     7
100
AcDbCircle
 10
274.160930332
 20
742.2249050735
 30
0.0
 40
2.500000000000071
100
AcDbArc
 50
272.0
 51
347.9967873752
  0
ARC
  5
310
330
1F
100
AcDbEntity
  8
0
  6
CONTINUOUS
 62
     7
100
AcDbCircle
 10
274.1609307961
 20
1018.386493874
 30
0.0
 40
2.500000000011453
100
AcDbArc
 50
12.0032157212
 51
49.0707725648
  0
LWPOLYLINE
  5
311
330
1F
100
AcDbEntity
  8
0
  6
CONTINUOUS
 62
     7
100
AcDbPolyline
 90
        3
 70
   128
 43
0.0
 10
274.8322081016
 20
1020.7946816825
 10
274.6593332113
 20
1020.8363155269
 10
274.2481794403
 20
1020.8849678182
  0
LINE
  5
312
330
1F
100
AcDbEntity
  8
0
  6
CONTINUOUS
 62
     7
100
AcDbLine
 10
277.3915188582
 20
1007.7483425282
 30
0.0
 11
407.9500915677
 21
1006.608969941
 31
0.0
  0
LINE
  5
313
330
1F
100
AcDbEntity
  8
0
  6
CONTINUOUS
 62
     7
100
AcDbLine
 10
407.9500915677
 20
988.9529714726
 30
0.0
 11
407.9500915677
 21
1006.608969941
 31
0.0
  0
LINE
  5
314
330
1F
100
AcDbEntity
  8
0
  6
CONTINUOUS
 62
     7
100
AcDbLine
 10
407.9500915677
 20
988.9529714726
 30
0.0
 11
405.9500875146
 21
988.9369825267
 31
0.0
  0
LINE
  5
315
330
1F
100
AcDbEntity
  8
0
  6
CONTINUOUS
 62
     7
100
AcDbLine
 10
277.3915188582
 20
988.4406322979
 30
0.0
 11
405.9500875146
 21
988.9478082203
 31
0.0
  0
LINE
  5
316
330
1F
100
AcDbEntity
  8
0
  6
CONTINUOUS
 62
     7
100
AcDbLine
 10
405.9500875146
 20
988.9357829832
 30
0.0
 11
405.9500875146
 21
986.7478082322
 31
0.0
  0
LINE
  5
317
330
1F
100
AcDbEntity
  8
0
  6
CONTINUOUS
 62
     7
100
AcDbLine
 10
405.9500875146
 20
986.7478082322
 30
0.0
 11
277.9240435184
 21
986.2427333735
 31
0.0
  0
LINE
  5
318
330
1F
100
AcDbEntity
  8
0
  6
CONTINUOUS
 62
     7
100
AcDbLine
 10
277.3915188582
 20
772.1707666658
 30
0.0
 11
405.9500875146
 21
771.6635907434
 31
0.0
  0
LINE
  5
319
330
1F
100
AcDbEntity
  8
0
  6
CONTINUOUS
 62
     7
100
AcDbLine
 10
407.9500915677
 20
771.6584274911
 30
0.0
 11
405.9501620204
 21
771.6744164371
 31
0.0
  0
LINE
  5
31A
330
1F
100
AcDbEntity
  8
0
  6
CONTINUOUS
 62
     7
100
AcDbLine
 10
407.9500915677
 20
771.6584274911
 30
0.0
 11
407.9500915677
 21
754.0024290227
 31
0.0
  0
LINE
  5
31B
330
1F
100
AcDbEntity
  8
0
  6
CONTINUOUS
 62
     7
100
AcDbLine
 10
407.9500915677
 20
754.0024290227
 30
0.0
 11
277.3915188582
 21
752.8630564355
 31
0.0
  0
LINE
  5
31C
330
1F
100
AcDbEntity
  8
0
  6
CONTINUOUS
 62
     7
100
AcDbLine
 10
405.9500875146
 20
773.8635907315
 30
0.0
 11
277.9240435184
 21
774.3686655902
 31
0.0
  0
LINE
  5
31D
330
1F
100
AcDbEntity
  8
0
  6
CONTINUOUS
 62
     7
100
AcDbLine
 10
405.9500875146
 20
773.8635907315
 30
0.0
 11
405.9500875146
 21
771.6756159805
 31
0.0
  0
LINE
  5
31E
330
1F
100
AcDbEntity
  8
0
  6
CONTINUOUS
 62
     7
100
AcDbLine
 10
407.9500915677
 20
1012.1087650203
 30
0.0
 11
277.7530191661
 21
1013.2449785613
 31
0.0
  0
LINE
  5
31F
330
1F
100
AcDbEntity
  8
0
  6
CONTINUOUS
 62
     7
100
AcDbLine
 10
407.9500915677
 20
1006.608969941
 30
0.0
 11
407.9500915677
 21
1012.1087650203
 31
0.0
  0
LINE
  5
320
330
1F
100
AcDbEntity
  8
0
  6
CONTINUOUS
 62
     7
100
AcDbLine
 10
407.9500915677
 20
748.5026339435
 30
0.0
 11
277.7530191661
 21
747.3664204024
 31
0.0
  0
LINE
  5
321
330
1F
100
AcDbEntity
  8
0
  6
CONTINUOUS
 62
     7
100
AcDbLine
 10
407.9500915677
 20
748.5026339435
 30
0.0
 11
407.9500915677
 21
754.0024290227
 31
0.0
  0
LINE
  5
322
330
1F
100
AcDbEntity
  8
0
  6
CONTINUOUS
 62
     7
100
AcDbLine
 10
407.9500915677
 20
988.7120867514
 30
0.0
 11
407.9500915677
 21
988.9529714726
 31
0.0
  0
LINE
  5
323
330
1F
100
AcDbEntity
  8
0
  6
CONTINUOUS
 62
     7
100
AcDbLine
 10
405.9500875146
 20
988.6930356168
 30
0.0
 11
407.9500915677
 21
988.7120867514
 31
0.0
  0
LINE
  5
324
330
1F
100
AcDbEntity
  8
0
  6
CONTINUOUS
 62
     7
100
AcDbLine
 10
407.9500915677
 20
771.8993122124
 30
0.0
 11
405.9500875146
 21
771.918363347
 31
0.0
  0
LINE
  5
325
330
1F
100
AcDbEntity
  8
0
  6
CONTINUOUS
 62
     7
100
AcDbLine
 10
407.9500915677
 20
771.8993122124
 30
0.0
 11
407.9500915677
 21
771.6584274911
 31
0.0
  0
LINE
  5
326
330
1F
100
AcDbEntity
  8
0
  6
CONTINUOUS
 62
     7
100
AcDbLine
 10
405.9500875146
 20
986.7478082322
 30
0.0
 11
405.9500875146
 21
773.8635907315
 31
0.0
  0
LINE
  5
327
330
1F
100
AcDbEntity
  8
0
  6
CONTINUOUS
 62
     7
100
AcDbLine
 10
807.4784961457
 20
1284.2843654637
 30
0.0
 11
801.9818452115
 21
1284.2843654637
 31
0.0
  0
LINE
  5
328
330
1F
100
AcDbEntity
  8
0
  6
CONTINUOUS
 62
     7
100
AcDbLine
 10
807.4784961457
 20
1284.2843654637
 30
0.0
 11
807.0600566382
 21
1272.3018053059
 31
0.0
  0
ARC
  5
329
330
1F
100
AcDbEntity
  8
0
  6
CONTINUOUS
 62
     7
100
AcDbCircle
 10
804.3117120133
 20
1159.2327370653
 30
0.0
 40
113.1024650083925
100
AcDbArc
 50
88.6075984417
 51
91.3923821426
  0
LINE
  5
32A
330
1F
100
AcDbEntity
  8
0
  6
CONTINUOUS
 62
     7
100
AcDbLine
 10
801.563405704
 20
1272.3018062372
 30
0.0
 11
801.9818452115
 21
1284.2843654637
 31
0.0
  0
LINE
  5
32B
330
1F
100
AcDbEntity
  8
0
  6
CONTINUOUS
 62
     7
100
AcDbLine
 10
534.0751496072
 20
1284.2843654637
 30
0.0
 11
534.4935891146
 21
1272.3018062372
 31
0.0
  0
LINE
  5
32C
330
1F
100
AcDbEntity
  8
0
  6
CONTINUOUS
 62
     7
100
AcDbLine
 10
801.9818452115
 20
1284.2843654637
 30
0.0
 11
534.0751496072
 21
1284.2843654637
 31
0.0
  0
LINE
  5
32D
330
1F
100
AcDbEntity
  8
0
  6
CONTINUOUS
 62
     7
100
AcDbLine
 10
801.563405704
 20
1272.3018062372
 30
0.0
 11
799.5821026082
 21
1272.2362765182
 31
0.0
  0
LINE
  5
32E
330
1F
100
AcDbEntity
  8
0
  6
CONTINUOUS
 62
     7
100
AcDbLine
 10
799.5821026082
 20
1272.2362765182
 30
0.0
 11
536.4748922105
 21
1272.2362765182
 31
0.0
  0
LINE
  5
32F
330
1F
100
AcDbEntity
  8
0
  6
CONTINUOUS
 62
     7
100
AcDbLine
 10
536.4748922105
 20
1272.2362765182
 30
0.0
 11
534.4935891146
 21
1272.3018062372
 31
0.0
  0
LINE
  5
330
330
1F
100
AcDbEntity
  8
0
  6
CONTINUOUS
 62
     7
100
AcDbLine
 10
534.0751496072
 20
1284.2843654637
 30
0.0
 11
528.5784986729
 21
1284.2843654637
 31
0.0
  0
ARC
  5
331
330
1F
100
AcDbEntity
  8
0
  6
CONTINUOUS
 62
     7
100
AcDbCircle
 10
531.7452828061
 20
1159.2281240006
 30
0.0
 40
113.1070767110423
100
AcDbArc
 50
88.6076746404
 51
91.3923447753
  0
LINE
  5
332
330
1F
100
AcDbEntity
  8
0
  6
CONTINUOUS
 62
     7
100
AcDbLine
 10
528.5784986729
 20
1284.2843654637
 30
0.0
 11
528.9969381804
 21
1272.3018053059
 31
0.0
  0
LINE
  5
333
330
1F
100
AcDbEntity
  8
0
  6
CONTINUOUS
 62
     7
100
AcDbLine
 10
801.695415091
 20
1269.9225555245
 30
0.0
 11
799.5821026082
 21
1269.8781854544
 31
0.0
  0
LINE
  5
334
330
1F
100
AcDbEntity
  8
0
  6
CONTINUOUS
 62
     7
100
AcDbLine
 10
799.5821026082
 20
1269.8781854544
 30
0.0
 11
799.5821026082
 21
1272.2362765182
 31
0.0
  0
ARC
  5
335
330
1F
100
AcDbEntity
  8
0
  6
CONTINUOUS
 62
     7
100
AcDbCircle
 10
1210.7009280605
 20
1295.5251821619
 30
0.0
 40
409.7960924525392
100
AcDbArc
 50
183.2487246669
 51
183.5819727606
  0
LINE
  5
336
330
1F
100
AcDbEntity
  8
0
  6
CONTINUOUS
 62
     7
100
AcDbLine
 10
534.3515959496
 20
1269.9225555245
 30
0.0
 11
536.4748922105
 21
1269.8781854544
 31
0.0
  0
ARC
  5
337
330
1F
100
AcDbEntity
  8
0
  6
CONTINUOUS
 62
     7
100
AcDbCircle
 10
125.3560667581
 20
1295.5251821619
 30
0.0
 40
409.7960924525394
100
AcDbArc
 50
356.4180272394
 51
356.7512753331
  0
LINE
  5
338
330
1F
100
AcDbEntity
  8
0
  6
CONTINUOUS
 62
     7
100
AcDbLine
 10
536.4748922105
 20
1269.8781854544
 30
0.0
 11
536.4748922105
 21
1272.2362765182
 31
0.0
  0
ARC
  5
339
330
1F
100
AcDbEntity
  8
0
  6
CONTINUOUS
 62
     7
100
AcDbCircle
 10
803.3246565023
 20
1251.0131699289
 30
0.0
 40
18.97860897273338
100
AcDbArc
 50
85.1054335911
 51
94.8944345951
  0
ARC
  5
33A
330
1F
100
AcDbEntity
  8
0
  6
CONTINUOUS
 62
     7
100
AcDbCircle
 10
804.5645745917
 20
1272.3905201779
 30
0.0
 40
2.496938701429517
100
AcDbArc
 50
278.7393269215
 51
357.9642899252
  0
ARC
  5
33B
330
1F
100
AcDbEntity
  8
0
  6
CONTINUOUS
 62
     7
100
AcDbCircle
 10
532.7323328787
 20
1251.0129631026
 30
0.0
 40
18.97881550875337
100
AcDbArc
 50
85.1056023223
 51
94.8944965381
  0
ARC
  5
33C
330
1F
100
AcDbEntity
  8
0
  6
CONTINUOUS
 62
     7
100
AcDbCircle
 10
531.4924196057
 20
1272.3905205915
 30
0.0
 40
2.496938095297898
100
AcDbArc
 50
182.035720065
 51
261.2606853625
  0
LINE
  5
33D
330
1F
100
AcDbEntity
  8
0
  6
CONTINUOUS
 62
     7
100
AcDbLine
 10
799.5821026082
 20
1269.8781854544
 30
0.0
 11
536.4748922105
 21
1269.8781854544
 31
0.0
  0
LWPOLYLINE
  5
33E
330
1F
100
AcDbEntity
  8
0
  6
CONTINUOUS
 62
     7
100
AcDbPolyline
 90
        3
 70
   128
 43
0.0
 10
795.8829936499
 20
1268.7314656634
 10
795.8398100848
 20
1268.7292342146
 10
793.9188268895
 20
1268.6743718643
  0
LINE
  5
33F
330
1F
100
AcDbEntity
  8
0
  6
CONTINUOUS
 62
     7
100
AcDbLine
 10
793.9188268895
 20
1268.6743718643
 30
0.0
 11
799.5821026082
 21
1269.8781854544
 31
0.0
  0
LINE
  5
340
330
1F
100
AcDbEntity
  8
0
  6
CONTINUOUS
 62
     7
100
AcDbLine
 10
804.9439725394
 20
1269.9225545932
 30
0.0
 11
804.9444046731
 21
1269.9220423658
 31
0.0
  0
LINE
  5
341
330
1F
100
AcDbEntity
  8
0
  6
CONTINUOUS
 62
     7
100
AcDbLine
 10
805.0792154784
 20
1269.8781854544
 30
0.0
 11
804.9475786204
 21
1269.9225545932
 31
0.0
  0
LINE
  5
342
330
1F
100
AcDbEntity
  8
0
  6
CONTINUOUS
 62
     7
100
AcDbLine
 10
801.1167433972
 20
1269.0357045342
 30
0.0
 11
805.0792154784
 21
1269.8781854544
 31
0.0
  0
ARC
  5
343
330
1F
100
AcDbEntity
  8
0
  6
CONTINUOUS
 62
     7
100
AcDbCircle
 10
793.7481898203
 20
1350.625596408
 30
0.0
 40
81.92195089103929
100
AcDbArc
 50
271.4932395517
 51
275.1605017706
  0
ARC
  5
344
330
1F
100
AcDbEntity
  8
0
  6
CONTINUOUS
 62
     7
100
AcDbCircle
 10
542.3088049984
 20
1350.625596408
 30
0.0
 40
81.92195089103927
100
AcDbArc
 50
264.8394982294
 51
268.5067604483
  0
LINE
  5
345
330
1F
100
AcDbEntity
  8
0
  6
CONTINUOUS
 62
     7
100
AcDbLine
 10
530.9777793403
 20
1269.8781854544
 30
0.0
 11
534.9402514214
 21
1269.0357045342
 31
0.0
  0
LINE
  5
346
330
1F
100
AcDbEntity
  8
0
  6
CONTINUOUS
 62
     7
100
AcDbLine
 10
530.9777793403
 20
1269.8781854544
 30
0.0
 11
531.1125901456
 21
1269.9220423658
 31
0.0
  0
LINE
  5
347
330
1F
100
AcDbEntity
  8
0
  6
CONTINUOUS
 62
     7
100
AcDbLine
 10
531.1125901456
 20
1269.9220423658
 30
0.0
 11
531.1130222792
 21
1269.9225545932
 31
0.0
  0
LINE
  5
348
330
1F
100
AcDbEntity
  8
0
  6
CONTINUOUS
 62
     7
100
AcDbLine
 10
536.4748922105
 20
1269.8781854544
 30
0.0
 11
542.1381679292
 21
1268.6743718643
 31
0.0
  0
LWPOLYLINE
  5
349
330
1F
100
AcDbEntity
  8
0
  6
CONTINUOUS
 62
     7
100
AcDbPolyline
 90
        3
 70
   128
 43
0.0
 10
542.1381679292
 20
1268.6743718643
 10
540.2171847339
 20
1268.7292342146
 10
540.1740011687
 20
1268.7314656634
  0
LINE
  5
34A
330
1F
100
AcDbEntity
  8
0
  6
CONTINUOUS
 62
     7
100
AcDbLine
 10
793.9188268895
 20
1268.6743718643
 30
0.0
 11
542.1381679292
 21
1268.6743718643
 31
0.0
  0
ARC
  5
34B
330
1F
100
AcDbEntity
  8
0
  6
CONTINUOUS
 62
     7
100
AcDbCircle
 10
804.5592918018
 20
1272.32352517
 30
0.0
 40
2.500000000120931
100
AcDbArc
 50
282.0032182207
 51
357.9999999879
  0
ARC
  5
34C
330
1F
100
AcDbEntity
  8
0
  6
CONTINUOUS
 62
     7
100
AcDbCircle
 10
531.497703001
 20
1272.3235256265
 30
0.0
 40
2.500000000000123
100
AcDbArc
 50
220.9154478376
 51
257.9967873752
  0
LWPOLYLINE
  5
34D
330
1F
100
AcDbEntity
  8
0
  6
CONTINUOUS
 62
     7
100
AcDbPolyline
 90
        3
 70
   128
 43
0.0
 10
529.08971281
 20
1271.6515428458
 10
529.0478852506
 20
1271.8251227473
 10
528.9992329593
 20
1272.2362765182
  0
LINE
  5
34E
330
1F
100
AcDbEntity
  8
0
  6
CONTINUOUS
 62
     7
100
AcDbLine
 10
794.7467652078
 20
1138.5343643908
 30
0.0
 11
795.8829787488
 21
1268.7314367924
 31
0.0
  0
LINE
  5
34F
330
1F
100
AcDbEntity
  8
0
  6
CONTINUOUS
 62
     7
100
AcDbLine
 10
800.246560287
 20
1138.5343643908
 30
0.0
 11
801.385917973
 21
1269.0929371004
 31
0.0
  0
LINE
  5
350
330
1F
100
AcDbEntity
  8
0
  6
CONTINUOUS
 62
     7
100
AcDbLine
 10
794.7467652078
 20
1138.5343643908
 30
0.0
 11
800.246560287
 21
1138.5343643908
 31
0.0
  0
LINE
  5
351
330
1F
100
AcDbEntity
  8
0
  6
CONTINUOUS
 62
     7
100
AcDbLine
 10
540.1740160699
 20
1268.7314367924
 30
0.0
 11
541.3102296109
 21
1138.5343643908
 31
0.0
  0
LINE
  5
352
330
1F
100
AcDbEntity
  8
0
  6
CONTINUOUS
 62
     7
100
AcDbLine
 10
535.8104345317
 20
1138.5343643908
 30
0.0
 11
541.3102296109
 21
1138.5343643908
 31
0.0
  0
LINE
  5
353
330
1F
100
AcDbEntity
  8
0
  6
CONTINUOUS
 62
     7
100
AcDbLine
 10
534.6710768456
 20
1269.0929371004
 30
0.0
 11
535.8104345317
 21
1138.5343643908
 31
0.0
  0
LINE
  5
354
330
1F
100
AcDbEntity
  8
0
  6
CONTINUOUS
 62
     7
100
AcDbLine
 10
541.3102296109
 20
1138.5343643908
 30
0.0
 11
558.9662280793
 21
1138.5343643908
 31
0.0
  0
LINE
  5
355
330
1F
100
AcDbEntity
  8
0
  6
CONTINUOUS
 62
     7
100
AcDbLine
 10
777.0907667394
 20
1138.5343643908
 30
0.0
 11
794.7467652078
 21
1138.5343643908
 31
0.0
  0
LINE
  5
356
330
1F
100
AcDbEntity
  8
0
  6
CONTINUOUS
 62
     7
100
AcDbLine
 10
777.0747777934
 20
1140.5343684439
 30
0.0
 11
777.0907667394
 21
1138.5343643908
 31
0.0
  0
LINE
  5
357
330
1F
100
AcDbEntity
  8
0
  6
CONTINUOUS
 62
     7
100
AcDbLine
 10
777.0747777934
 20
1140.5343684439
 30
0.0
 11
558.9822170253
 21
1140.5343684439
 31
0.0
  0
LINE
  5
358
330
1F
100
AcDbEntity
  8
0
  6
CONTINUOUS
 62
     7
100
AcDbLine
 10
558.9822170253
 20
1140.5343684439
 30
0.0
 11
558.9662280793
 21
1138.5343643908
 31
0.0
  0
LINE
  5
359
330
1F
100
AcDbEntity
  8
0
  6
CONTINUOUS
 62
     7
100
AcDbLine
 10
776.8498820181
 20
1138.5343643908
 30
0.0
 11
776.8308383341
 21
1140.5343684439
 31
0.0
  0
LINE
  5
35A
330
1F
100
AcDbEntity
  8
0
  6
CONTINUOUS
 62
     7
100
AcDbLine
 10
777.0907667394
 20
1138.5343643908
 30
0.0
 11
776.8498820181
 21
1138.5343643908
 31
0.0
  0
LINE
  5
35B
330
1F
100
AcDbEntity
  8
0
  6
CONTINUOUS
 62
     7
100
AcDbLine
 10
558.9662280793
 20
1138.5343643908
 30
0.0
 11
559.2071128006
 21
1138.5343643908
 31
0.0
  0
LINE
  5
35C
330
1F
100
AcDbEntity
  8
0
  6
CONTINUOUS
 62
     7
100
AcDbLine
 10
559.2261564846
 20
1140.5343684439
 30
0.0
 11
559.2071128006
 21
1138.5343643908
 31
0.0
  0
ARC
  5
35D
330
1F
100
AcDbEntity
  8
0
  6
CONTINUOUS
 62
     7
100
AcDbCircle
 10
801.9009725502
 20
1250.6027753792
 30
0.0
 40
13.53452423646286
100
AcDbArc
 50
268.398493111
 51
271.2115182832
  0
ELLIPSE
  5
35E
330
1F
100
AcDbEntity
  8
0
  6
CONTINUOUS
 62
     7
100
AcDbEllipse
 10
797.505631226
 20
1088.8527572225
 30
0.0
 11
3.991456850882628
 21
157.9809037442523
 31
0.0
210
0.0
220
0.0
230
0.9999999999999998
 40
0.0049780126
 41
5.929983028810143
 42
6.100002224591024
  0
LINE
  5
35F
330
1F
100
AcDbEntity
  8
0
  6
CONTINUOUS
 62
     7
100
AcDbLine
 10
802.2304561848
 20
1269.2724970241
 30
0.0
 11
801.5735682959
 21
1244.1868382577
 31
0.0
  0
LINE
  5
360
330
1F
100
AcDbEntity
  8
0
  6
CONTINUOUS
 62
     7
100
AcDbLine
 10
803.0348357673
 20
1269.4435223077
 30
0.0
 11
802.1871385093
 21
1237.0712767427
 31
0.0
  0
ELLIPSE
  5
361
330
1F
100
AcDbEntity
  8
0
  6
CONTINUOUS
 62
     7
100
AcDbEllipse
 10
538.5513635926
 20
1088.8527572225
 30
0.0
 11
-3.991456850882628
 21
157.9809037442523
 31
0.0
210
0.0
220
0.0
230
0.9999999999999999
 40
0.0049780126
 41
0.183183082591315
 42
0.3532023405329455
  0
ARC
  5
362
330
1F
100
AcDbEntity
  8
0
  6
CONTINUOUS
 62
     7
100
AcDbCircle
 10
534.1560222684
 20
1250.6027753792
 30
0.0
 40
13.53452423646286
100
AcDbArc
 50
268.7884817168
 51
271.601506889
  0
LINE
  5
363
330
1F
100
AcDbEntity
  8
0
  6
CONTINUOUS
 62
     7
100
AcDbLine
 10
533.0221590514
 20
1269.443523239
 30
0.0
 11
533.8698563094
 21
1237.0712767427
 31
0.0
  0
LINE
  5
364
330
1F
100
AcDbEntity
  8
0
  6
CONTINUOUS
 62
     7
100
AcDbLine
 10
534.4834265227
 20
1244.1868382577
 30
0.0
 11
533.8265386338
 21
1269.2724970241
 31
0.0
  0
LINE
  5
365
330
1F
100
AcDbEntity
  8
0
  6
CONTINUOUS
 62
     7
100
AcDbLine
 10
801.5335586781
 20
1269.1243282591
 30
0.0
 11
801.5735682959
 21
1244.1868382577
 31
0.0
  0
LINE
  5
366
330
1F
100
AcDbEntity
  8
0
  6
CONTINUOUS
 62
     7
100
AcDbLine
 10
534.5234361405
 20
1269.1243282591
 30
0.0
 11
534.4834265227
 21
1244.1868382577
 31
0.0
  0
ARC
  5
367
330
1F
100
AcDbEntity
  8
0
  6
CONTINUOUS
 62
     7
100
AcDbCircle
 10
536.7016389522
 20
1236.912435267
 30
0.0
 40
2.173363742502201
100
AcDbArc
 50
175.7489948907
 51
188.6819740649
  0
LINE
  5
368
330
1F
100
AcDbEntity
  8
0
  6
CONTINUOUS
 62
     7
100
AcDbLine
 10
534.5531788583
 20
1236.5843663995
 30
0.0
 11
534.9547651524
 21
1236.5843663995
 31
0.0
  0
ARC
  5
369
330
1F
100
AcDbEntity
  8
0
  6
CONTINUOUS
 62
     7
100
AcDbCircle
 10
799.346268311
 20
1236.913478825
 30
0.0
 40
2.182504718943356
100
AcDbArc
 50
351.3269560371
 51
4.2610065117
  0
LINE
  5
36A
330
1F
100
AcDbEntity
  8
0
  6
CONTINUOUS
 62
     7
100
AcDbLine
 10
801.1022296662
 20
1236.5843663995
 30
0.0
 11
801.5038159604
 21
1236.5843663995
 31
0.0
  0
ARC
  5
36B
330
1F
100
AcDbEntity
  8
0
  6
CONTINUOUS
 62
     7
100
AcDbCircle
 10
534.3696696266
 20
1237.0843506789
 30
0.0
 40
0.4999842796553922
100
AcDbArc
 50
181.4983806257
 51
270.0018716463
  0
LINE
  5
36C
330
1F
100
AcDbEntity
  8
0
  6
CONTINUOUS
 62
     7
100
AcDbLine
 10
534.5537153001
 20
1236.5843663995
 30
0.0
 11
534.3696859593
 21
1236.5843663995
 31
0.0
  0
ARC
  5
36D
330
1F
100
AcDbEntity
  8
0
  6
CONTINUOUS
 62
     7
100
AcDbCircle
 10
801.687325192
 20
1237.0843506789
 30
0.0
 40
0.4999842796553922
100
AcDbArc
 50
269.9981283537
 51
358.5016193743
  0
LINE
  5
36E
330
1F
100
AcDbEntity
  8
0
  6
CONTINUOUS
 62
     7
100
AcDbLine
 10
801.5032795186
 20
1236.5843663995
 30
0.0
 11
801.6873088593
 21
1236.5843663995
 31
0.0
  0
LINE
  5
36F
330
1F
100
AcDbEntity
  8
0
  6
CONTINUOUS
 62
     7
100
AcDbLine
 10
529.0787902589
 20
1271.9040346403
 30
0.0
 11
528.9970573897
 21
1272.301823001
 31
0.0
  0
LINE
  5
370
330
1F
100
AcDbEntity
  8
0
  6
CONTINUOUS
 62
     7
100
AcDbLine
 10
807.0599374289
 20
1272.301823001
 30
0.0
 11
806.9782045598
 21
1271.9040346403
 31
0.0
  0
LINE
  5
371
330
1F
100
AcDbEntity
  8
0
  6
CONTINUOUS
 62
     8
100
AcDbLine
 10
801.5227404351
 20
1237.0756390576
 30
0.0
 11
801.1065062995
 21
1237.0756390576
 31
0.0
  0
LINE
  5
372
330
1F
100
AcDbEntity
  8
0
  6
CONTINUOUS
 62
     8
100
AcDbLine
 10
534.5342543835
 20
1237.0756390576
 30
0.0
 11
534.9504885192
 21
1237.0756390576
 31
0.0
  0
LINE
  5
373
330
1F
100
AcDbEntity
  8
0
  6
CONTINUOUS
 62
     7
100
AcDbLine
 10
528.5784986729
 20
454.1301423083
 30
0.0
 11
534.0751496072
 21
454.1301423083
 31
0.0
  0
LINE
  5
374
330
1F
100
AcDbEntity
  8
0
  6
CONTINUOUS
 62
     7
100
AcDbLine
 10
528.9969381804
 20
466.1127024661
 30
0.0
 11
528.5784986729
 21
454.1301423083
 31
0.0
  0
ARC
  5
375
330
1F
100
AcDbEntity
  8
0
  6
CONTINUOUS
 62
     7
100
AcDbCircle
 10
531.7452828061
 20
579.1863837714
 30
0.0
 40
113.1070767110212
100
AcDbArc
 50
268.6076552247
 51
271.3923253596
  0
LINE
  5
376
330
1F
100
AcDbEntity
  8
0
  6
CONTINUOUS
 62
     7
100
AcDbLine
 10
534.0751496072
 20
454.1301423083
 30
0.0
 11
534.4935891146
 21
466.1127015348
 31
0.0
  0
LINE
  5
377
330
1F
100
AcDbEntity
  8
0
  6
CONTINUOUS
 62
     7
100
AcDbLine
 10
801.563405704
 20
466.1127015348
 30
0.0
 11
801.9818452115
 21
454.1301423083
 31
0.0
  0
LINE
  5
378
330
1F
100
AcDbEntity
  8
0
  6
CONTINUOUS
 62
     7
100
AcDbLine
 10
801.9818452115
 20
454.1301423083
 30
0.0
 11
534.0751496072
 21
454.1301423083
 31
0.0
  0
LINE
  5
379
330
1F
100
AcDbEntity
  8
0
  6
CONTINUOUS
 62
     7
100
AcDbLine
 10
534.4935891146
 20
466.1127015348
 30
0.0
 11
536.4748922105
 21
466.1782312538
 31
0.0
  0
LINE
  5
37A
330
1F
100
AcDbEntity
  8
0
  6
CONTINUOUS
 62
     7
100
AcDbLine
 10
536.4748922105
 20
466.1782312538
 30
0.0
 11
799.5821026082
 21
466.1782312538
 31
0.0
  0
LINE
  5
37B
330
1F
100
AcDbEntity
  8
0
  6
CONTINUOUS
 62
     7
100
AcDbLine
 10
799.5821026082
 20
466.1782312538
 30
0.0
 11
801.563405704
 21
466.1127015348
 31
0.0
  0
LINE
  5
37C
330
1F
100
AcDbEntity
  8
0
  6
CONTINUOUS
 62
     7
100
AcDbLine
 10
801.9818452115
 20
454.1301423083
 30
0.0
 11
807.4784961457
 21
454.1301423083
 31
0.0
  0
ARC
  5
37D
330
1F
100
AcDbEntity
  8
0
  6
CONTINUOUS
 62
     7
100
AcDbCircle
 10
804.3117120133
 20
579.1817707072
 30
0.0
 40
113.1024650088912
100
AcDbArc
 50
268.6076178574
 51
271.3924015583
  0
LINE
  5
37E
330
1F
100
AcDbEntity
  8
0
  6
CONTINUOUS
 62
     7
100
AcDbLine
 10
807.0600566382
 20
466.1127024661
 30
0.0
 11
807.4784961457
 21
454.1301423083
 31
0.0
  0
LINE
  5
37F
330
1F
100
AcDbEntity
  8
0
  6
CONTINUOUS
 62
     7
100
AcDbLine
 10
534.3615797276
 20
468.4919522475
 30
0.0
 11
536.4748922105
 21
468.5363223176
 31
0.0
  0
LINE
  5
380
330
1F
100
AcDbEntity
  8
0
  6
CONTINUOUS
 62
     7
100
AcDbLine
 10
536.4748922105
 20
466.1782312538
 30
0.0
 11
536.4748922105
 21
468.5363223176
 31
0.0
  0
ARC
  5
381
330
1F
100
AcDbEntity
  8
0
  6
CONTINUOUS
 62
     7
100
AcDbCircle
 10
125.3560667578
 20
442.8893256101
 30
0.0
 40
409.7960924528566
100
AcDbArc
 50
3.2487246669
 51
3.5819727606
  0
LINE
  5
382
330
1F
100
AcDbEntity
  8
0
  6
CONTINUOUS
 62
     7
100
AcDbLine
 10
801.705398869
 20
468.4919522475
 30
0.0
 11
799.5821026082
 21
468.5363223176
 31
0.0
  0
ARC
  5
383
330
1F
100
AcDbEntity
  8
0
  6
CONTINUOUS
 62
     7
100
AcDbCircle
 10
1210.7009280525
 20
442.8893256106
 30
0.0
 40
409.7960924445491
100
AcDbArc
 50
176.4180272394
 51
176.7512753331
  0
LINE
  5
384
330
1F
100
AcDbEntity
  8
0
  6
CONTINUOUS
 62
     7
100
AcDbLine
 10
799.5821026082
 20
468.5363223176
 30
0.0
 11
799.5821026082
 21
466.1782312538
 31
0.0
  0
ARC
  5
385
330
1F
100
AcDbEntity
  8
0
  6
CONTINUOUS
 62
     7
100
AcDbCircle
 10
532.7323383164
 20
487.4013378431
 30
0.0
 40
18.97860897268344
100
AcDbArc
 50
265.1054335911
 51
274.8944345951
  0
ARC
  5
386
330
1F
100
AcDbEntity
  8
0
  6
CONTINUOUS
 62
     7
100
AcDbCircle
 10
531.492420227
 20
466.0239875941
 30
0.0
 40
2.496938701430182
100
AcDbArc
 50
98.7393269215
 51
177.9642899252
  0
ARC
  5
387
330
1F
100
AcDbEntity
  8
0
  6
CONTINUOUS
 62
     7
100
AcDbCircle
 10
803.3246619399
 20
487.4015446693
 30
0.0
 40
18.97881550870317
100
AcDbArc
 50
265.1056023223
 51
274.8944965381
  0
ARC
  5
388
330
1F
100
AcDbEntity
  8
0
  6
CONTINUOUS
 62
     7
100
AcDbCircle
 10
804.5645752129
 20
466.0239871805
 30
0.0
 40
2.496938095298175
100
AcDbArc
 50
2.035720065
 51
81.2606853625
  0
LINE
  5
389
330
1F
100
AcDbEntity
  8
0
  6
CONTINUOUS
 62
     7
100
AcDbLine
 10
799.5821026082
 20
468.5363223176
 30
0.0
 11
536.4748922105
 21
468.5363223176
 31
0.0
  0
LWPOLYLINE
  5
38A
330
1F
100
AcDbEntity
  8
0
  6
CONTINUOUS
 62
     7
100
AcDbPolyline
 90
        3
 70
   128
 43
0.0
 10
542.1381679292
 20
469.7401359077
 10
540.2171847339
 20
469.6852735575
 10
540.1740011687
 20
469.6830421086
  0
LINE
  5
38B
330
1F
100
AcDbEntity
  8
0
  6
CONTINUOUS
 62
     7
100
AcDbLine
 10
536.4748922105
 20
468.5363223176
 30
0.0
 11
542.1381679292
 21
469.7401359077
 31
0.0
  0
LINE
  5
38C
330
1F
100
AcDbEntity
  8
0
  6
CONTINUOUS
 62
     7
100
AcDbLine
 10
531.1130222792
 20
468.4919531788
 30
0.0
 11
531.1125901456
 21
468.4924654062
 31
0.0
  0
LINE
  5
38D
330
1F
100
AcDbEntity
  8
0
  6
CONTINUOUS
 62
     7
100
AcDbLine
 10
530.9777793403
 20
468.5363223176
 30
0.0
 11
531.1094161982
 21
468.4919531788
 31
0.0
  0
LINE
  5
38E
330
1F
100
AcDbEntity
  8
0
  6
CONTINUOUS
 62
     7
100
AcDbLine
 10
534.9402514214
 20
469.3788032378
 30
0.0
 11
530.9777793403
 21
468.5363223176
 31
0.0
  0
ARC
  5
38F
330
1F
100
AcDbEntity
  8
0
  6
CONTINUOUS
 62
     7
100
AcDbCircle
 10
543.4581691033
 20
368.0166709565
 30
0.0
 40
101.7194021917611
100
AcDbArc
 50
91.8502042386
 51
94.8035370837
  0
ARC
  5
390
330
1F
100
AcDbEntity
  8
0
  6
CONTINUOUS
 62
     7
100
AcDbCircle
 10
793.7481898202
 20
387.7889113637
 30
0.0
 40
81.92195089134442
100
AcDbArc
 50
84.8394982294
 51
88.5067604483
  0
LINE
  5
391
330
1F
100
AcDbEntity
  8
0
  6
CONTINUOUS
 62
     7
100
AcDbLine
 10
801.1167433972
 20
469.3788032378
 30
0.0
 11
805.0792154784
 21
468.5363223176
 31
0.0
  0
LINE
  5
392
330
1F
100
AcDbEntity
  8
0
  6
CONTINUOUS
 62
     7
100
AcDbLine
 10
805.0792154784
 20
468.5363223176
 30
0.0
 11
804.9444046731
 21
468.4924654062
 31
0.0
  0
LINE
  5
393
330
1F
100
AcDbEntity
  8
0
  6
CONTINUOUS
 62
     7
100
AcDbLine
 10
804.9444046731
 20
468.4924654062
 30
0.0
 11
804.9439725394
 21
468.4919531788
 31
0.0
  0
LINE
  5
394
330
1F
100
AcDbEntity
  8
0
  6
CONTINUOUS
 62
     7
100
AcDbLine
 10
799.5821026082
 20
468.5363223176
 30
0.0
 11
793.9188268895
 21
469.7401359077
 31
0.0
  0
LWPOLYLINE
  5
395
330
1F
100
AcDbEntity
  8
0
  6
CONTINUOUS
 62
     7
100
AcDbPolyline
 90
        3
 70
   128
 43
0.0
 10
795.8829936499
 20
469.6830421086
 10
795.8398100848
 20
469.6852735575
 10
793.9188268895
 20
469.7401359077
  0
LINE
  5
396
330
1F
100
AcDbEntity
  8
0
  6
CONTINUOUS
 62
     7
100
AcDbLine
 10
793.9188268895
 20
469.7401359077
 30
0.0
 11
542.1381679292
 21
469.7401359077
 31
0.0
  0
ARC
  5
397
330
1F
100
AcDbEntity
  8
0
  6
CONTINUOUS
 62
     7
100
AcDbCircle
 10
531.4977030169
 20
466.090982602
 30
0.0
 40
2.500000000121376
100
AcDbArc
 50
102.0032182207
 51
177.9999999879
  0
LWPOLYLINE
  5
398
330
1F
100
AcDbEntity
  8
0
  6
CONTINUOUS
 62
     7
100
AcDbPolyline
 90
        3
 70
   128
 43
0.0
 10
807.0577618594
 20
466.1782312538
 10
807.0091095681
 20
466.5893850248
 10
806.8979171033
 20
466.9746275391
  0
ARC
  5
399
330
1F
100
AcDbEntity
  8
0
  6
CONTINUOUS
 62
     7
100
AcDbCircle
 10
804.5592918018
 20
466.090982602
 30
0.0
 40
2.500000000121376
100
AcDbArc
 50
40.4290627769
 51
77.9967817793
  0
LINE
  5
39A
330
1F
100
AcDbEntity
  8
0
  6
CONTINUOUS
 62
     7
100
AcDbLine
 10
540.1740160699
 20
469.6830709796
 30
0.0
 11
541.3102296109
 21
599.8801433812
 31
0.0
  0
LINE
  5
39B
330
1F
100
AcDbEntity
  8
0
  6
CONTINUOUS
 62
     7
100
AcDbLine
 10
535.8104345317
 20
599.8801433812
 30
0.0
 11
534.6710768456
 21
469.3215706717
 31
0.0
  0
LINE
  5
39C
330
1F
100
AcDbEntity
  8
0
  6
CONTINUOUS
 62
     7
100
AcDbLine
 10
535.8104345317
 20
599.8801433812
 30
0.0
 11
541.3102296109
 21
599.8801433812
 31
0.0
  0
LINE
  5
39D
330
1F
100
AcDbEntity
  8
0
  6
CONTINUOUS
 62
     7
100
AcDbLine
 10
794.7467652078
 20
599.8801433812
 30
0.0
 11
795.8829787488
 21
469.6830709796
 31
0.0
  0
LINE
  5
39E
330
1F
100
AcDbEntity
  8
0
  6
CONTINUOUS
 62
     7
100
AcDbLine
 10
800.246560287
 20
599.8801433812
 30
0.0
 11
794.7467652078
 21
599.8801433812
 31
0.0
  0
LINE
  5
39F
330
1F
100
AcDbEntity
  8
0
  6
CONTINUOUS
 62
     7
100
AcDbLine
 10
801.385917973
 20
469.3215706717
 30
0.0
 11
800.246560287
 21
599.8801433812
 31
0.0
  0
LINE
  5
3A0
330
1F
100
AcDbEntity
  8
0
  6
CONTINUOUS
 62
     7
100
AcDbLine
 10
541.3102296109
 20
599.8801433812
 30
0.0
 11
558.9662280793
 21
599.8801433812
 31
0.0
  0
LINE
  5
3A1
330
1F
100
AcDbEntity
  8
0
  6
CONTINUOUS
 62
     7
100
AcDbLine
 10
558.9662280793
 20
599.8801433812
 30
0.0
 11
558.9822170253
 21
597.8801393281
 31
0.0
  0
LINE
  5
3A2
330
1F
100
AcDbEntity
  8
0
  6
CONTINUOUS
 62
     7
100
AcDbLine
 10
558.9822170253
 20
597.8801393281
 30
0.0
 11
777.0747777934
 21
597.8801393281
 31
0.0
  0
LINE
  5
3A3
330
1F
100
AcDbEntity
  8
0
  6
CONTINUOUS
 62
     7
100
AcDbLine
 10
777.0747777934
 20
597.8801393281
 30
0.0
 11
777.0907667394
 21
599.8801433812
 31
0.0
  0
LINE
  5
3A4
330
1F
100
AcDbEntity
  8
0
  6
CONTINUOUS
 62
     7
100
AcDbLine
 10
777.0907667394
 20
599.8801433812
 30
0.0
 11
794.7467652078
 21
599.8801433812
 31
0.0
  0
LINE
  5
3A5
330
1F
100
AcDbEntity
  8
0
  6
CONTINUOUS
 62
     7
100
AcDbLine
 10
559.2071128006
 20
599.8801433812
 30
0.0
 11
559.2261564846
 21
597.8801393281
 31
0.0
  0
LINE
  5
3A6
330
1F
100
AcDbEntity
  8
0
  6
CONTINUOUS
 62
     7
100
AcDbLine
 10
558.9662280793
 20
599.8801433812
 30
0.0
 11
559.2071128006
 21
599.8801433812
 31
0.0
  0
LINE
  5
3A7
330
1F
100
AcDbEntity
  8
0
  6
CONTINUOUS
 62
     7
100
AcDbLine
 10
777.0907667394
 20
599.8801433812
 30
0.0
 11
776.8498820181
 21
599.8801433812
 31
0.0
  0
LINE
  5
3A8
330
1F
100
AcDbEntity
  8
0
  6
CONTINUOUS
 62
     7
100
AcDbLine
 10
776.8308383341
 20
597.8801393281
 30
0.0
 11
776.8498820181
 21
599.8801433812
 31
0.0
  0
ARC
  5
3A9
330
1F
100
AcDbEntity
  8
0
  6
CONTINUOUS
 62
     7
100
AcDbCircle
 10
534.1560218413
 20
487.8116068854
 30
0.0
 40
13.53464970681248
100
AcDbArc
 50
88.3985061524
 51
91.2115052417
  0
ELLIPSE
  5
3AA
330
1F
100
AcDbEntity
  8
0
  6
CONTINUOUS
 62
     7
100
AcDbEllipse
 10
538.5513635926
 20
649.5617505495
 30
0.0
 11
3.991456850882741
 21
157.9809037442525
 31
0.0
210
0.0
220
0.0
230
1.0
 40
0.0049780126
 41
2.78839040433477
 42
2.958409570998666
  0
LINE
  5
3AB
330
1F
100
AcDbEntity
  8
0
  6
CONTINUOUS
 62
     7
100
AcDbLine
 10
533.8265386338
 20
469.1420107479
 30
0.0
 11
534.4834265227
 21
494.2276695143
 31
0.0
  0
LINE
  5
3AC
330
1F
100
AcDbEntity
  8
0
  6
CONTINUOUS
 62
     7
100
AcDbLine
 10
533.8698563094
 20
501.3432310294
 30
0.0
 11
533.0221590514
 21
468.9709854643
 31
0.0
  0
ELLIPSE
  5
3AD
330
1F
100
AcDbEntity
  8
0
  6
CONTINUOUS
 62
     7
100
AcDbEllipse
 10
797.505631226
 20
649.5617505495
 30
0.0
 11
-3.991456850882628
 21
157.9809037442525
 31
0.0
210
0.0
220
0.0
230
0.9999999999999999
 40
0.0049780126
 41
3.324775736183745
 42
3.494794993965858
  0
ARC
  5
3AE
330
1F
100
AcDbEntity
  8
0
  6
CONTINUOUS
 62
     7
100
AcDbCircle
 10
801.9009729774
 20
487.8116068854
 30
0.0
 40
13.53464970681247
100
AcDbArc
 50
88.7884947583
 51
91.6014938476
  0
LINE
  5
3AF
330
1F
100
AcDbEntity
  8
0
  6
CONTINUOUS
 62
     7
100
AcDbLine
 10
802.1871385093
 20
501.3432310294
 30
0.0
 11
803.0348357673
 21
468.9709854643
 31
0.0
  0
LINE
  5
3B0
330
1F
100
AcDbEntity
  8
0
  6
CONTINUOUS
 62
     7
100
AcDbLine
 10
801.5735682959
 20
494.2276695143
 30
0.0
 11
802.2304561848
 21
469.1420107479
 31
0.0
  0
LINE
  5
3B1
330
1F
100
AcDbEntity
  8
0
  6
CONTINUOUS
 62
     7
100
AcDbLine
 10
534.5234361405
 20
469.290179513
 30
0.0
 11
534.4834265227
 21
494.2276695143
 31
0.0
  0
LINE
  5
3B2
330
1F
100
AcDbEntity
  8
0
  6
CONTINUOUS
 62
     7
100
AcDbLine
 10
801.5335586781
 20
469.290179513
 30
0.0
 11
801.5735682959
 21
494.2276695143
 31
0.0
  0
ARC
  5
3B3
330
1F
100
AcDbEntity
  8
0
  6
CONTINUOUS
 62
     7
100
AcDbCircle
 10
799.3553400625
 20
501.5020718936
 30
0.0
 40
2.173379457665479
100
AcDbArc
 50
355.7490418478
 51
8.6819271078
  0
LINE
  5
3B4
330
1F
100
AcDbEntity
  8
0
  6
CONTINUOUS
 62
     7
100
AcDbLine
 10
801.5038159604
 20
501.8301413725
 30
0.0
 11
801.1022296662
 21
501.8301413725
 31
0.0
  0
ARC
  5
3B5
330
1F
100
AcDbEntity
  8
0
  6
CONTINUOUS
 62
     7
100
AcDbCircle
 10
536.7017528906
 20
501.5020546013
 30
0.0
 40
2.173479077872316
100
AcDbArc
 50
171.3180127632
 51
184.2513890652
  0
LINE
  5
3B6
330
1F
100
AcDbEntity
  8
0
  6
CONTINUOUS
 62
     7
100
AcDbLine
 10
534.9547651524
 20
501.8301413725
 30
0.0
 11
534.5537153001
 21
501.8301413725
 31
0.0
  0
ARC
  5
3B7
330
1F
100
AcDbEntity
  8
0
  6
CONTINUOUS
 62
     7
100
AcDbCircle
 10
801.687325192
 20
501.3301570931
 30
0.0
 40
0.4999842796552216
100
AcDbArc
 50
1.4983806257
 51
90.0018716463
  0
LINE
  5
3B8
330
1F
100
AcDbEntity
  8
0
  6
CONTINUOUS
 62
     7
100
AcDbLine
 10
801.5032795186
 20
501.8301413725
 30
0.0
 11
801.6873088593
 21
501.8301413725
 31
0.0
  0
ARC
  5
3B9
330
1F
100
AcDbEntity
  8
0
  6
CONTINUOUS
 62
     7
100
AcDbCircle
 10
534.3696696266
 20
501.3301570931
 30
0.0
 40
0.4999842796552216
100
AcDbArc
 50
89.9981283537
 51
178.5016193743
  0
LINE
  5
3BA
330
1F
100
AcDbEntity
  8
0
  6
CONTINUOUS
 62
     7
100
AcDbLine
 10
534.5537153001
 20
501.8301413725
 30
0.0
 11
534.3696859593
 21
501.8301413725
 31
0.0
  0
LINE
  5
3BB
330
1F
100
AcDbEntity
  8
0
  6
CONTINUOUS
 62
     7
100
AcDbLine
 10
528.9970573897
 20
466.112684771
 30
0.0
 11
529.0787902589
 21
466.5104731317
 31
0.0
  0
LINE
  5
3BC
330
1F
100
AcDbEntity
  8
0
  6
CONTINUOUS
 62
     8
100
AcDbLine
 10
534.5342543835
 20
501.3388687144
 30
0.0
 11
534.9504885192
 21
501.3388687144
 31
0.0
  0
LINE
  5
3BD
330
1F
100
AcDbEntity
  8
0
  6
CONTINUOUS
 62
     8
100
AcDbLine
 10
801.5227404351
 20
501.3388687144
 30
0.0
 11
801.1065062995
 21
501.3388687144
 31
0.0
  0
LINE
  5
3BE
330
1F
100
AcDbEntity
  8
0
  6
CONTINUOUS
 62
     7
100
AcDbLine
 10
1300.6570459388
 20
771.8993122124
 30
0.0
 11
1297.9036987804
 21
771.6584274911
 31
0.0
  0
LINE
  5
3BF
330
1F
100
AcDbEntity
  8
0
  6
CONTINUOUS
 62
     7
100
AcDbLine
 10
1300.6570459388
 20
754.7807017707
 30
0.0
 11
1300.6570459388
 21
771.8993122124
 31
0.0
  0
ARC
  5
3C0
330
1F
100
AcDbEntity
  8
0
  6
CONTINUOUS
 62
     7
100
AcDbCircle
 10
1304.181761658
 20
754.7806994819
 30
0.0
 40
3.52471684561624
100
AcDbArc
 50
179.9999999984
 51
270.0
  0
LINE
  5
3C1
330
1F
100
AcDbEntity
  8
0
  6
CONTINUOUS
 62
     7
100
AcDbLine
 10
1321.3003770493
 20
751.2559811019
 30
0.0
 11
1304.1817666076
 21
751.2559811019
 31
0.0
  0
LINE
  5
3C2
330
1F
100
AcDbEntity
  8
0
  6
CONTINUOUS
 62
     7
100
AcDbLine
 10
1321.059492328
 20
748.5026339435
 30
0.0
 11
1321.3003770493
 21
751.2559811019
 31
0.0
  0
LINE
  5
3C3
330
1F
100
AcDbEntity
  8
0
  6
CONTINUOUS
 62
     7
100
AcDbLine
 10
1321.059492328
 20
748.5026339435
 30
0.0
 11
1303.4034938596
 21
748.5026339435
 31
0.0
  0
ELLIPSE
  5
3C4
330
1F
100
AcDbEntity
  8
0
  6
CONTINUOUS
 62
     7
100
AcDbEllipse
 10
1303.4039120697
 20
754.0028498935
 30
0.0
 11
-3.889383471220071
 21
-3.889383471219958
 31
0.0
210
0.0
220
0.0
230
0.9999999999999998
 40
0.9999238505
 41
5.497825219993099
 42
7.068545394366055
  0
LINE
  5
3C5
330
1F
100
AcDbEntity
  8
0
  6
CONTINUOUS
 62
     7
100
AcDbLine
 10
1297.9036987804
 20
771.6584274911
 30
0.0
 11
1297.9036987804
 21
754.0024290227
 31
0.0
  0
LINE
  5
3C6
330
1F
100
AcDbEntity
  8
0
  6
CONTINUOUS
 62
     7
100
AcDbLine
 10
1297.9036987804
 20
988.9529714726
 30
0.0
 11
1297.9036987804
 21
1006.608969941
 31
0.0
  0
ELLIPSE
  5
3C7
330
1F
100
AcDbEntity
  8
0
  6
CONTINUOUS
 62
     7
100
AcDbEllipse
 10
1303.4039120697
 20
1006.6085490702
 30
0.0
 11
3.889383471219617
 21
-3.889383471219844
 31
0.0
210
0.0
220
0.0
230
1.0
 40
0.9999238505
 41
2.356232566403405
 42
3.926952740776295
  0
LINE
  5
3C8
330
1F
100
AcDbEntity
  8
0
  6
CONTINUOUS
 62
     7
100
AcDbLine
 10
1321.059492328
 20
1012.1087650203
 30
0.0
 11
1303.4034938596
 21
1012.1087650203
 31
0.0
  0
LINE
  5
3C9
330
1F
100
AcDbEntity
  8
0
  6
CONTINUOUS
 62
     7
100
AcDbLine
 10
1321.059492328
 20
1012.1087650203
 30
0.0
 11
1321.3003770493
 21
1009.3554178618
 31
0.0
  0
LINE
  5
3CA
330
1F
100
AcDbEntity
  8
0
  6
CONTINUOUS
 62
     7
100
AcDbLine
 10
1321.3003770493
 20
1009.3554178618
 30
0.0
 11
1304.1817666076
 21
1009.3554178618
 31
0.0
  0
ARC
  5
3CB
330
1F
100
AcDbEntity
  8
0
  6
CONTINUOUS
 62
     7
100
AcDbCircle
 10
1304.181761658
 20
1005.8306994819
 30
0.0
 40
3.524716845616354
100
AcDbArc
 50
90.0
 51
179.9999999991
  0
LINE
  5
3CC
330
1F
100
AcDbEntity
  8
0
  6
CONTINUOUS
 62
     7
100
AcDbLine
 10
1300.6570459388
 20
1005.830697193
 30
0.0
 11
1300.6570459388
 21
988.7120867514
 31
0.0
  0
LINE
  5
3CD
330
1F
100
AcDbEntity
  8
0
  6
CONTINUOUS
 62
     7
100
AcDbLine
 10
1300.6570459388
 20
988.7120867514
 30
0.0
 11
1297.9036987804
 21
988.9529714726
 31
0.0
  0
LINE
  5
3CE
330
1F
100
AcDbEntity
  8
0
  6
CONTINUOUS
 62
     7
100
AcDbLine
 10
1321.3194207333
 20
1009.3379686021
 30
0.0
 11
1321.3003770493
 21
1009.3554178618
 31
0.0
  0
LINE
  5
3CF
330
1F
100
AcDbEntity
  8
0
  6
CONTINUOUS
 62
     7
100
AcDbLine
 10
1321.3194207333
 20
1009.3379686021
 30
0.0
 11
1304.1817666076
 21
1009.3379686021
 31
0.0
  0
LINE
  5
3D0
330
1F
100
AcDbEntity
  8
0
  6
CONTINUOUS
 62
     7
100
AcDbLine
 10
1304.1817666076
 20
1009.3554178618
 30
0.0
 11
1304.1817666076
 21
1009.3379686021
 31
0.0
  0
LINE
  5
3D1
330
1F
100
AcDbEntity
  8
0
  6
CONTINUOUS
 62
     7
100
AcDbLine
 10
1304.1817666076
 20
751.2559811019
 30
0.0
 11
1304.1817666076
 21
751.2734303616
 31
0.0
  0
LINE
  5
3D2
330
1F
100
AcDbEntity
  8
0
  6
CONTINUOUS
 62
     7
100
AcDbLine
 10
1304.1817666076
 20
751.2734303616
 30
0.0
 11
1321.3194207333
 21
751.2734303616
 31
0.0
  0
LINE
  5
3D3
330
1F
100
AcDbEntity
  8
0
  6
CONTINUOUS
 62
     7
100
AcDbLine
 10
1321.3003770493
 20
751.2559811019
 30
0.0
 11
1321.3194207333
 21
751.2734303616
 31
0.0
  0
LINE
  5
3D4
330
1F
100
AcDbEntity
  8
0
  6
CONTINUOUS
 62
     7
100
AcDbLine
 10
1321.3194207333
 20
751.2734303616
 30
0.0
 11
1321.075481274
 21
748.4851846837
 31
0.0
  0
LINE
  5
3D5
330
1F
100
AcDbEntity
  8
0
  6
CONTINUOUS
 62
     7
100
AcDbLine
 10
1321.075481274
 20
748.4851846837
 30
0.0
 11
1321.059492328
 21
748.5026339435
 31
0.0
  0
LINE
  5
3D6
330
1F
100
AcDbEntity
  8
0
  6
CONTINUOUS
 62
     7
100
AcDbLine
 10
1321.075481274
 20
1012.12621428
 30
0.0
 11
1321.059492328
 21
1012.1087650203
 31
0.0
  0
LINE
  5
3D7
330
1F
100
AcDbEntity
  8
0
  6
CONTINUOUS
 62
     7
100
AcDbLine
 10
1321.075481274
 20
1012.12621428
 30
0.0
 11
1321.3194207333
 21
1009.3379686021
 31
0.0
  0
LINE
  5
3D8
330
1F
100
AcDbEntity
  8
0
  6
CONTINUOUS
 62
     7
100
AcDbLine
 10
1300.6570459388
 20
771.8993122124
 30
0.0
 11
1300.6744951986
 21
771.918363347
 31
0.0
  0
LINE
  5
3D9
330
1F
100
AcDbEntity
  8
0
  6
CONTINUOUS
 62
     7
100
AcDbLine
 10
1297.9036987804
 20
771.6584274911
 30
0.0
 11
1297.8862495206
 21
771.6744164371
 31
0.0
  0
LINE
  5
3DA
330
1F
100
AcDbEntity
  8
0
  6
CONTINUOUS
 62
     7
100
AcDbLine
 10
1297.8999138854
 20
771.6756159805
 30
0.0
 11
1300.6744951986
 21
771.918363347
 31
0.0
  0
LINE
  5
3DB
330
1F
100
AcDbEntity
  8
0
  6
CONTINUOUS
 62
     7
100
AcDbLine
 10
1300.6744951986
 20
988.6930356168
 30
0.0
 11
1297.8999138854
 21
988.9357829832
 31
0.0
  0
LINE
  5
3DC
330
1F
100
AcDbEntity
  8
0
  6
CONTINUOUS
 62
     7
100
AcDbLine
 10
1297.9036987804
 20
988.9529714726
 30
0.0
 11
1297.8862495206
 21
988.9369825267
 31
0.0
  0
LINE
  5
3DD
330
1F
100
AcDbEntity
  8
0
  6
CONTINUOUS
 62
     7
100
AcDbLine
 10
1300.6744951986
 20
988.6930356168
 30
0.0
 11
1300.6570459388
 21
988.7120867514
 31
0.0
  0
LINE
  5
3DE
330
1F
100
AcDbEntity
  8
0
  6
CONTINUOUS
 62
     7
100
AcDbLine
 10
1300.6744951986
 20
771.918363347
 30
0.0
 11
1300.6744951986
 21
754.7807017707
 31
0.0
  0
LINE
  5
3DF
330
1F
100
AcDbEntity
  8
0
  6
CONTINUOUS
 62
     7
100
AcDbLine
 10
1300.6570459388
 20
754.7807017707
 30
0.0
 11
1300.6744951986
 21
754.7807017707
 31
0.0
  0
LINE
  5
3E0
330
1F
100
AcDbEntity
  8
0
  6
CONTINUOUS
 62
     7
100
AcDbLine
 10
1300.6744951986
 20
1005.830697193
 30
0.0
 11
1300.6570459388
 21
1005.830697193
 31
0.0
  0
LINE
  5
3E1
330
1F
100
AcDbEntity
  8
0
  6
CONTINUOUS
 62
     7
100
AcDbLine
 10
1300.6744951986
 20
1005.830697193
 30
0.0
 11
1300.6744951986
 21
988.6930356168
 31
0.0
  0
LINE
  5
3E2
330
1F
100
AcDbEntity
  8
0
  6
CONTINUOUS
 62
     7
100
AcDbLine
 10
1539.1840309881
 20
748.5026339435
 30
0.0
 11
1538.9431462668
 21
751.2559811019
 31
0.0
  0
LINE
  5
3E3
330
1F
100
AcDbEntity
  8
0
  6
CONTINUOUS
 62
     7
100
AcDbLine
 10
1539.1680420421
 20
748.4851846837
 30
0.0
 11
1539.1840309881
 21
748.5026339435
 31
0.0
  0
LINE
  5
3E4
330
1F
100
AcDbEntity
  8
0
  6
CONTINUOUS
 62
     7
100
AcDbLine
 10
1539.1680420421
 20
748.4851846837
 30
0.0
 11
1538.9241025828
 21
751.2734303616
 31
0.0
  0
LINE
  5
3E5
330
1F
100
AcDbEntity
  8
0
  6
CONTINUOUS
 62
     7
100
AcDbLine
 10
1538.9241025828
 20
751.2734303616
 30
0.0
 11
1538.9431462668
 21
751.2559811019
 31
0.0
  0
LINE
  5
3E6
330
1F
100
AcDbEntity
  8
0
  6
CONTINUOUS
 62
     7
100
AcDbLine
 10
1562.3398245357
 20
754.0024290227
 30
0.0
 11
1562.3398245357
 21
771.6584274911
 31
0.0
  0
ELLIPSE
  5
3E7
330
1F
100
AcDbEntity
  8
0
  6
CONTINUOUS
 62
     7
100
AcDbEllipse
 10
1556.8396112464
 20
754.0028498935
 30
0.0
 11
-3.889383471219617
 21
3.889383471219844
 31
0.0
210
0.0
220
0.0
230
1.0
 40
0.9999238505
 41
2.356232566403405
 42
3.926952740776295
  0
LINE
  5
3E8
330
1F
100
AcDbEntity
  8
0
  6
CONTINUOUS
 62
     7
100
AcDbLine
 10
1556.8400294565
 20
748.5026339435
 30
0.0
 11
1539.1840309881
 21
748.5026339435
 31
0.0
  0
LINE
  5
3E9
330
1F
100
AcDbEntity
  8
0
  6
CONTINUOUS
 62
     7
100
AcDbLine
 10
1538.9431462668
 20
751.2559811019
 30
0.0
 11
1556.0617567085
 21
751.2559811019
 31
0.0
  0
ARC
  5
3EA
330
1F
100
AcDbEntity
  8
0
  6
CONTINUOUS
 62
     7
100
AcDbCircle
 10
1556.061761658
 20
754.7806994819
 30
0.0
 40
3.524716845616354
100
AcDbArc
 50
270.0
 51
0.0000000009
  0
LINE
  5
3EB
330
1F
100
AcDbEntity
  8
0
  6
CONTINUOUS
 62
     7
100
AcDbLine
 10
1559.5864773773
 20
754.7807017707
 30
0.0
 11
1559.5864773773
 21
771.8993122124
 31
0.0
  0
LINE
  5
3EC
330
1F
100
AcDbEntity
  8
0
  6
CONTINUOUS
 62
     7
100
AcDbLine
 10
1559.5864773773
 20
771.8993122124
 30
0.0
 11
1562.3398245357
 21
771.6584274911
 31
0.0
  0
LINE
  5
3ED
330
1F
100
AcDbEntity
  8
0
  6
CONTINUOUS
 62
     7
100
AcDbLine
 10
1556.0617567085
 20
1009.3554178618
 30
0.0
 11
1556.0617567085
 21
1009.3379686021
 31
0.0
  0
LINE
  5
3EE
330
1F
100
AcDbEntity
  8
0
  6
CONTINUOUS
 62
     7
100
AcDbLine
 10
1556.0617567085
 20
1009.3379686021
 30
0.0
 11
1538.9241025828
 21
1009.3379686021
 31
0.0
  0
LINE
  5
3EF
330
1F
100
AcDbEntity
  8
0
  6
CONTINUOUS
 62
     7
100
AcDbLine
 10
1538.9431462668
 20
1009.3554178618
 30
0.0
 11
1538.9241025828
 21
1009.3379686021
 31
0.0
  0
LINE
  5
3F0
330
1F
100
AcDbEntity
  8
0
  6
CONTINUOUS
 62
     7
100
AcDbLine
 10
1538.9431462668
 20
1009.3554178618
 30
0.0
 11
1556.0617567085
 21
1009.3554178618
 31
0.0
  0
LINE
  5
3F1
330
1F
100
AcDbEntity
  8
0
  6
CONTINUOUS
 62
     7
100
AcDbLine
 10
1538.9241025828
 20
751.2734303616
 30
0.0
 11
1556.0617567085
 21
751.2734303616
 31
0.0
  0
LINE
  5
3F2
330
1F
100
AcDbEntity
  8
0
  6
CONTINUOUS
 62
     7
100
AcDbLine
 10
1556.0617567085
 20
751.2559811019
 30
0.0
 11
1556.0617567085
 21
751.2734303616
 31
0.0
  0
LINE
  5
3F3
330
1F
100
AcDbEntity
  8
0
  6
CONTINUOUS
 62
     7
100
AcDbLine
 10
1538.9241025828
 20
1009.3379686021
 30
0.0
 11
1539.1680420421
 21
1012.12621428
 31
0.0
  0
LINE
  5
3F4
330
1F
100
AcDbEntity
  8
0
  6
CONTINUOUS
 62
     7
100
AcDbLine
 10
1539.1840309881
 20
1012.1087650203
 30
0.0
 11
1539.1680420421
 21
1012.12621428
 31
0.0
  0
LINE
  5
3F5
330
1F
100
AcDbEntity
  8
0
  6
CONTINUOUS
 62
     7
100
AcDbLine
 10
1539.1840309881
 20
1012.1087650203
 30
0.0
 11
1538.9431462668
 21
1009.3554178618
 31
0.0
  0
LINE
  5
3F6
330
1F
100
AcDbEntity
  8
0
  6
CONTINUOUS
 62
     7
100
AcDbLine
 10
1559.5864773773
 20
988.7120867514
 30
0.0
 11
1562.3398245357
 21
988.9529714726
 31
0.0
  0
LINE
  5
3F7
330
1F
100
AcDbEntity
  8
0
  6
CONTINUOUS
 62
     7
100
AcDbLine
 10
1559.5864773773
 20
1005.830697193
 30
0.0
 11
1559.5864773773
 21
988.7120867514
 31
0.0
  0
ARC
  5
3F8
330
1F
100
AcDbEntity
  8
0
  6
CONTINUOUS
 62
     7
100
AcDbCircle
 10
1556.061761658
 20
1005.8306994819
 30
0.0
 40
3.524716845616467
100
AcDbArc
 50
0.0000000016
 51
90.0
  0
LINE
  5
3F9
330
1F
100
AcDbEntity
  8
0
  6
CONTINUOUS
 62
     7
100
AcDbLine
 10
1556.8400294565
 20
1012.1087650203
 30
0.0
 11
1539.1840309881
 21
1012.1087650203
 31
0.0
  0
ELLIPSE
  5
3FA
330
1F
100
AcDbEntity
  8
0
  6
CONTINUOUS
 62
     7
100
AcDbEllipse
 10
1556.8396112464
 20
1006.6085490702
 30
0.0
 11
3.889383471220071
 21
3.889383471219958
 31
0.0
210
0.0
220
0.0
230
0.9999999999999998
 40
0.9999238505
 41
5.497825219993083
 42
7.068545394366091
  0
LINE
  5
3FB
330
1F
100
AcDbEntity
  8
0
  6
CONTINUOUS
 62
     7
100
AcDbLine
 10
1562.3398245357
 20
988.9529714726
 30
0.0
 11
1562.3398245357
 21
1006.608969941
 31
0.0
  0
LINE
  5
3FC
330
1F
100
AcDbEntity
  8
0
  6
CONTINUOUS
 62
     7
100
AcDbLine
 10
1559.5864773773
 20
988.7120867514
 30
0.0
 11
1559.5690281175
 21
988.6930356168
 31
0.0
  0
LINE
  5
3FD
330
1F
100
AcDbEntity
  8
0
  6
CONTINUOUS
 62
     7
100
AcDbLine
 10
1562.3398245357
 20
988.9529714726
 30
0.0
 11
1562.3572737954
 21
988.9369825267
 31
0.0
  0
LINE
  5
3FE
330
1F
100
AcDbEntity
  8
0
  6
CONTINUOUS
 62
     7
100
AcDbLine
 10
1562.3436094306
 20
988.9357829832
 30
0.0
 11
1559.5690281175
 21
988.6930356168
 31
0.0
  0
LINE
  5
3FF
330
1F
100
AcDbEntity
  8
0
  6
CONTINUOUS
 62
     7
100
AcDbLine
 10
1559.5690281175
 20
988.6930356168
 30
0.0
 11
1559.5690281175
 21
1005.830697193
 31
0.0
  0
LINE
  5
400
330
1F
100
AcDbEntity
  8
0
  6
CONTINUOUS
 62
     7
100
AcDbLine
 10
1559.5864773773
 20
1005.830697193
 30
0.0
 11
1559.5690281175
 21
1005.830697193
 31
0.0
  0
LINE
  5
401
330
1F
100
AcDbEntity
  8
0
  6
CONTINUOUS
 62
     7
100
AcDbLine
 10
1559.5690281175
 20
771.918363347
 30
0.0
 11
1562.3436094306
 21
771.6756159805
 31
0.0
  0
LINE
  5
402
330
1F
100
AcDbEntity
  8
0
  6
CONTINUOUS
 62
     7
100
AcDbLine
 10
1562.3398245357
 20
771.6584274911
 30
0.0
 11
1562.3572737954
 21
771.6744164371
 31
0.0
  0
LINE
  5
403
330
1F
100
AcDbEntity
  8
0
  6
CONTINUOUS
 62
     7
100
AcDbLine
 10
1559.5690281175
 20
771.918363347
 30
0.0
 11
1559.5864773773
 21
771.8993122124
 31
0.0
  0
LINE
  5
404
330
1F
100
AcDbEntity
  8
0
  6
CONTINUOUS
 62
     7
100
AcDbLine
 10
1559.5690281175
 20
754.7807017707
 30
0.0
 11
1559.5864773773
 21
754.7807017707
 31
0.0
  0
LINE
  5
405
330
1F
100
AcDbEntity
  8
0
  6
CONTINUOUS
 62
     7
100
AcDbLine
 10
1559.5690281175
 20
754.7807017707
 30
0.0
 11
1559.5690281175
 21
771.918363347
 31
0.0
  0
LINE
  5
406
330
1F
100
AcDbEntity
  8
0
  6
CONTINUOUS
 62
     7
100
AcDbLine
 10
1296.7643410943
 20
1007.7483425282
 30
0.0
 11
1297.9036987804
 21
1006.608969941
 31
0.0
  0
LINE
  5
407
330
1F
100
AcDbEntity
  8
0
  6
CONTINUOUS
 62
     7
100
AcDbLine
 10
1296.7643410943
 20
988.4406322979
 30
0.0
 11
1297.8862495206
 21
988.9478082203
 31
0.0
  0
LINE
  5
408
330
1F
100
AcDbEntity
  8
0
  6
CONTINUOUS
 62
     7
100
AcDbLine
 10
1296.7643410943
 20
988.4406322979
 30
0.0
 11
1296.7643410943
 21
1007.7483425282
 31
0.0
  0
LINE
  5
409
330
1F
100
AcDbEntity
  8
0
  6
CONTINUOUS
 62
     7
100
AcDbLine
 10
1303.4034938596
 20
748.5026339435
 30
0.0
 11
1302.2672803186
 21
747.3664204024
 31
0.0
  0
ARC
  5
40A
330
1F
100
AcDbEntity
  8
0
  6
CONTINUOUS
 62
     7
100
AcDbCircle
 10
1302.2646420085
 20
752.8674472094
 30
0.0
 40
5.501027432500701
100
AcDbArc
 50
198.0222876008
 51
270.0273240343
  0
ELLIPSE
  5
40B
330
1F
100
AcDbEntity
  8
0
  6
CONTINUOUS
 62
     7
100
AcDbEllipse
 10
1302.2747690866
 20
752.8737069104
 30
0.0
 11
5.070604674228889
 21
2.163069228687505
 31
0.0
210
0.0
220
0.0
230
1.0
 40
0.9973227904
 41
2.739342670526623
 42
3.053200263681333
  0
LINE
  5
40C
330
1F
100
AcDbEntity
  8
0
  6
CONTINUOUS
 62
     7
100
AcDbLine
 10
1297.9036987804
 20
754.0024290227
 30
0.0
 11
1296.7643410943
 21
752.8630564355
 31
0.0
  0
ARC
  5
40D
330
1F
100
AcDbEntity
  8
0
  6
CONTINUOUS
 62
     7
100
AcDbCircle
 10
1302.2646420085
 20
1007.7439517543
 30
0.0
 40
5.501027432500736
100
AcDbArc
 50
89.9726759657
 51
161.9777123992
  0
LINE
  5
40E
330
1F
100
AcDbEntity
  8
0
  6
CONTINUOUS
 62
     7
100
AcDbLine
 10
1303.4034938596
 20
1012.1087650203
 30
0.0
 11
1302.2672803186
 21
1013.2449785613
 31
0.0
  0
ELLIPSE
  5
40F
330
1F
100
AcDbEntity
  8
0
  6
CONTINUOUS
 62
     7
100
AcDbEllipse
 10
1302.2747690866
 20
1007.7376920533
 30
0.0
 11
5.070604674228889
 21
-2.163069228687391
 31
0.0
210
0.0
220
0.0
230
1.0
 40
0.9973227904
 41
3.229985043498249
 42
3.543842636652963
  0
LINE
  5
410
330
1F
100
AcDbEntity
  8
0
  6
CONTINUOUS
 62
     7
100
AcDbLine
 10
1296.7643410943
 20
772.1707666658
 30
0.0
 11
1296.7643410943
 21
752.8630564355
 31
0.0
  0
LINE
  5
411
330
1F
100
AcDbEntity
  8
0
  6
CONTINUOUS
 62
     7
100
AcDbLine
 10
1296.7643410943
 20
772.1707666658
 30
0.0
 11
1297.8862495206
 21
771.6635907434
 31
0.0
  0
LWPOLYLINE
  5
412
330
1F
100
AcDbEntity
  8
0
  6
CONTINUOUS
 62
     7
100
AcDbPolyline
 90
        3
 70
   128
 43
0.0
 10
1302.2672654174
 20
1013.2449785613
 10
1302.3104489826
 20
1013.244948759
 10
1304.2314321779
 20
1013.2444719218
  0
LINE
  5
413
330
1F
100
AcDbEntity
  8
0
  6
CONTINUOUS
 62
     7
100
AcDbLine
 10
1304.2314321779
 20
1013.2444719218
 30
0.0
 11
1556.0120911382
 21
1013.2444719218
 31
0.0
  0
LWPOLYLINE
  5
414
330
1F
100
AcDbEntity
  8
0
  6
CONTINUOUS
 62
     7
100
AcDbPolyline
 90
        3
 70
   128
 43
0.0
 10
1556.0120911382
 20
1013.2444719218
 10
1557.9330743335
 20
1013.244948759
 10
1557.9762578986
 20
1013.2449785613
  0
LINE
  5
415
330
1F
100
AcDbEntity
  8
0
  6
CONTINUOUS
 62
     7
100
AcDbLine
 10
1557.9762429975
 20
1013.2449785613
 30
0.0
 11
1556.8400294565
 21
1012.1087650203
 31
0.0
  0
LINE
  5
416
330
1F
100
AcDbEntity
  8
0
  6
CONTINUOUS
 62
     7
100
AcDbLine
 10
1539.1680420421
 20
1012.12621428
 30
0.0
 11
1321.075481274
 21
1012.12621428
 31
0.0
  0
LINE
  5
417
330
1F
100
AcDbEntity
  8
0
  6
CONTINUOUS
 62
     7
100
AcDbLine
 10
1557.9762429975
 20
747.3664204024
 30
0.0
 11
1556.8400294565
 21
748.5026339435
 31
0.0
  0
LWPOLYLINE
  5
418
330
1F
100
AcDbEntity
  8
0
  6
CONTINUOUS
 62
     7
100
AcDbPolyline
 90
        3
 70
   128
 43
0.0
 10
1556.0120911382
 20
747.3669270419
 10
1557.9330743335
 20
747.3664502048
 10
1557.9762578986
 20
747.3664204024
  0
LINE
  5
419
330
1F
100
AcDbEntity
  8
0
  6
CONTINUOUS
 62
     7
100
AcDbLine
 10
1304.2314321779
 20
747.3669270419
 30
0.0
 11
1556.0120911382
 21
747.3669270419
 31
0.0
  0
LWPOLYLINE
  5
41A
330
1F
100
AcDbEntity
  8
0
  6
CONTINUOUS
 62
     7
100
AcDbPolyline
 90
        3
 70
   128
 43
0.0
 10
1302.2672654174
 20
747.3664204024
 10
1302.3104489826
 20
747.3664502048
 10
1304.2314321779
 20
747.3669270419
  0
LINE
  5
41B
330
1F
100
AcDbEntity
  8
0
  6
CONTINUOUS
 62
     7
100
AcDbLine
 10
1321.075481274
 20
748.4851846837
 30
0.0
 11
1539.1680420421
 21
748.4851846837
 31
0.0
  0
ARC
  5
41C
330
1F
100
AcDbEntity
  8
0
  6
CONTINUOUS
 62
     7
100
AcDbCircle
 10
1557.9788723488
 20
1007.7439394125
 30
0.0
 40
5.501039770044585
100
AcDbArc
 50
18.0223809708
 51
90.0272306643
  0
ELLIPSE
  5
41D
330
1F
100
AcDbEntity
  8
0
  6
CONTINUOUS
 62
     7
100
AcDbEllipse
 10
1557.9687542295
 20
1007.7376920533
 30
0.0
 11
5.070604674228889
 21
2.163069228687505
 31
0.0
210
0.0
220
0.0
230
1.0
 40
0.9973227904
 41
5.880935324116423
 42
6.194792917271126
  0
LINE
  5
41E
330
1F
100
AcDbEntity
  8
0
  6
CONTINUOUS
 62
     7
100
AcDbLine
 10
1562.3398245357
 20
1006.608969941
 30
0.0
 11
1563.4791822217
 21
1007.7483425282
 31
0.0
  0
ARC
  5
41F
330
1F
100
AcDbEntity
  8
0
  6
CONTINUOUS
 62
     7
100
AcDbCircle
 10
1557.9788813075
 20
752.8674472094
 30
0.0
 40
5.501027432500599
100
AcDbArc
 50
269.9726759657
 51
341.9777123992
  0
LINE
  5
420
330
1F
100
AcDbEntity
  8
0
  6
CONTINUOUS
 62
     7
100
AcDbLine
 10
1563.4791822217
 20
752.8630564355
 30
0.0
 11
1562.3398245357
 21
754.0024290227
 31
0.0
  0
ELLIPSE
  5
421
330
1F
100
AcDbEntity
  8
0
  6
CONTINUOUS
 62
     7
100
AcDbEllipse
 10
1557.9687542295
 20
752.8737069104
 30
0.0
 11
5.070604674228889
 21
-2.163069228687505
 31
0.0
210
0.0
220
0.0
230
1.0
 40
0.9973227904
 41
0.0883923899084727
 42
0.4022499830631705
  0
LINE
  5
422
330
1F
100
AcDbEntity
  8
0
  6
CONTINUOUS
 62
     7
100
AcDbLine
 10
1563.4791822217
 20
988.4406322979
 30
0.0
 11
1563.4791822217
 21
1007.7483425282
 31
0.0
  0
LINE
  5
423
330
1F
100
AcDbEntity
  8
0
  6
CONTINUOUS
 62
     7
100
AcDbLine
 10
1563.4791822217
 20
988.4406322979
 30
0.0
 11
1562.3572737954
 21
988.9478082203
 31
0.0
  0
LINE
  5
424
330
1F
100
AcDbEntity
  8
0
  6
CONTINUOUS
 62
     7
100
AcDbLine
 10
1563.4791822217
 20
772.1707666658
 30
0.0
 11
1562.3572737954
 21
771.6635907434
 31
0.0
  0
LINE
  5
425
330
1F
100
AcDbEntity
  8
0
  6
CONTINUOUS
 62
     7
100
AcDbLine
 10
1563.4791822217
 20
752.8630564355
 30
0.0
 11
1563.4791822217
 21
772.1707666658
 31
0.0
  0
ARC
  5
426
330
1F
100
AcDbEntity
  8
0
  6
CONTINUOUS
 62
     7
100
AcDbCircle
 10
1304.181761658
 20
1005.8306994819
 30
0.0
 40
3.507263110034614
100
AcDbArc
 50
90.0
 51
179.9999999995
  0
ARC
  5
427
330
1F
100
AcDbEntity
  8
0
  6
CONTINUOUS
 62
     7
100
AcDbCircle
 10
1304.181761658
 20
754.7806994819
 30
0.0
 40
3.507263110034728
100
AcDbArc
 50
179.9999999986
 51
270.0
  0
ARC
  5
428
330
1F
100
AcDbEntity
  8
0
  6
CONTINUOUS
 62
     7
100
AcDbCircle
 10
1556.061761658
 20
1005.8306994819
 30
0.0
 40
3.507263110034501
100
AcDbArc
 50
0.0000000014
 51
90.0
  0
ARC
  5
429
330
1F
100
AcDbEntity
  8
0
  6
CONTINUOUS
 62
     7
100
AcDbCircle
 10
1556.061761658
 20
754.7806994819
 30
0.0
 40
3.507263110034614
100
AcDbArc
 50
270.0
 51
0.0000000005
  0
LINE
  5
42A
330
1F
100
AcDbEntity
  8
0
  6
CONTINUOUS
 62
     7
100
AcDbLine
 10
1300.3862471364
 20
773.8635907315
 30
0.0
 11
1299.2689878724
 21
774.3686655902
 31
0.0
  0
LINE
  5
42B
330
1F
100
AcDbEntity
  8
0
  6
CONTINUOUS
 62
     7
100
AcDbLine
 10
1300.3862471364
 20
773.8635907315
 30
0.0
 11
1297.8999138854
 21
771.6756159805
 31
0.0
  0
LINE
  5
42C
330
1F
100
AcDbEntity
  8
0
  6
CONTINUOUS
 62
     7
100
AcDbLine
 10
1299.2689878724
 20
774.3686655902
 30
0.0
 11
1296.7643410943
 21
772.1707666658
 31
0.0
  0
LINE
  5
42D
330
1F
100
AcDbEntity
  8
0
  6
CONTINUOUS
 62
     7
100
AcDbLine
 10
1559.8572761796
 20
986.7478082322
 30
0.0
 11
1562.3436094306
 21
988.9357829832
 31
0.0
  0
LINE
  5
42E
330
1F
100
AcDbEntity
  8
0
  6
CONTINUOUS
 62
     7
100
AcDbLine
 10
1559.8572761796
 20
773.8635907315
 30
0.0
 11
1559.8572761796
 21
986.7478082322
 31
0.0
  0
LINE
  5
42F
330
1F
100
AcDbEntity
  8
0
  6
CONTINUOUS
 62
     7
100
AcDbLine
 10
1562.3436094306
 20
771.6756159805
 30
0.0
 11
1559.8572761796
 21
773.8635907315
 31
0.0
  0
LINE
  5
430
330
1F
100
AcDbEntity
  8
0
  6
CONTINUOUS
 62
     7
100
AcDbLine
 10
1300.3862471364
 20
986.7478082322
 30
0.0
 11
1300.3862471364
 21
773.8635907315
 31
0.0
  0
LINE
  5
431
330
1F
100
AcDbEntity
  8
0
  6
CONTINUOUS
 62
     7
100
AcDbLine
 10
1297.8999138854
 20
988.9357829832
 30
0.0
 11
1300.3862471364
 21
986.7478082322
 31
0.0
  0
LINE
  5
432
330
1F
100
AcDbEntity
  8
0
  6
CONTINUOUS
 62
     7
100
AcDbLine
 10
1527.6214600585
 20
762.8056997799
 30
0.0
 11
1535.6220648669
 21
762.8056997799
 31
0.0
  0
ELLIPSE
  5
433
330
1F
100
AcDbEntity
  8
0
  6
CONTINUOUS
 62
     7
100
AcDbEllipse
 10
1527.6220664302
 20
762.3053947097
 30
0.0
 11
-0.3539842722996127
 21
0.353984272299499
 31
0.0
210
0.0
220
0.0
230
0.9999999999999998
 40
0.998782766
 41
5.498396131367636
 42
7.067974482991229
  0
LINE
  5
434
330
1F
100
AcDbEntity
  8
0
  6
CONTINUOUS
 62
     7
100
AcDbLine
 10
1527.1217645191
 20
759.3053946637
 30
0.0
 11
1527.1217645191
 21
762.3060042404
 31
0.0
  0
ELLIPSE
  5
435
330
1F
100
AcDbEntity
  8
0
  6
CONTINUOUS
 62
     7
100
AcDbEllipse
 10
1527.6220664302
 20
759.306004254
 30
0.0
 11
-0.3539842722996128
 21
-0.3539842722997264
 31
0.0
210
0.0
220
0.0
230
1.0
 40
0.998782766
 41
5.498396131367703
 42
7.06797448299139
  0
LINE
  5
436
330
1F
100
AcDbEntity
  8
0
  6
CONTINUOUS
 62
     7
100
AcDbLine
 10
1535.6220648669
 20
758.8056991242
 30
0.0
 11
1527.6214600585
 21
758.8056991242
 31
0.0
  0
ELLIPSE
  5
437
330
1F
100
AcDbEntity
  8
0
  6
CONTINUOUS
 62
     7
100
AcDbEllipse
 10
1535.6214568859
 20
759.306004254
 30
0.0
 11
0.3539842722996128
 21
-0.3539842722997264
 31
0.0
210
0.0
220
0.0
230
1.0
 40
0.998782766
 41
5.498396131367957
 42
7.067974482991323
  0
LINE
  5
438
330
1F
100
AcDbEntity
  8
0
  6
CONTINUOUS
 62
     7
100
AcDbLine
 10
1536.1217604063
 20
762.3060042404
 30
0.0
 11
1536.1217604063
 21
759.3053946637
 31
0.0
  0
ELLIPSE
  5
439
330
1F
100
AcDbEntity
  8
0
  6
CONTINUOUS
 62
     7
100
AcDbEllipse
 10
1535.6214568859
 20
762.3053947097
 30
0.0
 11
0.3539842722996127
 21
0.353984272299499
 31
0.0
210
0.0
220
0.0
230
0.9999999999999998
 40
0.998782766
 41
5.498396131367877
 42
7.06797448299163
  0
CIRCLE
  5
43A
330
1F
100
AcDbEntity
  8
0
  6
CONTINUOUS
 62
     7
100
AcDbCircle
 10
1531.621761658
 20
768.8056994819
 30
0.0
 40
3.500065549617602
  0
CIRCLE
  5
43B
330
1F
100
AcDbEntity
  8
0
  6
CONTINUOUS
 62
     7
100
AcDbCircle
 10
1531.621761658
 20
991.8056994819
 30
0.0
 40
3.50006554961783
  0
LINE
  5
43C
330
1F
100
AcDbEntity
  8
0
  6
CONTINUOUS
 62
     7
100
AcDbLine
 10
1527.6214600585
 20
1001.8056998395
 30
0.0
 11
1535.6220648669
 21
1001.8056998395
 31
0.0
  0
ELLIPSE
  5
43D
330
1F
100
AcDbEntity
  8
0
  6
CONTINUOUS
 62
     7
100
AcDbEllipse
 10
1527.6220664302
 20
1001.3053947097
 30
0.0
 11
0.3539842722993853
 21
-0.353984272299499
 31
0.0
210
0.0
220
0.0
230
0.9999999999999998
 40
0.998782766
 41
2.35680347777831
 42
3.926381829401384
  0
LINE
  5
43E
330
1F
100
AcDbEntity
  8
0
  6
CONTINUOUS
 62
     7
100
AcDbLine
 10
1527.1217645191
 20
998.3053947233
 30
0.0
 11
1527.1217645191
 21
1001.3060043
 31
0.0
  0
ELLIPSE
  5
43F
330
1F
100
AcDbEntity
  8
0
  6
CONTINUOUS
 62
     7
100
AcDbEllipse
 10
1527.6220664302
 20
998.306004254
 30
0.0
 11
0.3539842722993854
 21
0.3539842722996128
 31
0.0
210
0.0
220
0.0
230
1.0
 40
0.998782766
 41
2.356803477777749
 42
3.92638182940121
  0
LINE
  5
440
330
1F
100
AcDbEntity
  8
0
  6
CONTINUOUS
 62
     7
100
AcDbLine
 10
1535.6220648669
 20
997.8056991838
 30
0.0
 11
1527.6214600585
 21
997.8056991838
 31
0.0
  0
ELLIPSE
  5
441
330
1F
100
AcDbEntity
  8
0
  6
CONTINUOUS
 62
     7
100
AcDbEllipse
 10
1535.6214568859
 20
998.306004254
 30
0.0
 11
-0.3539842722998401
 21
0.3539842722996127
 31
0.0
210
0.0
220
0.0
230
1.0
 40
0.998782766
 41
2.356803477777347
 42
3.926381829401611
  0
LINE
  5
442
330
1F
100
AcDbEntity
  8
0
  6
CONTINUOUS
 62
     7
100
AcDbLine
 10
1536.1217604063
 20
1001.3060043
 30
0.0
 11
1536.1217604063
 21
998.3053947233
 31
0.0
  0
ELLIPSE
  5
443
330
1F
100
AcDbEntity
  8
0
  6
CONTINUOUS
 62
     7
100
AcDbEllipse
 10
1535.6214568859
 20
1001.3053947097
 30
0.0
 11
-0.3539842722998401
 21
-0.353984272299499
 31
0.0
210
0.0
220
0.0
230
1.0
 40
0.998782766
 41
2.356803477778699
 42
3.926381829402093
  0
LINE
  5
444
330
1F
100
AcDbEntity
  8
0
  6
CONTINUOUS
 62
     7
100
AcDbLine
 10
1332.6220632575
 20
997.8056991838
 30
0.0
 11
1324.6214584492
 21
997.8056991838
 31
0.0
  0
ELLIPSE
  5
445
330
1F
100
AcDbEntity
  8
0
  6
CONTINUOUS
 62
     7
100
AcDbEllipse
 10
1332.6214568859
 20
998.306004254
 30
0.0
 11
0.3539842722993853
 21
-0.353984272299499
 31
0.0
210
0.0
220
0.0
230
0.9999999999999998
 40
0.998782766
 41
5.498396131367824
 42
7.06797448299123
  0
LINE
  5
446
330
1F
100
AcDbEntity
  8
0
  6
CONTINUOUS
 62
     7
100
AcDbLine
 10
1333.121758797
 20
1001.3060043
 30
0.0
 11
1333.121758797
 21
998.3053947233
 31
0.0
  0
ELLIPSE
  5
447
330
1F
100
AcDbEntity
  8
0
  6
CONTINUOUS
 62
     7
100
AcDbEllipse
 10
1332.6214568859
 20
1001.3053947097
 30
0.0
 11
0.3539842722993853
 21
0.3539842722997263
 31
0.0
210
0.0
220
0.0
230
1.0
 40
0.998782766
 41
5.498396131367542
 42
7.067974482991363
  0
LINE
  5
448
330
1F
100
AcDbEntity
  8
0
  6
CONTINUOUS
 62
     7
100
AcDbLine
 10
1324.6214584492
 20
1001.8056998395
 30
0.0
 11
1332.6220632575
 21
1001.8056998395
 31
0.0
  0
ELLIPSE
  5
449
330
1F
100
AcDbEntity
  8
0
  6
CONTINUOUS
 62
     7
100
AcDbEllipse
 10
1324.6220664302
 20
1001.3053947097
 30
0.0
 11
-0.3539842722996128
 21
0.3539842722997264
 31
0.0
210
0.0
220
0.0
230
1.0
 40
0.998782766
 41
5.498396131367957
 42
7.067974482991323
  0
LINE
  5
44A
330
1F
100
AcDbEntity
  8
0
  6
CONTINUOUS
 62
     7
100
AcDbLine
 10
1324.1217629097
 20
998.3053947233
 30
0.0
 11
1324.1217629097
 21
1001.3060043
 31
0.0
  0
ELLIPSE
  5
44B
330
1F
100
AcDbEntity
  8
0
  6
CONTINUOUS
 62
     7
100
AcDbEllipse
 10
1324.6220664302
 20
998.306004254
 30
0.0
 11
-0.3539842722996127
 21
-0.353984272299499
 31
0.0
210
0.0
220
0.0
230
0.9999999999999998
 40
0.998782766
 41
5.498396131367877
 42
7.06797448299163
  0
CIRCLE
  5
44C
330
1F
100
AcDbEntity
  8
0
  6
CONTINUOUS
 62
     7
100
AcDbCircle
 10
1328.621761658
 20
991.8056994819
 30
0.0
 40
3.50006554961783
  0
CIRCLE
  5
44D
330
1F
100
AcDbEntity
  8
0
  6
CONTINUOUS
 62
     7
100
AcDbCircle
 10
1328.621761658
 20
768.8056994819
 30
0.0
 40
3.500065549617602
  0
LINE
  5
44E
330
1F
100
AcDbEntity
  8
0
  6
CONTINUOUS
 62
     7
100
AcDbLine
 10
1332.6220632575
 20
758.8056991242
 30
0.0
 11
1324.6214584492
 21
758.8056991242
 31
0.0
  0
ELLIPSE
  5
44F
330
1F
100
AcDbEntity
  8
0
  6
CONTINUOUS
 62
     7
100
AcDbEllipse
 10
1332.6214568859
 20
759.306004254
 30
0.0
 11
-0.3539842722996127
 21
0.353984272299499
 31
0.0
210
0.0
220
0.0
230
0.9999999999999998
 40
0.998782766
 41
2.356803477777374
 42
3.926381829401223
  0
LINE
  5
450
330
1F
100
AcDbEntity
  8
0
  6
CONTINUOUS
 62
     7
100
AcDbLine
 10
1333.121758797
 20
762.3060042404
 30
0.0
 11
1333.121758797
 21
759.3053946637
 31
0.0
  0
ELLIPSE
  5
451
330
1F
100
AcDbEntity
  8
0
  6
CONTINUOUS
 62
     7
100
AcDbEllipse
 10
1332.6214568859
 20
762.3053947097
 30
0.0
 11
-0.3539842722996127
 21
-0.3539842722996127
 31
0.0
210
0.0
220
0.0
230
0.9999999999999998
 40
0.998782766
 41
2.35680347777807
 42
3.926381829401985
  0
LINE
  5
452
330
1F
100
AcDbEntity
  8
0
  6
CONTINUOUS
 62
     7
100
AcDbLine
 10
1324.6214584492
 20
762.8056997799
 30
0.0
 11
1332.6220632575
 21
762.8056997799
 31
0.0
  0
ELLIPSE
  5
453
330
1F
100
AcDbEntity
  8
0
  6
CONTINUOUS
 62
     7
100
AcDbEllipse
 10
1324.6220664302
 20
762.3053947097
 30
0.0
 11
0.3539842722998401
 21
-0.3539842722996127
 31
0.0
210
0.0
220
0.0
230
1.0
 40
0.998782766
 41
2.356803477777347
 42
3.926381829401611
  0
LINE
  5
454
330
1F
100
AcDbEntity
  8
0
  6
CONTINUOUS
 62
     7
100
AcDbLine
 10
1324.1217629097
 20
759.3053946637
 30
0.0
 11
1324.1217629097
 21
762.3060042404
 31
0.0
  0
ELLIPSE
  5
455
330
1F
100
AcDbEntity
  8
0
  6
CONTINUOUS
 62
     7
100
AcDbEllipse
 10
1324.6220664302
 20
759.306004254
 30
0.0
 11
0.3539842722998401
 21
0.353984272299499
 31
0.0
210
0.0
220
0.0
230
1.0
 40
0.998782766
 41
2.356803477778699
 42
3.926381829402093
  0
LINE
  5
456
330
1F
100
AcDbEntity
  8
0
  6
CONTINUOUS
 62
     7
100
AcDbLine
 10
1559.8572761796
 20
986.7478082322
 30
0.0
 11
1560.9745354436
 21
986.2427333735
 31
0.0
  0
LINE
  5
457
330
1F
100
AcDbEntity
  8
0
  6
CONTINUOUS
 62
     7
100
AcDbLine
 10
1560.9745354436
 20
986.2427333735
 30
0.0
 11
1563.4791822217
 21
988.4406322979
 31
0.0
  0
LINE
  5
458
330
1F
100
AcDbEntity
  8
0
  6
CONTINUOUS
 62
     7
100
AcDbLine
 10
1299.2689878724
 20
986.2427333735
 30
0.0
 11
1296.7643410943
 21
988.4406322979
 31
0.0
  0
LINE
  5
459
330
1F
100
AcDbEntity
  8
0
  6
CONTINUOUS
 62
     7
100
AcDbLine
 10
1300.3862471364
 20
986.7478082322
 30
0.0
 11
1299.2689878724
 21
986.2427333735
 31
0.0
  0
LINE
  5
45A
330
1F
100
AcDbEntity
  8
0
  6
CONTINUOUS
 62
     7
100
AcDbLine
 10
1560.9745354436
 20
774.3686655902
 30
0.0
 11
1563.4791822217
 21
772.1707666658
 31
0.0
  0
LINE
  5
45B
330
1F
100
AcDbEntity
  8
0
  6
CONTINUOUS
 62
     7
100
AcDbLine
 10
1560.9745354436
 20
774.3686655902
 30
0.0
 11
1559.8572761796
 21
773.8635907315
 31
0.0
  0
LINE
  5
45C
330
1F
100
AcDbEntity
  8
0
  6
CONTINUOUS
 62
     7
100
AcDbLine
 10
1299.2689878724
 20
886.1906974942
 30
0.0
 11
1299.5305777572
 21
885.667463708
 31
0.0
  0
LINE
  5
45D
330
1F
100
AcDbEntity
  8
0
  6
CONTINUOUS
 62
     7
100
AcDbLine
 10
1299.2689878724
 20
986.2427333735
 30
0.0
 11
1299.2689878724
 21
886.1906974942
 31
0.0
  0
LINE
  5
45E
330
1F
100
AcDbEntity
  8
0
  6
CONTINUOUS
 62
     7
100
AcDbLine
 10
1299.2689878724
 20
874.4207014695
 30
0.0
 11
1299.2689878724
 21
774.3686655902
 31
0.0
  0
LINE
  5
45F
330
1F
100
AcDbEntity
  8
0
  6
CONTINUOUS
 62
     7
100
AcDbLine
 10
1299.5305777572
 20
874.9439352558
 30
0.0
 11
1299.2689878724
 21
874.4207014695
 31
0.0
  0
LINE
  5
460
330
1F
100
AcDbEntity
  8
0
  6
CONTINUOUS
 62
     7
100
AcDbLine
 10
1299.5305777572
 20
878.7674637877
 30
0.0
 11
1299.5305777572
 21
874.9439352558
 31
0.0
  0
LINE
  5
461
330
1F
100
AcDbEntity
  8
0
  6
CONTINUOUS
 62
     7
100
AcDbLine
 10
1299.2689878724
 20
879.2906975739
 30
0.0
 11
1299.5305777572
 21
878.7674637877
 31
0.0
  0
LINE
  5
462
330
1F
100
AcDbEntity
  8
0
  6
CONTINUOUS
 62
     7
100
AcDbLine
 10
1299.2689878724
 20
881.3207013898
 30
0.0
 11
1299.2689878724
 21
879.2906975739
 31
0.0
  0
LINE
  5
463
330
1F
100
AcDbEntity
  8
0
  6
CONTINUOUS
 62
     7
100
AcDbLine
 10
1299.5305777572
 20
881.843935176
 30
0.0
 11
1299.2689878724
 21
881.3207013898
 31
0.0
  0
LINE
  5
464
330
1F
100
AcDbEntity
  8
0
  6
CONTINUOUS
 62
     7
100
AcDbLine
 10
1299.5305777572
 20
885.667463708
 30
0.0
 11
1299.5305777572
 21
881.843935176
 31
0.0
  0
LINE
  5
465
330
1F
100
AcDbEntity
  8
0
  6
CONTINUOUS
 62
     7
100
AcDbLine
 10
1560.7129455589
 20
885.667463708
 30
0.0
 11
1560.7129455589
 21
881.843935176
 31
0.0
  0
LINE
  5
466
330
1F
100
AcDbEntity
  8
0
  6
CONTINUOUS
 62
     7
100
AcDbLine
 10
1560.7129455589
 20
881.843935176
 30
0.0
 11
1560.9745354436
 21
881.3207013898
 31
0.0
  0
LINE
  5
467
330
1F
100
AcDbEntity
  8
0
  6
CONTINUOUS
 62
     7
100
AcDbLine
 10
1560.9745354436
 20
881.3207013898
 30
0.0
 11
1560.9745354436
 21
879.2906975739
 31
0.0
  0
LINE
  5
468
330
1F
100
AcDbEntity
  8
0
  6
CONTINUOUS
 62
     7
100
AcDbLine
 10
1560.9745354436
 20
879.2906975739
 30
0.0
 11
1560.7129455589
 21
878.7674637877
 31
0.0
  0
LINE
  5
469
330
1F
100
AcDbEntity
  8
0
  6
CONTINUOUS
 62
     7
100
AcDbLine
 10
1560.7129455589
 20
878.7674637877
 30
0.0
 11
1560.7129455589
 21
874.9439352558
 31
0.0
  0
LINE
  5
46A
330
1F
100
AcDbEntity
  8
0
  6
CONTINUOUS
 62
     7
100
AcDbLine
 10
1560.7129455589
 20
874.9439352558
 30
0.0
 11
1560.9745354436
 21
874.4207014695
 31
0.0
  0
LINE
  5
46B
330
1F
100
AcDbEntity
  8
0
  6
CONTINUOUS
 62
     7
100
AcDbLine
 10
1560.9745354436
 20
874.4207014695
 30
0.0
 11
1560.9745354436
 21
774.3686655902
 31
0.0
  0
LINE
  5
46C
330
1F
100
AcDbEntity
  8
0
  6
CONTINUOUS
 62
     7
100
AcDbLine
 10
1560.9745354436
 20
986.2427333735
 30
0.0
 11
1560.9745354436
 21
886.1906974942
 31
0.0
  0
LINE
  5
46D
330
1F
100
AcDbEntity
  8
0
  6
CONTINUOUS
 62
     7
100
AcDbLine
 10
1560.9745354436
 20
886.1906974942
 30
0.0
 11
1560.7129455589
 21
885.667463708
 31
0.0
  0
CIRCLE
  5
46E
330
1F
100
AcDbEntity
  8
0
  6
CONTINUOUS
 62
     7
100
AcDbCircle
 10
1328.621761658
 20
991.8056994819
 30
0.0
 40
2.800797430181319
  0
CIRCLE
  5
46F
330
1F
100
AcDbEntity
  8
0
  6
CONTINUOUS
 62
     7
100
AcDbCircle
 10
1328.621761658
 20
768.8056994819
 30
0.0
 40
2.800797430181206
  0
CIRCLE
  5
470
330
1F
100
AcDbEntity
  8
0
  6
CONTINUOUS
 62
     7
100
AcDbCircle
 10
1531.621761658
 20
991.8056994819
 30
0.0
 40
2.800797430181319
  0
CIRCLE
  5
471
330
1F
100
AcDbEntity
  8
0
  6
CONTINUOUS
 62
     7
100
AcDbCircle
 10
1531.621761658
 20
768.8056994819
 30
0.0
 40
2.800797430181206
  0
LINE
  5
472
330
1F
100
AcDbEntity
  8
0
  6
CONTINUOUS
 62
     7
100
AcDbLine
 10
1324.6214584492
 20
1001.8056998395
 30
0.0
 11
1324.6982813857
 21
1001.728876903
 31
0.0
  0
LINE
  5
473
330
1F
100
AcDbEntity
  8
0
  6
CONTINUOUS
 62
     7
100
AcDbLine
 10
1332.545240321
 20
1001.728876903
 30
0.0
 11
1332.6220632575
 21
1001.8056998395
 31
0.0
  0
LINE
  5
474
330
1F
100
AcDbEntity
  8
0
  6
CONTINUOUS
 62
     7
100
AcDbLine
 10
1324.6982813857
 20
1001.728876903
 30
0.0
 11
1332.545240321
 21
1001.728876903
 31
0.0
  0
ELLIPSE
  5
475
330
1F
100
AcDbEntity
  8
0
  6
CONTINUOUS
 62
     7
100
AcDbEllipse
 10
1324.6988921231
 20
1001.2285690168
 30
0.0
 11
-0.3539842722996128
 21
0.3539842722997264
 31
0.0
210
0.0
220
0.0
230
1.0
 40
0.998782766
 41
5.498396131367635
 42
7.067974482991644
  0
LINE
  5
476
330
1F
100
AcDbEntity
  8
0
  6
CONTINUOUS
 62
     7
100
AcDbLine
 10
1324.1985858463
 20
1001.2291813635
 30
0.0
 11
1324.1217629097
 21
1001.3060043
 31
0.0
  0
ELLIPSE
  5
477
330
1F
100
AcDbEntity
  8
0
  6
CONTINUOUS
 62
     7
100
AcDbEllipse
 10
1324.6988921231
 20
762.2285690168
 30
0.0
 11
0.3539842722998401
 21
-0.353984272299499
 31
0.0
210
0.0
220
0.0
230
1.0
 40
0.998782766
 41
2.356803477777427
 42
3.926381829400982
  0
LINE
  5
478
330
1F
100
AcDbEntity
  8
0
  6
CONTINUOUS
 62
     7
100
AcDbLine
 10
1324.1217629097
 20
762.3060042404
 30
0.0
 11
1324.1985858463
 21
762.2291813039
 31
0.0
  0
LINE
  5
479
330
1F
100
AcDbEntity
  8
0
  6
CONTINUOUS
 62
     7
100
AcDbLine
 10
1324.6982813857
 20
762.7288768434
 30
0.0
 11
1324.6214584492
 21
762.8056997799
 31
0.0
  0
ELLIPSE
  5
47A
330
1F
100
AcDbEntity
  8
0
  6
CONTINUOUS
 62
     7
100
AcDbEllipse
 10
1324.6988921231
 20
759.3828299469
 30
0.0
 11
0.3539842722998401
 21
0.3539842722996127
 31
0.0
210
0.0
220
0.0
230
1.0
 40
0.998782766
 41
2.356803477778136
 42
3.926381829402334
  0
LINE
  5
47B
330
1F
100
AcDbEntity
  8
0
  6
CONTINUOUS
 62
     7
100
AcDbLine
 10
1324.6214584492
 20
758.8056991242
 30
0.0
 11
1324.6982813857
 21
758.8825220608
 31
0.0
  0
LINE
  5
47C
330
1F
100
AcDbEntity
  8
0
  6
CONTINUOUS
 62
     7
100
AcDbLine
 10
1324.1985858463
 20
759.3822176002
 30
0.0
 11
1324.1217629097
 21
759.3053946637
 31
0.0
  0
LINE
  5
47D
330
1F
100
AcDbEntity
  8
0
  6
CONTINUOUS
 62
     7
100
AcDbLine
 10
1332.545240321
 20
762.7288768434
 30
0.0
 11
1324.6982813857
 21
762.7288768434
 31
0.0
  0
LINE
  5
47E
330
1F
100
AcDbEntity
  8
0
  6
CONTINUOUS
 62
     7
100
AcDbLine
 10
1332.6220632575
 20
762.8056997799
 30
0.0
 11
1332.545240321
 21
762.7288768434
 31
0.0
  0
LINE
  5
47F
330
1F
100
AcDbEntity
  8
0
  6
CONTINUOUS
 62
     7
100
AcDbLine
 10
1324.1985858463
 20
762.2291813039
 30
0.0
 11
1324.1985858463
 21
759.3822176002
 31
0.0
  0
LINE
  5
480
330
1F
100
AcDbEntity
  8
0
  6
CONTINUOUS
 62
     7
100
AcDbLine
 10
1324.6982813857
 20
758.8825220608
 30
0.0
 11
1332.545240321
 21
758.8825220608
 31
0.0
  0
LINE
  5
481
330
1F
100
AcDbEntity
  8
0
  6
CONTINUOUS
 62
     7
100
AcDbLine
 10
1332.545240321
 20
758.8825220608
 30
0.0
 11
1332.6220632575
 21
758.8056991242
 31
0.0
  0
LINE
  5
482
330
1F
100
AcDbEntity
  8
0
  6
CONTINUOUS
 62
     7
100
AcDbLine
 10
1324.1217629097
 20
998.3053947233
 30
0.0
 11
1324.1985858463
 21
998.3822176599
 31
0.0
  0
ELLIPSE
  5
483
330
1F
100
AcDbEntity
  8
0
  6
CONTINUOUS
 62
     7
100
AcDbEllipse
 10
1324.6988921231
 20
998.3828299469
 30
0.0
 11
-0.3539842722996127
 21
-0.3539842722996127
 31
0.0
210
0.0
220
0.0
230
0.9999999999999998
 40
0.998782766
 41
5.498396131367783
 42
7.06797448299163
  0
LINE
  5
484
330
1F
100
AcDbEntity
  8
0
  6
CONTINUOUS
 62
     7
100
AcDbLine
 10
1324.6982813857
 20
997.8825221204
 30
0.0
 11
1324.6214584492
 21
997.8056991838
 31
0.0
  0
LINE
  5
485
330
1F
100
AcDbEntity
  8
0
  6
CONTINUOUS
 62
     7
100
AcDbLine
 10
1324.1985858463
 20
998.3822176599
 30
0.0
 11
1324.1985858463
 21
1001.2291813635
 31
0.0
  0
LINE
  5
486
330
1F
100
AcDbEntity
  8
0
  6
CONTINUOUS
 62
     7
100
AcDbLine
 10
1332.6220632575
 20
997.8056991838
 30
0.0
 11
1332.545240321
 21
997.8825221204
 31
0.0
  0
LINE
  5
487
330
1F
100
AcDbEntity
  8
0
  6
CONTINUOUS
 62
     7
100
AcDbLine
 10
1332.545240321
 20
997.8825221204
 30
0.0
 11
1324.6982813857
 21
997.8825221204
 31
0.0
  0
LINE
  5
488
330
1F
100
AcDbEntity
  8
0
  6
CONTINUOUS
 62
     7
100
AcDbLine
 10
1333.0449358605
 20
998.3822176599
 30
0.0
 11
1333.121758797
 21
998.3053947233
 31
0.0
  0
LINE
  5
489
330
1F
100
AcDbEntity
  8
0
  6
CONTINUOUS
 62
     7
100
AcDbLine
 10
1333.0449358605
 20
1001.2291813635
 30
0.0
 11
1333.0449358605
 21
998.3822176599
 31
0.0
  0
LINE
  5
48A
330
1F
100
AcDbEntity
  8
0
  6
CONTINUOUS
 62
     7
100
AcDbLine
 10
1333.121758797
 20
1001.3060043
 30
0.0
 11
1333.0449358605
 21
1001.2291813635
 31
0.0
  0
ELLIPSE
  5
48B
330
1F
100
AcDbEntity
  8
0
  6
CONTINUOUS
 62
     7
100
AcDbEllipse
 10
1332.544631193
 20
998.3828299469
 30
0.0
 11
0.3539842722996127
 21
-0.3539842722996127
 31
0.0
210
0.0
220
0.0
230
0.9999999999999998
 40
0.998782766
 41
5.498396131367797
 42
7.067974482991162
  0
ELLIPSE
  5
48C
330
1F
100
AcDbEntity
  8
0
  6
CONTINUOUS
 62
     7
100
AcDbEllipse
 10
1332.544631193
 20
1001.2285690168
 30
0.0
 11
0.3539842722996128
 21
0.3539842722997264
 31
0.0
210
0.0
220
0.0
230
1.0
 40
0.998782766
 41
5.498396131367864
 42
7.06797448299123
  0
LINE
  5
48D
330
1F
100
AcDbEntity
  8
0
  6
CONTINUOUS
 62
     7
100
AcDbLine
 10
1333.121758797
 20
759.3053946637
 30
0.0
 11
1333.0449358605
 21
759.3822176002
 31
0.0
  0
LINE
  5
48E
330
1F
100
AcDbEntity
  8
0
  6
CONTINUOUS
 62
     7
100
AcDbLine
 10
1333.0449358605
 20
759.3822176002
 30
0.0
 11
1333.0449358605
 21
762.2291813039
 31
0.0
  0
LINE
  5
48F
330
1F
100
AcDbEntity
  8
0
  6
CONTINUOUS
 62
     7
100
AcDbLine
 10
1333.0449358605
 20
762.2291813039
 30
0.0
 11
1333.121758797
 21
762.3060042404
 31
0.0
  0
ELLIPSE
  5
490
330
1F
100
AcDbEntity
  8
0
  6
CONTINUOUS
 62
     7
100
AcDbEllipse
 10
1332.544631193
 20
759.3828299469
 30
0.0
 11
-0.3539842722993854
 21
0.3539842722996128
 31
0.0
210
0.0
220
0.0
230
1.0
 40
0.998782766
 41
2.35680347777839
 42
3.926381829401624
  0
ELLIPSE
  5
491
330
1F
100
AcDbEntity
  8
0
  6
CONTINUOUS
 62
     7
100
AcDbEllipse
 10
1332.544631193
 20
762.2285690168
 30
0.0
 11
-0.3539842722993853
 21
-0.353984272299499
 31
0.0
210
0.0
220
0.0
230
0.9999999999999998
 40
0.998782766
 41
2.356803477778378
 42
3.926381829401129
  0
LINE
  5
492
330
1F
100
AcDbEntity
  8
0
  6
CONTINUOUS
 62
     7
100
AcDbLine
 10
1527.6214600585
 20
762.8056997799
 30
0.0
 11
1527.6982829951
 21
762.7288768434
 31
0.0
  0
LINE
  5
493
330
1F
100
AcDbEntity
  8
0
  6
CONTINUOUS
 62
     7
100
AcDbLine
 10
1535.5452419303
 20
762.7288768434
 30
0.0
 11
1535.6220648669
 21
762.8056997799
 31
0.0
  0
LINE
  5
494
330
1F
100
AcDbEntity
  8
0
  6
CONTINUOUS
 62
     7
100
AcDbLine
 10
1527.6982829951
 20
762.7288768434
 30
0.0
 11
1535.5452419303
 21
762.7288768434
 31
0.0
  0
ELLIPSE
  5
495
330
1F
100
AcDbEntity
  8
0
  6
CONTINUOUS
 62
     7
100
AcDbEllipse
 10
1527.6988921231
 20
762.2285690168
 30
0.0
 11
-0.3539842722996127
 21
0.3539842722996127
 31
0.0
210
0.0
220
0.0
230
0.9999999999999998
 40
0.998782766
 41
5.498396131367797
 42
7.067974482991162
  0
LINE
  5
496
330
1F
100
AcDbEntity
  8
0
  6
CONTINUOUS
 62
     7
100
AcDbLine
 10
1527.1985874556
 20
762.2291813039
 30
0.0
 11
1527.1217645191
 21
762.3060042404
 31
0.0
  0
ELLIPSE
  5
497
330
1F
100
AcDbEntity
  8
0
  6
CONTINUOUS
 62
     7
100
AcDbEllipse
 10
1527.6988921231
 20
998.3828299469
 30
0.0
 11
0.3539842722996127
 21
0.353984272299499
 31
0.0
210
0.0
220
0.0
230
0.9999999999999998
 40
0.998782766
 41
2.356803477778378
 42
3.926381829401771
  0
LINE
  5
498
330
1F
100
AcDbEntity
  8
0
  6
CONTINUOUS
 62
     7
100
AcDbLine
 10
1527.6214600585
 20
997.8056991838
 30
0.0
 11
1527.6982829951
 21
997.8825221204
 31
0.0
  0
LINE
  5
499
330
1F
100
AcDbEntity
  8
0
  6
CONTINUOUS
 62
     7
100
AcDbLine
 10
1527.1985874556
 20
998.3822176599
 30
0.0
 11
1527.1217645191
 21
998.3053947233
 31
0.0
  0
LINE
  5
49A
330
1F
100
AcDbEntity
  8
0
  6
CONTINUOUS
 62
     7
100
AcDbLine
 10
1527.1985874556
 20
759.3822176002
 30
0.0
 11
1527.1985874556
 21
762.2291813039
 31
0.0
  0
LINE
  5
49B
330
1F
100
AcDbEntity
  8
0
  6
CONTINUOUS
 62
     7
100
AcDbLine
 10
1527.1217645191
 20
759.3053946637
 30
0.0
 11
1527.1985874556
 21
759.3822176002
 31
0.0
  0
LINE
  5
49C
330
1F
100
AcDbEntity
  8
0
  6
CONTINUOUS
 62
     7
100
AcDbLine
 10
1535.6220648669
 20
758.8056991242
 30
0.0
 11
1535.5452419303
 21
758.8825220608
 31
0.0
  0
LINE
  5
49D
330
1F
100
AcDbEntity
  8
0
  6
CONTINUOUS
 62
     7
100
AcDbLine
 10
1527.6982829951
 20
758.8825220608
 30
0.0
 11
1527.6214600585
 21
758.8056991242
 31
0.0
  0
LINE
  5
49E
330
1F
100
AcDbEntity
  8
0
  6
CONTINUOUS
 62
     7
100
AcDbLine
 10
1535.5452419303
 20
758.8825220608
 30
0.0
 11
1527.6982829951
 21
758.8825220608
 31
0.0
  0
LINE
  5
49F
330
1F
100
AcDbEntity
  8
0
  6
CONTINUOUS
 62
     7
100
AcDbLine
 10
1527.6982829951
 20
997.8825221204
 30
0.0
 11
1535.5452419303
 21
997.8825221204
 31
0.0
  0
LINE
  5
4A0
330
1F
100
AcDbEntity
  8
0
  6
CONTINUOUS
 62
     7
100
AcDbLine
 10
1535.5452419303
 20
997.8825221204
 30
0.0
 11
1535.6220648669
 21
997.8056991838
 31
0.0
  0
ELLIPSE
  5
4A1
330
1F
100
AcDbEntity
  8
0
  6
CONTINUOUS
 62
     7
100
AcDbEllipse
 10
1527.6988921231
 20
759.3828299469
 30
0.0
 11
-0.3539842722996128
 21
-0.3539842722997264
 31
0.0
210
0.0
220
0.0
230
1.0
 40
0.998782766
 41
5.498396131367703
 42
7.06797448299139
  0
ELLIPSE
  5
4A2
330
1F
100
AcDbEntity
  8
0
  6
CONTINUOUS
 62
     7
100
AcDbEllipse
 10
1527.6988921231
 20
1001.2285690168
 30
0.0
 11
0.3539842722996127
 21
-0.3539842722996127
 31
0.0
210
0.0
220
0.0
230
0.9999999999999998
 40
0.998782766
 41
2.356803477777909
 42
3.926381829401464
  0
LINE
  5
4A3
330
1F
100
AcDbEntity
  8
0
  6
CONTINUOUS
 62
     7
100
AcDbLine
 10
1527.1217645191
 20
1001.3060043
 30
0.0
 11
1527.1985874556
 21
1001.2291813635
 31
0.0
  0
LINE
  5
4A4
330
1F
100
AcDbEntity
  8
0
  6
CONTINUOUS
 62
     7
100
AcDbLine
 10
1527.6982829951
 20
1001.728876903
 30
0.0
 11
1527.6214600585
 21
1001.8056998395
 31
0.0
  0
LINE
  5
4A5
330
1F
100
AcDbEntity
  8
0
  6
CONTINUOUS
 62
     7
100
AcDbLine
 10
1535.5452419303
 20
1001.728876903
 30
0.0
 11
1527.6982829951
 21
1001.728876903
 31
0.0
  0
LINE
  5
4A6
330
1F
100
AcDbEntity
  8
0
  6
CONTINUOUS
 62
     7
100
AcDbLine
 10
1535.6220648669
 20
1001.8056998395
 30
0.0
 11
1535.5452419303
 21
1001.728876903
 31
0.0
  0
LINE
  5
4A7
330
1F
100
AcDbEntity
  8
0
  6
CONTINUOUS
 62
     7
100
AcDbLine
 10
1527.1985874556
 20
1001.2291813635
 30
0.0
 11
1527.1985874556
 21
998.3822176599
 31
0.0
  0
ELLIPSE
  5
4A8
330
1F
100
AcDbEntity
  8
0
  6
CONTINUOUS
 62
     7
100
AcDbEllipse
 10
1535.544631193
 20
1001.2285690168
 30
0.0
 11
-0.3539842722998401
 21
-0.3539842722996127
 31
0.0
210
0.0
220
0.0
230
1.0
 40
0.998782766
 41
2.356803477778136
 42
3.926381829402334
  0
LINE
  5
4A9
330
1F
100
AcDbEntity
  8
0
  6
CONTINUOUS
 62
     7
100
AcDbLine
 10
1536.0449374698
 20
1001.2291813635
 30
0.0
 11
1536.1217604063
 21
1001.3060043
 31
0.0
  0
LINE
  5
4AA
330
1F
100
AcDbEntity
  8
0
  6
CONTINUOUS
 62
     7
100
AcDbLine
 10
1536.0449374698
 20
998.3822176599
 30
0.0
 11
1536.0449374698
 21
1001.2291813635
 31
0.0
  0
LINE
  5
4AB
330
1F
100
AcDbEntity
  8
0
  6
CONTINUOUS
 62
     7
100
AcDbLine
 10
1536.1217604063
 20
998.3053947233
 30
0.0
 11
1536.0449374698
 21
998.3822176599
 31
0.0
  0
LINE
  5
4AC
330
1F
100
AcDbEntity
  8
0
  6
CONTINUOUS
 62
     7
100
AcDbLine
 10
1536.1217604063
 20
762.3060042404
 30
0.0
 11
1536.0449374698
 21
762.2291813039
 31
0.0
  0
ELLIPSE
  5
4AD
330
1F
100
AcDbEntity
  8
0
  6
CONTINUOUS
 62
     7
100
AcDbEllipse
 10
1535.544631193
 20
762.2285690168
 30
0.0
 11
0.3539842722996127
 21
0.3539842722996127
 31
0.0
210
0.0
220
0.0
230
0.9999999999999998
 40
0.998782766
 41
5.498396131367783
 42
7.06797448299163
  0
ELLIPSE
  5
4AE
330
1F
100
AcDbEntity
  8
0
  6
CONTINUOUS
 62
     7
100
AcDbEllipse
 10
1535.544631193
 20
759.3828299469
 30
0.0
 11
0.3539842722996128
 21
-0.3539842722997264
 31
0.0
210
0.0
220
0.0
230
1.0
 40
0.998782766
 41
5.498396131367635
 42
7.067974482991644
  0
LINE
  5
4AF
330
1F
100
AcDbEntity
  8
0
  6
CONTINUOUS
 62
     7
100
AcDbLine
 10
1536.0449374698
 20
759.3822176002
 30
0.0
 11
1536.1217604063
 21
759.3053946637
 31
0.0
  0
LINE
  5
4B0
330
1F
100
AcDbEntity
  8
0
  6
CONTINUOUS
 62
     7
100
AcDbLine
 10
1536.0449374698
 20
762.2291813039
 30
0.0
 11
1536.0449374698
 21
759.3822176002
 31
0.0
  0
ELLIPSE
  5
4B1
330
1F
100
AcDbEntity
  8
0
  6
CONTINUOUS
 62
     7
100
AcDbEllipse
 10
1535.544631193
 20
998.3828299469
 30
0.0
 11
-0.3539842722998401
 21
0.353984272299499
 31
0.0
210
0.0
220
0.0
230
1.0
 40
0.998782766
 41
2.356803477777427
 42
3.926381829400982
  0
LINE
  5
4B2
330
1F
100
AcDbEntity
  8
0
  6
CONTINUOUS
 62
     7
100
AcDbLine
 10
1296.462950208
 20
885.1378387206
 30
0.0
 11
1295.9631205581
 21
885.1378387206
 31
0.0
  0
ARC
  5
4B3
330
1F
100
AcDbEntity
  8
0
  6
CONTINUOUS
 62
     7
100
AcDbCircle
 10
1296.7631818501
 20
885.1376150862
 30
0.0
 40
0.8000613232669106
100
AcDbArc
 50
99.7604221405
 51
179.9839845973
  0
ARC
  5
4B4
330
1F
100
AcDbEntity
  8
0
  6
CONTINUOUS
 62
     7
100
AcDbCircle
 10
1302.1467031515
 20
885.8738320799
 30
0.0
 40
5.519431963164117
100
AcDbArc
 50
179.4574616297
 51
184.7769315499
  0
ARC
  5
4B5
330
1F
100
AcDbEntity
  8
0
  6
CONTINUOUS
 62
     7
100
AcDbCircle
 10
1296.7632662764
 20
885.1372046372
 30
0.0
 40
0.3003167377889416
100
AcDbArc
 50
112.7812326944
 51
179.8790266215
  0
LINE
  5
4B6
330
1F
100
AcDbEntity
  8
0
  6
CONTINUOUS
 62
     7
100
AcDbLine
 10
1564.280402758
 20
885.1378387206
 30
0.0
 11
1563.780573108
 21
885.1378387206
 31
0.0
  0
ARC
  5
4B7
330
1F
100
AcDbEntity
  8
0
  6
CONTINUOUS
 62
     7
100
AcDbCircle
 10
1563.4802570396
 20
885.1372046372
 30
0.0
 40
0.3003167377889416
100
AcDbArc
 50
0.1209733785
 51
67.2187673056
  0
ARC
  5
4B8
330
1F
100
AcDbEntity
  8
0
  6
CONTINUOUS
 62
     7
100
AcDbCircle
 10
1558.0968527702
 20
885.8738309696
 30
0.0
 40
5.519399378308261
100
AcDbArc
 50
355.2230517491
 51
0.5425627681
  0
ARC
  5
4B9
330
1F
100
AcDbEntity
  8
0
  6
CONTINUOUS
 62
     7
100
AcDbCircle
 10
1563.4803414659
 20
885.1376150862
 30
0.0
 40
0.8000613232669106
100
AcDbArc
 50
0.0160154027
 51
80.2395778595
  0
LINE
  5
4BA
330
1F
100
AcDbEntity
  8
0
  6
CONTINUOUS
 62
     7
100
AcDbLine
 10
1563.780573108
 20
875.4735602432
 30
0.0
 11
1564.280402758
 21
875.4735602432
 31
0.0
  0
ARC
  5
4BB
330
1F
100
AcDbEntity
  8
0
  6
CONTINUOUS
 62
     7
100
AcDbCircle
 10
1563.4803303975
 20
875.473793673
 30
0.0
 40
0.8000723945131722
100
AcDbArc
 50
279.7610900459
 51
359.9832833328
  0
ARC
  5
4BC
330
1F
100
AcDbEntity
  8
0
  6
CONTINUOUS
 62
     7
100
AcDbCircle
 10
1558.0970008735
 20
874.7375735644
 30
0.0
 40
5.519251325601335
100
AcDbArc
 50
359.4573745176
 51
4.777018662
  0
ARC
  5
4BD
330
1F
100
AcDbEntity
  8
0
  6
CONTINUOUS
 62
     7
100
AcDbCircle
 10
1563.4802570396
 20
875.4741943266
 30
0.0
 40
0.3003167377889416
100
AcDbArc
 50
292.7812326944
 51
359.8790266215
  0
LINE
  5
4BE
330
1F
100
AcDbEntity
  8
0
  6
CONTINUOUS
 62
     7
100
AcDbLine
 10
1295.9631205581
 20
875.4735602432
 30
0.0
 11
1296.462950208
 21
875.4735602432
 31
0.0
  0
ARC
  5
4BF
330
1F
100
AcDbEntity
  8
0
  6
CONTINUOUS
 62
     7
100
AcDbCircle
 10
1296.7632662764
 20
875.4741943266
 30
0.0
 40
0.3003167377889416
100
AcDbArc
 50
180.1209733785
 51
247.2187673056
  0
ARC
  5
4C0
330
1F
100
AcDbEntity
  8
0
  6
CONTINUOUS
 62
     7
100
AcDbCircle
 10
1302.1468153181
 20
874.7375584573
 30
0.0
 40
5.519544441857485
100
AcDbArc
 50
175.2230782455
 51
180.5428749011
  0
ARC
  5
4C1
330
1F
100
AcDbEntity
  8
0
  6
CONTINUOUS
 62
     7
100
AcDbCircle
 10
1296.7631929186
 20
875.473793673
 30
0.0
 40
0.8000723945131722
100
AcDbArc
 50
180.0167166672
 51
260.2389099541
  0
LINE
  5
4C2
330
1F
100
AcDbEntity
  8
0
  6
CONTINUOUS
 62
     7
100
AcDbLine
 10
1297.5131244443
 20
875.357835497
 30
0.0
 11
1296.646443107
 21
875.1972065673
 31
0.0
  0
ELLIPSE
  5
4C3
330
1F
100
AcDbEntity
  8
0
  6
CONTINUOUS
 62
     7
100
AcDbEllipse
 10
1297.5218506543
 20
875.3594532311
 30
0.0
 11
2.776973474283295E-5
 21
0.5085177055620989
 31
0.0
210
0.0
220
0.0
230
1.0
 40
0.0171626045
 41
1.573978186231913
 42
3.127321220515771
  0
LINE
  5
4C4
330
1F
100
AcDbEntity
  8
0
  6
CONTINUOUS
 62
     7
100
AcDbLine
 10
1296.6275186323
 20
874.6852618076
 30
0.0
 11
1297.521692612
 21
874.8509874002
 31
0.0
  0
LINE
  5
4C5
330
1F
100
AcDbEntity
  8
0
  6
CONTINUOUS
 62
     7
100
AcDbLine
 10
1296.462950208
 20
878.7325536266
 30
0.0
 11
1297.5131244443
 21
878.7325536266
 31
0.0
  0
LINE
  5
4C6
330
1F
100
AcDbEntity
  8
0
  6
CONTINUOUS
 62
     7
100
AcDbLine
 10
1297.5131244443
 20
875.357835497
 30
0.0
 11
1297.5131244443
 21
878.7325536266
 31
0.0
  0
LINE
  5
4C7
330
1F
100
AcDbEntity
  8
0
  6
CONTINUOUS
 62
     7
100
AcDbLine
 10
1296.462950208
 20
875.4735602432
 30
0.0
 11
1296.462950208
 21
878.7325536266
 31
0.0
  0
LINE
  5
4C8
330
1F
100
AcDbEntity
  8
0
  6
CONTINUOUS
 62
     7
100
AcDbLine
 10
1296.6275186323
 20
885.9261371561
 30
0.0
 11
1297.521692612
 21
885.7604115636
 31
0.0
  0
ELLIPSE
  5
4C9
330
1F
100
AcDbEntity
  8
0
  6
CONTINUOUS
 62
     7
100
AcDbEllipse
 10
1297.5218506543
 20
885.2519457326
 30
0.0
 11
-2.776973474283295E-5
 21
0.5085177055619852
 31
0.0
210
0.0
220
0.0
230
1.0
 40
0.0171626045
 41
0.0142714330740177
 42
1.567614467357879
  0
LINE
  5
4CA
330
1F
100
AcDbEntity
  8
0
  6
CONTINUOUS
 62
     7
100
AcDbLine
 10
1296.646443107
 20
885.4141923965
 30
0.0
 11
1297.5131244443
 21
885.2535634667
 31
0.0
  0
LINE
  5
4CB
330
1F
100
AcDbEntity
  8
0
  6
CONTINUOUS
 62
     7
100
AcDbLine
 10
1296.462950208
 20
885.1378387206
 30
0.0
 11
1296.462950208
 21
881.8788453371
 31
0.0
  0
LINE
  5
4CC
330
1F
100
AcDbEntity
  8
0
  6
CONTINUOUS
 62
     7
100
AcDbLine
 10
1297.5131244443
 20
881.8788453371
 30
0.0
 11
1297.5131244443
 21
885.2535634667
 31
0.0
  0
LINE
  5
4CD
330
1F
100
AcDbEntity
  8
0
  6
CONTINUOUS
 62
     7
100
AcDbLine
 10
1296.462950208
 20
881.8788453371
 30
0.0
 11
1297.5131244443
 21
881.8788453371
 31
0.0
  0
LINE
  5
4CE
330
1F
100
AcDbEntity
  8
0
  6
CONTINUOUS
 62
     7
100
AcDbLine
 10
1563.6160046838
 20
874.6852618076
 30
0.0
 11
1562.7218307041
 21
874.8509874002
 31
0.0
  0
ELLIPSE
  5
4CF
330
1F
100
AcDbEntity
  8
0
  6
CONTINUOUS
 62
     7
100
AcDbEllipse
 10
1562.7216726618
 20
875.3594532311
 30
0.0
 11
-2.776973451545928E-5
 21
0.5085177055620989
 31
0.0
210
0.0
220
0.0
230
0.9999999999999999
 40
0.0171626045
 41
3.155864086716731
 42
4.709207120947764
  0
LINE
  5
4D0
330
1F
100
AcDbEntity
  8
0
  6
CONTINUOUS
 62
     7
100
AcDbLine
 10
1563.5970802091
 20
875.1972065673
 30
0.0
 11
1562.7303988717
 21
875.357835497
 31
0.0
  0
LINE
  5
4D1
330
1F
100
AcDbEntity
  8
0
  6
CONTINUOUS
 62
     7
100
AcDbLine
 10
1563.780573108
 20
875.4735602432
 30
0.0
 11
1563.780573108
 21
878.7325536266
 31
0.0
  0
LINE
  5
4D2
330
1F
100
AcDbEntity
  8
0
  6
CONTINUOUS
 62
     7
100
AcDbLine
 10
1562.7303988717
 20
875.357835497
 30
0.0
 11
1562.7303988717
 21
878.7325536266
 31
0.0
  0
LINE
  5
4D3
330
1F
100
AcDbEntity
  8
0
  6
CONTINUOUS
 62
     7
100
AcDbLine
 10
1563.780573108
 20
878.7325536266
 30
0.0
 11
1562.7303988717
 21
878.7325536266
 31
0.0
  0
LINE
  5
4D4
330
1F
100
AcDbEntity
  8
0
  6
CONTINUOUS
 62
     7
100
AcDbLine
 10
1562.7303988717
 20
885.2535634667
 30
0.0
 11
1563.5965437673
 21
885.4140936763
 31
0.0
  0
ELLIPSE
  5
4D5
330
1F
100
AcDbEntity
  8
0
  6
CONTINUOUS
 62
     7
100
AcDbEllipse
 10
1562.7216726618
 20
885.2519457326
 30
0.0
 11
2.776973474283295E-5
 21
0.5085177055619852
 31
0.0
210
0.0
220
0.0
230
1.0
 40
0.0171626045
 41
4.715570839821624
 42
6.268913874080311
  0
LINE
  5
4D6
330
1F
100
AcDbEntity
  8
0
  6
CONTINUOUS
 62
     7
100
AcDbLine
 10
1563.6160046838
 20
885.9261371561
 30
0.0
 11
1562.7218307041
 21
885.7604115636
 31
0.0
  0
LINE
  5
4D7
330
1F
100
AcDbEntity
  8
0
  6
CONTINUOUS
 62
     7
100
AcDbLine
 10
1563.780573108
 20
881.8788453371
 30
0.0
 11
1562.7303988717
 21
881.8788453371
 31
0.0
  0
LINE
  5
4D8
330
1F
100
AcDbEntity
  8
0
  6
CONTINUOUS
 62
     7
100
AcDbLine
 10
1562.7303988717
 20
881.8788453371
 30
0.0
 11
1562.7303988717
 21
885.2535634667
 31
0.0
  0
LINE
  5
4D9
330
1F
100
AcDbEntity
  8
0
  6
CONTINUOUS
 62
     7
100
AcDbLine
 10
1563.780573108
 20
885.1378387206
 30
0.0
 11
1563.780573108
 21
881.8788453371
 31
0.0
  0
LINE
  5
4DA
330
1F
100
AcDbEntity
  8
0
  6
CONTINUOUS
 62
     7
100
AcDbLine
 10
1295.9631205581
 20
875.4735602432
 30
0.0
 11
1295.9631205581
 21
878.74105276
 31
0.0
  0
ELLIPSE
  5
4DB
330
1F
100
AcDbEntity
  8
0
  6
CONTINUOUS
 62
     7
100
AcDbEllipse
 10
1296.4629437361
 20
878.7412811964
 30
0.0
 11
0.5
 21
0.0
 31
0.0
210
0.0
220
0.0
230
1.0
 40
0.0174550649
 41
3.167772592376735
 42
4.71238898038469
  0
LINE
  5
4DC
330
1F
100
AcDbEntity
  8
0
  6
CONTINUOUS
 62
     7
100
AcDbLine
 10
1564.280402758
 20
881.8703462037
 30
0.0
 11
1564.280402758
 21
885.1378387206
 31
0.0
  0
ELLIPSE
  5
4DD
330
1F
100
AcDbEntity
  8
0
  6
CONTINUOUS
 62
     7
100
AcDbEllipse
 10
1563.78057958
 20
881.8701177673
 30
0.0
 11
0.5
 21
0.0
 31
0.0
210
0.0
220
0.0
230
1.0
 40
0.0174550649
 41
0.02617993878684
 42
1.570796326794897
  0
LINE
  5
4DE
330
1F
100
AcDbEntity
  8
0
  6
CONTINUOUS
 62
     7
100
AcDbLine
 10
1295.9631205581
 20
881.8703462037
 30
0.0
 11
1295.9631205581
 21
885.1378387206
 31
0.0
  0
ELLIPSE
  5
4DF
330
1F
100
AcDbEntity
  8
0
  6
CONTINUOUS
 62
     7
100
AcDbEllipse
 10
1296.4629437361
 20
881.8701177673
 30
0.0
 11
0.5
 21
0.0
 31
0.0
210
0.0
220
0.0
230
1.0
 40
0.0174550649
 41
1.570796326794897
 42
3.115412714802969
  0
ELLIPSE
  5
4E0
330
1F
100
AcDbEntity
  8
0
  6
CONTINUOUS
 62
     7
100
AcDbEllipse
 10
1563.78057958
 20
878.7412811964
 30
0.0
 11
0.5
 21
0.0
 31
0.0
210
0.0
220
0.0
230
1.0
 40
0.0174550649
 41
4.71238898038469
 42
6.257005368394251
  0
LINE
  5
4E1
330
1F
100
AcDbEntity
  8
0
  6
CONTINUOUS
 62
     7
100
AcDbLine
 10
1564.280402758
 20
875.4735602432
 30
0.0
 11
1564.280402758
 21
878.74105276
 31
0.0
  0
LINE
  5
4E2
330
1F
100
AcDbEntity
  8
0
  6
CONTINUOUS
 62
     7
100
AcDbLine
 10
1295.1154233001
 20
881.3052866042
 30
0.0
 11
1299.2689878724
 21
881.3207013898
 31
0.0
  0
LINE
  5
4E3
330
1F
100
AcDbEntity
  8
0
  6
CONTINUOUS
 62
     7
100
AcDbLine
 10
1295.9631205581
 20
881.8703462037
 30
0.0
 11
1295.1154233001
 21
881.3052866042
 31
0.0
  0
LINE
  5
4E4
330
1F
100
AcDbEntity
  8
0
  6
CONTINUOUS
 62
     7
100
AcDbLine
 10
1297.548037865
 20
881.843935176
 30
0.0
 11
1297.5131244443
 21
881.8788453371
 31
0.0
  0
LINE
  5
4E5
330
1F
100
AcDbEntity
  8
0
  6
CONTINUOUS
 62
     7
100
AcDbLine
 10
1299.5305777572
 20
881.843935176
 30
0.0
 11
1297.548037865
 21
881.843935176
 31
0.0
  0
LINE
  5
4E6
330
1F
100
AcDbEntity
  8
0
  6
CONTINUOUS
 62
     7
100
AcDbLine
 10
1297.548037865
 20
878.7674637877
 30
0.0
 11
1299.5305777572
 21
878.7674637877
 31
0.0
  0
LINE
  5
4E7
330
1F
100
AcDbEntity
  8
0
  6
CONTINUOUS
 62
     7
100
AcDbLine
 10
1297.548037865
 20
878.7674637877
 30
0.0
 11
1297.5131244443
 21
878.7325536266
 31
0.0
  0
LINE
  5
4E8
330
1F
100
AcDbEntity
  8
0
  6
CONTINUOUS
 62
     7
100
AcDbLine
 10
1295.9631205581
 20
878.74105276
 30
0.0
 11
1295.1154233001
 21
879.3061123595
 31
0.0
  0
LINE
  5
4E9
330
1F
100
AcDbEntity
  8
0
  6
CONTINUOUS
 62
     7
100
AcDbLine
 10
1295.1154233001
 20
879.3061123595
 30
0.0
 11
1299.2689878724
 21
879.2906975739
 31
0.0
  0
LINE
  5
4EA
330
1F
100
AcDbEntity
  8
0
  6
CONTINUOUS
 62
     7
100
AcDbLine
 10
1297.521692612
 20
885.7604115636
 30
0.0
 11
1297.548037865
 21
885.7823139422
 31
0.0
  0
LINE
  5
4EB
330
1F
100
AcDbEntity
  8
0
  6
CONTINUOUS
 62
     7
100
AcDbLine
 10
1297.548037865
 20
881.843935176
 30
0.0
 11
1297.548037865
 21
885.7823139422
 31
0.0
  0
LINE
  5
4EC
330
1F
100
AcDbEntity
  8
0
  6
CONTINUOUS
 62
     7
100
AcDbLine
 10
1297.548037865
 20
874.8290850215
 30
0.0
 11
1297.548037865
 21
878.7674637877
 31
0.0
  0
LINE
  5
4ED
330
1F
100
AcDbEntity
  8
0
  6
CONTINUOUS
 62
     7
100
AcDbLine
 10
1297.521692612
 20
874.8509874002
 30
0.0
 11
1297.548037865
 21
874.8290850215
 31
0.0
  0
LINE
  5
4EE
330
1F
100
AcDbEntity
  8
0
  6
CONTINUOUS
 62
     7
100
AcDbLine
 10
1560.7129455589
 20
881.843935176
 30
0.0
 11
1562.6954854511
 21
881.843935176
 31
0.0
  0
LINE
  5
4EF
330
1F
100
AcDbEntity
  8
0
  6
CONTINUOUS
 62
     7
100
AcDbLine
 10
1562.6954854511
 20
881.843935176
 30
0.0
 11
1562.7303988717
 21
881.8788453371
 31
0.0
  0
LINE
  5
4F0
330
1F
100
AcDbEntity
  8
0
  6
CONTINUOUS
 62
     7
100
AcDbLine
 10
1564.280402758
 20
881.8703462037
 30
0.0
 11
1565.128100016
 21
881.3052866042
 31
0.0
  0
LINE
  5
4F1
330
1F
100
AcDbEntity
  8
0
  6
CONTINUOUS
 62
     7
100
AcDbLine
 10
1560.9745354436
 20
881.3207013898
 30
0.0
 11
1565.128100016
 21
881.3052866042
 31
0.0
  0
LINE
  5
4F2
330
1F
100
AcDbEntity
  8
0
  6
CONTINUOUS
 62
     7
100
AcDbLine
 10
1565.128100016
 20
879.3061123595
 30
0.0
 11
1560.9745354436
 21
879.2906975739
 31
0.0
  0
LINE
  5
4F3
330
1F
100
AcDbEntity
  8
0
  6
CONTINUOUS
 62
     7
100
AcDbLine
 10
1564.280402758
 20
878.74105276
 30
0.0
 11
1565.128100016
 21
879.3061123595
 31
0.0
  0
LINE
  5
4F4
330
1F
100
AcDbEntity
  8
0
  6
CONTINUOUS
 62
     7
100
AcDbLine
 10
1562.6954854511
 20
878.7674637877
 30
0.0
 11
1562.7303988717
 21
878.7325536266
 31
0.0
  0
LINE
  5
4F5
330
1F
100
AcDbEntity
  8
0
  6
CONTINUOUS
 62
     7
100
AcDbLine
 10
1562.6954854511
 20
878.7674637877
 30
0.0
 11
1560.7129455589
 21
878.7674637877
 31
0.0
  0
LINE
  5
4F6
330
1F
100
AcDbEntity
  8
0
  6
CONTINUOUS
 62
     7
100
AcDbLine
 10
1562.7218307041
 20
874.8509874002
 30
0.0
 11
1562.6954854511
 21
874.8290850215
 31
0.0
  0
LINE
  5
4F7
330
1F
100
AcDbEntity
  8
0
  6
CONTINUOUS
 62
     7
100
AcDbLine
 10
1562.6954854511
 20
874.8290850215
 30
0.0
 11
1562.6954854511
 21
878.7674637877
 31
0.0
  0
LINE
  5
4F8
330
1F
100
AcDbEntity
  8
0
  6
CONTINUOUS
 62
     7
100
AcDbLine
 10
1562.6954854511
 20
881.843935176
 30
0.0
 11
1562.6954854511
 21
885.7823139422
 31
0.0
  0
LINE
  5
4F9
330
1F
100
AcDbEntity
  8
0
  6
CONTINUOUS
 62
     7
100
AcDbLine
 10
1562.7218307041
 20
885.7604115636
 30
0.0
 11
1562.6954854511
 21
885.7823139422
 31
0.0
  0
ELLIPSE
  5
4FA
330
1F
100
AcDbEntity
  8
0
  6
CONTINUOUS
 62
     7
100
AcDbEllipse
 10
1300.6446278413
 20
882.5503094596
 30
0.0
 11
4.059273920933265
 21
-3.533773646897317
 31
0.0
210
0.0
220
0.0
230
1.0
 40
0.0761939035
 41
3.196472040252054
 42
3.366491298033999
  0
LINE
  5
4FB
330
1F
100
AcDbEntity
  8
0
  6
CONTINUOUS
 62
     7
100
AcDbLine
 10
1295.9631205581
 20
885.1378387206
 30
0.0
 11
1295.1154233001
 21
885.7029098452
 31
0.0
  0
ELLIPSE
  5
4FC
330
1F
100
AcDbEntity
  8
0
  6
CONTINUOUS
 62
     7
100
AcDbEllipse
 10
1295.9201727216
 20
885.6995463749
 30
0.0
 11
0.7658695557636294
 21
-0.2488989763322706
 31
0.0
210
0.0
220
0.0
230
0.9999999999999998
 40
0.9928989273
 41
1.883386160246153
 42
3.453710551942657
  0
LINE
  5
4FD
330
1F
100
AcDbEntity
  8
0
  6
CONTINUOUS
 62
     7
100
AcDbLine
 10
1296.5766907714
 20
886.0617977933
 30
0.0
 11
1295.9198028825
 21
886.4996698119
 31
0.0
  0
ELLIPSE
  5
4FE
330
1F
100
AcDbEntity
  8
0
  6
CONTINUOUS
 62
     7
100
AcDbEllipse
 10
1559.5988954747
 20
882.5503094596
 30
0.0
 11
4.059273920933265
 21
3.53377364689743
 31
0.0
210
0.0
220
0.0
230
1.0
 40
0.0761939035
 41
6.058286753853386
 42
6.22830592051749
  0
LINE
  5
4FF
330
1F
100
AcDbEntity
  8
0
  6
CONTINUOUS
 62
     7
100
AcDbLine
 10
1564.3237204336
 20
886.4996698119
 30
0.0
 11
1563.6668325446
 21
886.0617977933
 31
0.0
  0
ELLIPSE
  5
500
330
1F
100
AcDbEntity
  8
0
  6
CONTINUOUS
 62
     7
100
AcDbEllipse
 10
1564.3233505945
 20
885.6995463749
 30
0.0
 11
0.7658695557636294
 21
0.2488989763323844
 31
0.0
210
0.0
220
0.0
230
0.9999999999999999
 40
0.9928989273
 41
5.971069292951386
 42
7.54139180052313
  0
LINE
  5
501
330
1F
100
AcDbEntity
  8
0
  6
CONTINUOUS
 62
     7
100
AcDbLine
 10
1564.280402758
 20
885.1378387206
 30
0.0
 11
1565.128100016
 21
885.7029098452
 31
0.0
  0
ELLIPSE
  5
502
330
1F
100
AcDbEntity
  8
0
  6
CONTINUOUS
 62
     7
100
AcDbEllipse
 10
1559.5988954747
 20
878.0610895041
 30
0.0
 11
4.059273920933265
 21
-3.533773646897317
 31
0.0
210
0.0
220
0.0
230
1.0
 40
0.0761939035
 41
0.0548793866622664
 42
0.2248986446037027
  0
LINE
  5
503
330
1F
100
AcDbEntity
  8
0
  6
CONTINUOUS
 62
     7
100
AcDbLine
 10
1565.128100016
 20
874.9085002944
 30
0.0
 11
1564.280402758
 21
875.4735602432
 31
0.0
  0
ELLIPSE
  5
504
330
1F
100
AcDbEntity
  8
0
  6
CONTINUOUS
 62
     7
100
AcDbEllipse
 10
1564.3233505945
 20
874.9118525889
 30
0.0
 11
0.7658695557636294
 21
-0.2488989763323844
 31
0.0
210
0.0
220
0.0
230
0.9999999999999999
 40
0.9928989273
 41
5.024978813836107
 42
6.595303281137721
  0
LINE
  5
505
330
1F
100
AcDbEntity
  8
0
  6
CONTINUOUS
 62
     7
100
AcDbLine
 10
1563.6668325446
 20
874.5496011705
 30
0.0
 11
1564.3237204336
 21
874.1117291518
 31
0.0
  0
ELLIPSE
  5
506
330
1F
100
AcDbEntity
  8
0
  6
CONTINUOUS
 62
     7
100
AcDbEllipse
 10
1300.6446278413
 20
878.0610895041
 30
0.0
 11
4.059273920933265
 21
3.53377364689743
 31
0.0
210
0.0
220
0.0
230
1.0
 40
0.0761939035
 41
2.916694071146687
 42
3.086713266927284
  0
LINE
  5
507
330
1F
100
AcDbEntity
  8
0
  6
CONTINUOUS
 62
     7
100
AcDbLine
 10
1295.9198028825
 20
874.1117291518
 30
0.0
 11
1296.5766907714
 21
874.5496011705
 31
0.0
  0
ELLIPSE
  5
508
330
1F
100
AcDbEntity
  8
0
  6
CONTINUOUS
 62
     7
100
AcDbEllipse
 10
1295.9201727216
 20
874.9118525889
 30
0.0
 11
0.7658695557636294
 21
0.2488989763322706
 31
0.0
210
0.0
220
0.0
230
0.9999999999999998
 40
0.9928989273
 41
2.829474679631806
 42
4.399799146933421
  0
LINE
  5
509
330
1F
100
AcDbEntity
  8
0
  6
CONTINUOUS
 62
     7
100
AcDbLine
 10
1295.1154233001
 20
874.9084891186
 30
0.0
 11
1295.9631205581
 21
875.4735602432
 31
0.0
  0
LINE
  5
50A
330
1F
100
AcDbEntity
  8
0
  6
CONTINUOUS
 62
     7
100
AcDbLine
 10
1295.048114755
 20
874.9533402168
 30
0.0
 11
1295.1154233001
 21
874.908477477
 31
0.0
  0
LINE
  5
50B
330
1F
100
AcDbEntity
  8
0
  6
CONTINUOUS
 62
     7
100
AcDbLine
 10
1295.048114755
 20
885.658058747
 30
0.0
 11
1295.048114755
 21
874.9533402168
 31
0.0
  0
LINE
  5
50C
330
1F
100
AcDbEntity
  8
0
  6
CONTINUOUS
 62
     7
100
AcDbLine
 10
1295.1154233001
 20
885.7029214867
 30
0.0
 11
1295.048114755
 21
885.658058747
 31
0.0
  0
LINE
  5
50D
330
1F
100
AcDbEntity
  8
0
  6
CONTINUOUS
 62
     7
100
AcDbLine
 10
1295.1154233001
 20
881.3052866042
 30
0.0
 11
1295.1154233001
 21
879.3061123595
 31
0.0
  0
LINE
  5
50E
330
1F
100
AcDbEntity
  8
0
  6
CONTINUOUS
 62
     7
100
AcDbLine
 10
1565.128100016
 20
881.3052866042
 30
0.0
 11
1565.128100016
 21
879.3061123595
 31
0.0
  0
LINE
  5
50F
330
1F
100
AcDbEntity
  8
0
  6
CONTINUOUS
 62
     7
100
AcDbLine
 10
1565.128100016
 20
885.7029214867
 30
0.0
 11
1565.1954085611
 21
885.658058747
 31
0.0
  0
LINE
  5
510
330
1F
100
AcDbEntity
  8
0
  6
CONTINUOUS
 62
     7
100
AcDbLine
 10
1565.1954085611
 20
885.658058747
 30
0.0
 11
1565.1954085611
 21
874.9533402168
 31
0.0
  0
LINE
  5
511
330
1F
100
AcDbEntity
  8
0
  6
CONTINUOUS
 62
     7
100
AcDbLine
 10
1565.1954085611
 20
874.9533402168
 30
0.0
 11
1565.128100016
 21
874.908477477
 31
0.0
  0
LINE
  5
512
330
1F
100
AcDbEntity
  8
0
  6
CONTINUOUS
 62
     7
100
AcDbLine
 10
1296.6167003892
 20
886.4970835291
 30
0.0
 11
1296.5766907714
 21
886.0617977933
 31
0.0
  0
LINE
  5
513
330
1F
100
AcDbEntity
  8
0
  6
CONTINUOUS
 62
     7
100
AcDbLine
 10
1296.6167003892
 20
886.4970835291
 30
0.0
 11
1298.2161463283
 21
886.1946048581
 31
0.0
  0
LINE
  5
514
330
1F
100
AcDbEntity
  8
0
  6
CONTINUOUS
 62
     7
100
AcDbLine
 10
1298.2161463283
 20
886.1946048581
 30
0.0
 11
1298.1677175544
 21
885.667463708
 31
0.0
  0
LINE
  5
515
330
1F
100
AcDbEntity
  8
0
  6
CONTINUOUS
 62
     7
100
AcDbLine
 10
1297.548037865
 20
885.7823139422
 30
0.0
 11
1298.1677175544
 21
885.667463708
 31
0.0
  0
LINE
  5
516
330
1F
100
AcDbEntity
  8
0
  6
CONTINUOUS
 62
     7
100
AcDbLine
 10
1562.6954854511
 20
885.7823139422
 30
0.0
 11
1562.0758057617
 21
885.667463708
 31
0.0
  0
LINE
  5
517
330
1F
100
AcDbEntity
  8
0
  6
CONTINUOUS
 62
     7
100
AcDbLine
 10
1562.0273769878
 20
886.1946048581
 30
0.0
 11
1562.0758057617
 21
885.667463708
 31
0.0
  0
LINE
  5
518
330
1F
100
AcDbEntity
  8
0
  6
CONTINUOUS
 62
     7
100
AcDbLine
 10
1562.0273769878
 20
886.1946048581
 30
0.0
 11
1563.6268229268
 21
886.4970835291
 31
0.0
  0
LINE
  5
519
330
1F
100
AcDbEntity
  8
0
  6
CONTINUOUS
 62
     7
100
AcDbLine
 10
1563.6268229268
 20
886.4970835291
 30
0.0
 11
1563.6668325446
 21
886.0617977933
 31
0.0
  0
LINE
  5
51A
330
1F
100
AcDbEntity
  8
0
  6
CONTINUOUS
 62
     7
100
AcDbLine
 10
1563.6268229268
 20
874.1143154346
 30
0.0
 11
1563.6668325446
 21
874.5496011705
 31
0.0
  0
LINE
  5
51B
330
1F
100
AcDbEntity
  8
0
  6
CONTINUOUS
 62
     7
100
AcDbLine
 10
1562.0273769878
 20
874.4167941057
 30
0.0
 11
1563.6268229268
 21
874.1143154346
 31
0.0
  0
LINE
  5
51C
330
1F
100
AcDbEntity
  8
0
  6
CONTINUOUS
 62
     7
100
AcDbLine
 10
1562.0273769878
 20
874.4167941057
 30
0.0
 11
1562.0758057617
 21
874.9439352558
 31
0.0
  0
LINE
  5
51D
330
1F
100
AcDbEntity
  8
0
  6
CONTINUOUS
 62
     7
100
AcDbLine
 10
1562.0758057617
 20
874.9439352558
 30
0.0
 11
1562.6954854511
 21
874.8290850215
 31
0.0
  0
LINE
  5
51E
330
1F
100
AcDbEntity
  8
0
  6
CONTINUOUS
 62
     7
100
AcDbLine
 10
1298.1677175544
 20
874.9439352558
 30
0.0
 11
1297.548037865
 21
874.8290850215
 31
0.0
  0
LINE
  5
51F
330
1F
100
AcDbEntity
  8
0
  6
CONTINUOUS
 62
     7
100
AcDbLine
 10
1298.2161463283
 20
874.4167941057
 30
0.0
 11
1298.1677175544
 21
874.9439352558
 31
0.0
  0
LINE
  5
520
330
1F
100
AcDbEntity
  8
0
  6
CONTINUOUS
 62
     7
100
AcDbLine
 10
1298.2161463283
 20
874.4167941057
 30
0.0
 11
1296.6167003892
 21
874.1143154346
 31
0.0
  0
LINE
  5
521
330
1F
100
AcDbEntity
  8
0
  6
CONTINUOUS
 62
     7
100
AcDbLine
 10
1296.6167003892
 20
874.1143154346
 30
0.0
 11
1296.5766907714
 21
874.5496011705
 31
0.0
  0
LINE
  5
522
330
1F
100
AcDbEntity
  8
0
  6
CONTINUOUS
 62
     7
100
AcDbLine
 10
1298.1677175544
 20
874.9439352558
 30
0.0
 11
1299.5305777572
 21
874.9439352558
 31
0.0
  0
LINE
  5
523
330
1F
100
AcDbEntity
  8
0
  6
CONTINUOUS
 62
     7
100
AcDbLine
 10
1299.2689878724
 20
874.4207014695
 30
0.0
 11
1298.2161463283
 21
874.4167941057
 31
0.0
  0
LINE
  5
524
330
1F
100
AcDbEntity
  8
0
  6
CONTINUOUS
 62
     7
100
AcDbLine
 10
1298.1677175544
 20
885.667463708
 30
0.0
 11
1299.5305777572
 21
885.667463708
 31
0.0
  0
LINE
  5
525
330
1F
100
AcDbEntity
  8
0
  6
CONTINUOUS
 62
     7
100
AcDbLine
 10
1299.2689878724
 20
886.1906974942
 30
0.0
 11
1298.2161463283
 21
886.1946048581
 31
0.0
  0
LINE
  5
526
330
1F
100
AcDbEntity
  8
0
  6
CONTINUOUS
 62
     7
100
AcDbLine
 10
1562.0758057617
 20
885.667463708
 30
0.0
 11
1560.7129455589
 21
885.667463708
 31
0.0
  0
LINE
  5
527
330
1F
100
AcDbEntity
  8
0
  6
CONTINUOUS
 62
     7
100
AcDbLine
 10
1562.0758057617
 20
874.9439352558
 30
0.0
 11
1560.7129455589
 21
874.9439352558
 31
0.0
  0
LINE
  5
528
330
1F
100
AcDbEntity
  8
0
  6
CONTINUOUS
 62
     7
100
AcDbLine
 10
1560.9745354436
 20
874.4207014695
 30
0.0
 11
1562.0273769878
 21
874.4167941057
 31
0.0
  0
LINE
  5
529
330
1F
100
AcDbEntity
  8
0
  6
CONTINUOUS
 62
     7
100
AcDbLine
 10
1562.0273769878
 20
886.1946048581
 30
0.0
 11
1560.9745354436
 21
886.1906974942
 31
0.0
  0
LINE
  5
52A
330
1F
100
AcDbEntity
  8
0
  6
CONTINUOUS
 62
     7
100
AcDbLine
 10
1296.6167003892
 20
874.1143154346
 30
0.0
 11
1295.9198028825
 21
874.1117291518
 31
0.0
  0
LINE
  5
52B
330
1F
100
AcDbEntity
  8
0
  6
CONTINUOUS
 62
     7
100
AcDbLine
 10
1563.6268229268
 20
874.1143154346
 30
0.0
 11
1564.3237204336
 21
874.1117291518
 31
0.0
  0
LINE
  5
52C
330
1F
100
AcDbEntity
  8
0
  6
CONTINUOUS
 62
     7
100
AcDbLine
 10
1296.6167003892
 20
886.4970835291
 30
0.0
 11
1295.9198028825
 21
886.4996698119
 31
0.0
  0
LINE
  5
52D
330
1F
100
AcDbEntity
  8
0
  6
CONTINUOUS
 62
     7
100
AcDbLine
 10
1563.6268229268
 20
886.4970835291
 30
0.0
 11
1564.3237204336
 21
886.4996698119
 31
0.0
  0
LINE
  5
52E
330
1F
100
AcDbEntity
  8
0
  6
CONTINUOUS
 62
     7
100
AcDbLine
 10
1293.071043589
 20
885.6953344673
 30
0.0
 11
1295.1154233001
 21
885.7029214867
 31
0.0
  0
LINE
  5
52F
330
1F
100
AcDbEntity
  8
0
  6
CONTINUOUS
 62
     7
100
AcDbLine
 10
1293.071043589
 20
1013.4093085669
 30
0.0
 11
1293.071043589
 21
885.6953344673
 31
0.0
  0
LINE
  5
530
330
1F
100
AcDbEntity
  8
0
  6
CONTINUOUS
 62
     7
100
AcDbLine
 10
1297.0335156701
 20
1009.4458977126
 30
0.0
 11
1293.071043589
 21
1013.4093085669
 31
0.0
  0
LINE
  5
531
330
1F
100
AcDbEntity
  8
0
  6
CONTINUOUS
 62
     7
100
AcDbLine
 10
1294.0028430007
 20
891.4246246584
 30
0.0
 11
1298.1716365598
 21
891.4555762329
 31
0.0
  0
LINE
  5
532
330
1F
100
AcDbEntity
  8
0
  6
CONTINUOUS
 62
     7
100
AcDbLine
 10
1294.0028430007
 20
886.6867743798
 30
0.0
 11
1294.0028430007
 21
891.4246246584
 31
0.0
  0
LINE
  5
533
330
1F
100
AcDbEntity
  8
0
  6
CONTINUOUS
 62
     7
100
AcDbLine
 10
1298.1716365598
 20
886.6558223397
 30
0.0
 11
1294.0028430007
 21
886.6867743798
 31
0.0
  0
LINE
  5
534
330
1F
100
AcDbEntity
  8
0
  6
CONTINUOUS
 62
     7
100
AcDbLine
 10
1298.1716365598
 20
891.4555762329
 30
0.0
 11
1298.1716365598
 21
886.6558223397
 31
0.0
  0
LINE
  5
535
330
1F
100
AcDbEntity
  8
0
  6
CONTINUOUS
 62
     7
100
AcDbLine
 10
1297.0335156701
 20
751.1655012511
 30
0.0
 11
1293.071043589
 21
747.2020903968
 31
0.0
  0
LINE
  5
536
330
1F
100
AcDbEntity
  8
0
  6
CONTINUOUS
 62
     7
100
AcDbLine
 10
1293.071043589
 20
874.9160644964
 30
0.0
 11
1293.071043589
 21
747.2020903968
 31
0.0
  0
LINE
  5
537
330
1F
100
AcDbEntity
  8
0
  6
CONTINUOUS
 62
     7
100
AcDbLine
 10
1295.1154233001
 20
874.908477477
 30
0.0
 11
1293.071043589
 21
874.9160644964
 31
0.0
  0
LINE
  5
538
330
1F
100
AcDbEntity
  8
0
  6
CONTINUOUS
 62
     7
100
AcDbLine
 10
1294.0028430007
 20
874.024624414
 30
0.0
 11
1298.1716365598
 21
874.0555769198
 31
0.0
  0
LINE
  5
539
330
1F
100
AcDbEntity
  8
0
  6
CONTINUOUS
 62
     7
100
AcDbLine
 10
1294.0028430007
 20
869.2867741354
 30
0.0
 11
1294.0028430007
 21
874.024624414
 31
0.0
  0
LINE
  5
53A
330
1F
100
AcDbEntity
  8
0
  6
CONTINUOUS
 62
     7
100
AcDbLine
 10
1298.1716365598
 20
869.255822561
 30
0.0
 11
1294.0028430007
 21
869.2867741354
 31
0.0
  0
LINE
  5
53B
330
1F
100
AcDbEntity
  8
0
  6
CONTINUOUS
 62
     7
100
AcDbLine
 10
1298.1716365598
 20
874.0555769198
 30
0.0
 11
1298.1716365598
 21
869.255822561
 31
0.0
  0
LINE
  5
53C
330
1F
100
AcDbEntity
  8
0
  6
CONTINUOUS
 62
     7
100
AcDbLine
 10
1563.2100076459
 20
1009.4458977126
 30
0.0
 11
1567.1724797271
 21
1013.4093085669
 31
0.0
  0
LINE
  5
53D
330
1F
100
AcDbEntity
  8
0
  6
CONTINUOUS
 62
     7
100
AcDbLine
 10
1567.1724797271
 20
1013.4093085669
 30
0.0
 11
1567.1724797271
 21
885.6953344673
 31
0.0
  0
LINE
  5
53E
330
1F
100
AcDbEntity
  8
0
  6
CONTINUOUS
 62
     7
100
AcDbLine
 10
1567.1724797271
 20
885.6953344673
 30
0.0
 11
1565.128100016
 21
885.7029214867
 31
0.0
  0
LINE
  5
53F
330
1F
100
AcDbEntity
  8
0
  6
CONTINUOUS
 62
     7
100
AcDbLine
 10
1562.0718867563
 20
891.4555762329
 30
0.0
 11
1562.0718867563
 21
886.6558223397
 31
0.0
  0
LINE
  5
540
330
1F
100
AcDbEntity
  8
0
  6
CONTINUOUS
 62
     7
100
AcDbLine
 10
1562.0718867563
 20
886.6558223397
 30
0.0
 11
1566.2406803153
 21
886.6867743798
 31
0.0
  0
LINE
  5
541
330
1F
100
AcDbEntity
  8
0
  6
CONTINUOUS
 62
     7
100
AcDbLine
 10
1566.2406803153
 20
886.6867743798
 30
0.0
 11
1566.2406803153
 21
891.4246246584
 31
0.0
  0
LINE
  5
542
330
1F
100
AcDbEntity
  8
0
  6
CONTINUOUS
 62
     7
100
AcDbLine
 10
1566.2406803153
 20
891.4246246584
 30
0.0
 11
1562.0718867563
 21
891.4555762329
 31
0.0
  0
LINE
  5
543
330
1F
100
AcDbEntity
  8
0
  6
CONTINUOUS
 62
     7
100
AcDbLine
 10
1565.128100016
 20
874.908477477
 30
0.0
 11
1567.1724797271
 21
874.9160644964
 31
0.0
  0
LINE
  5
544
330
1F
100
AcDbEntity
  8
0
  6
CONTINUOUS
 62
     7
100
AcDbLine
 10
1567.1724797271
 20
874.9160644964
 30
0.0
 11
1567.1724797271
 21
747.2020903968
 31
0.0
  0
LINE
  5
545
330
1F
100
AcDbEntity
  8
0
  6
CONTINUOUS
 62
     7
100
AcDbLine
 10
1567.1724797271
 20
747.2020903968
 30
0.0
 11
1563.2100076459
 21
751.1655012511
 31
0.0
  0
LINE
  5
546
330
1F
100
AcDbEntity
  8
0
  6
CONTINUOUS
 62
     7
100
AcDbLine
 10
1562.0718867563
 20
874.0555769198
 30
0.0
 11
1562.0718867563
 21
869.255822561
 31
0.0
  0
LINE
  5
547
330
1F
100
AcDbEntity
  8
0
  6
CONTINUOUS
 62
     7
100
AcDbLine
 10
1562.0718867563
 20
869.255822561
 30
0.0
 11
1566.2406803153
 21
869.2867741354
 31
0.0
  0
LINE
  5
548
330
1F
100
AcDbEntity
  8
0
  6
CONTINUOUS
 62
     7
100
AcDbLine
 10
1566.2406803153
 20
869.2867741354
 30
0.0
 11
1566.2406803153
 21
874.024624414
 31
0.0
  0
LINE
  5
549
330
1F
100
AcDbEntity
  8
0
  6
CONTINUOUS
 62
     7
100
AcDbLine
 10
1566.2406803153
 20
874.024624414
 30
0.0
 11
1562.0718867563
 21
874.0555769198
 31
0.0
  0
LINE
  5
54A
330
1F
100
AcDbEntity
  8
0
  6
CONTINUOUS
 62
     7
100
AcDbLine
 10
1304.2314321779
 20
747.3669270419
 30
0.0
 11
1298.5681564592
 21
741.7049924277
 31
0.0
  0
LINE
  5
54B
330
1F
100
AcDbEntity
  8
0
  6
CONTINUOUS
 62
     7
100
AcDbLine
 10
1296.4548439763
 20
741.8366143846
 30
0.0
 11
1298.5681564592
 21
741.7049924277
 31
0.0
  0
ARC
  5
54C
330
1F
100
AcDbEntity
  8
0
  6
CONTINUOUS
 62
     7
100
AcDbCircle
 10
1296.6116181129
 20
745.2455520505
 30
0.0
 40
3.409397295532326
100
AcDbArc
 50
182.8035272947
 51
267.1964727053
  0
LINE
  5
54D
330
1F
100
AcDbEntity
  8
0
  6
CONTINUOUS
 62
     7
100
AcDbLine
 10
1293.2062865279
 20
745.0787941359
 30
0.0
 11
1293.2058543943
 21
745.0888971232
 31
0.0
  0
LINE
  5
54E
330
1F
100
AcDbEntity
  8
0
  6
CONTINUOUS
 62
     7
100
AcDbLine
 10
1293.071043589
 20
747.2020903968
 30
0.0
 11
1293.2026804469
 21
745.0887779139
 31
0.0
  0
LINE
  5
54F
330
1F
100
AcDbEntity
  8
0
  6
CONTINUOUS
 62
     7
100
AcDbLine
 10
1561.6753668569
 20
1018.906406536
 30
0.0
 11
1556.0120911382
 21
1013.2444719218
 31
0.0
  0
LINE
  5
550
330
1F
100
AcDbEntity
  8
0
  6
CONTINUOUS
 62
     7
100
AcDbLine
 10
1563.7886793397
 20
1018.7747845792
 30
0.0
 11
1561.6753668569
 21
1018.906406536
 31
0.0
  0
ARC
  5
551
330
1F
100
AcDbEntity
  8
0
  6
CONTINUOUS
 62
     7
100
AcDbCircle
 10
1563.6319052032
 20
1015.3658469132
 30
0.0
 40
3.409397295532104
100
AcDbArc
 50
2.8035272947
 51
87.1964727053
  0
LINE
  5
552
330
1F
100
AcDbEntity
  8
0
  6
CONTINUOUS
 62
     7
100
AcDbLine
 10
1567.0372367881
 20
1015.5326048278
 30
0.0
 11
1567.0376689218
 21
1015.5225018405
 31
0.0
  0
LINE
  5
553
330
1F
100
AcDbEntity
  8
0
  6
CONTINUOUS
 62
     7
100
AcDbLine
 10
1567.1724797271
 20
1013.4093085669
 30
0.0
 11
1567.0408428691
 21
1015.5226210498
 31
0.0
  0
LINE
  5
554
330
1F
100
AcDbEntity
  8
0
  6
CONTINUOUS
 62
     7
100
AcDbLine
 10
1293.071043589
 20
1013.4093085669
 30
0.0
 11
1293.2058543943
 21
1015.5225018405
 31
0.0
  0
LINE
  5
555
330
1F
100
AcDbEntity
  8
0
  6
CONTINUOUS
 62
     7
100
AcDbLine
 10
1293.2058543943
 20
1015.5225018405
 30
0.0
 11
1293.2062865279
 21
1015.5326048278
 31
0.0
  0
ARC
  5
556
330
1F
100
AcDbEntity
  8
0
  6
CONTINUOUS
 62
     7
100
AcDbCircle
 10
1296.6116181129
 20
1015.3658469132
 30
0.0
 40
3.409397295531877
100
AcDbArc
 50
92.8035272947
 51
177.1964727053
  0
LINE
  5
557
330
1F
100
AcDbEntity
  8
0
  6
CONTINUOUS
 62
     7
100
AcDbLine
 10
1296.4448601983
 20
1018.771163597
 30
0.0
 11
1298.5681564592
 21
1018.906406536
 31
0.0
  0
LINE
  5
558
330
1F
100
AcDbEntity
  8
0
  6
CONTINUOUS
 62
     7
100
AcDbLine
 10
1298.5681564592
 20
1018.906406536
 30
0.0
 11
1304.2314321779
 21
1013.2444719218
 31
0.0
  0
LINE
  5
559
330
1F
100
AcDbEntity
  8
0
  6
CONTINUOUS
 62
     7
100
AcDbLine
 10
1567.1724797271
 20
747.2020903968
 30
0.0
 11
1567.0376689218
 21
745.0888971232
 31
0.0
  0
LINE
  5
55A
330
1F
100
AcDbEntity
  8
0
  6
CONTINUOUS
 62
     7
100
AcDbLine
 10
1567.0376689218
 20
745.0888971232
 30
0.0
 11
1567.0372367881
 21
745.0787941359
 31
0.0
  0
ARC
  5
55B
330
1F
100
AcDbEntity
  8
0
  6
CONTINUOUS
 62
     7
100
AcDbCircle
 10
1563.6319052032
 20
745.2455520505
 30
0.0
 40
3.409397295532099
100
AcDbArc
 50
272.8035272947
 51
357.1964727053
  0
LINE
  5
55C
330
1F
100
AcDbEntity
  8
0
  6
CONTINUOUS
 62
     7
100
AcDbLine
 10
1563.7986631177
 20
741.8402353667
 30
0.0
 11
1561.6753668569
 21
741.7049924277
 31
0.0
  0
LINE
  5
55D
330
1F
100
AcDbEntity
  8
0
  6
CONTINUOUS
 62
     7
100
AcDbLine
 10
1561.6753668569
 20
741.7049924277
 30
0.0
 11
1556.0120911382
 21
747.3669270419
 31
0.0
  0
LINE
  5
55E
330
1F
100
AcDbEntity
  8
0
  6
CONTINUOUS
 62
     7
100
AcDbLine
 10
1298.5681564592
 20
741.7049924277
 30
0.0
 11
1561.6753668569
 21
741.7049924277
 31
0.0
  0
LINE
  5
55F
330
1F
100
AcDbEntity
  8
0
  6
CONTINUOUS
 62
     7
100
AcDbLine
 10
1298.5681564592
 20
1018.906406536
 30
0.0
 11
1561.6753668569
 21
1018.906406536
 31
0.0
  0
LINE
  5
560
330
1F
100
AcDbEntity
  8
0
  6
CONTINUOUS
 62
     7
100
AcDbLine
 10
1298.027631738
 20
869.3998227262
 30
0.0
 11
1294.1447020553
 21
869.4286443659
 31
0.0
  0
LINE
  5
561
330
1F
100
AcDbEntity
  8
0
  6
CONTINUOUS
 62
     7
100
AcDbLine
 10
1298.1716365598
 20
869.255822561
 30
0.0
 11
1298.027631738
 21
869.3998227262
 31
0.0
  0
LINE
  5
562
330
1F
100
AcDbEntity
  8
0
  6
CONTINUOUS
 62
     7
100
AcDbLine
 10
1294.1447020553
 20
869.4286443659
 30
0.0
 11
1294.0028430007
 21
869.2867741354
 31
0.0
  0
LINE
  5
563
330
1F
100
AcDbEntity
  8
0
  6
CONTINUOUS
 62
     7
100
AcDbLine
 10
1294.1447020553
 20
873.8827546493
 30
0.0
 11
1298.027631738
 21
873.911576289
 31
0.0
  0
LINE
  5
564
330
1F
100
AcDbEntity
  8
0
  6
CONTINUOUS
 62
     7
100
AcDbLine
 10
1294.0028430007
 20
874.024624414
 30
0.0
 11
1294.1447020553
 21
873.8827546493
 31
0.0
  0
LINE
  5
565
330
1F
100
AcDbEntity
  8
0
  6
CONTINUOUS
 62
     7
100
AcDbLine
 10
1298.1716365598
 20
874.0555769198
 30
0.0
 11
1298.027631738
 21
873.911576289
 31
0.0
  0
LINE
  5
566
330
1F
100
AcDbEntity
  8
0
  6
CONTINUOUS
 62
     7
100
AcDbLine
 10
1294.1447020553
 20
891.282754428
 30
0.0
 11
1298.027631738
 21
891.3115760677
 31
0.0
  0
LINE
  5
567
330
1F
100
AcDbEntity
  8
0
  6
CONTINUOUS
 62
     7
100
AcDbLine
 10
1294.0028430007
 20
891.4246246584
 30
0.0
 11
1294.1447020553
 21
891.282754428
 31
0.0
  0
LINE
  5
568
330
1F
100
AcDbEntity
  8
0
  6
CONTINUOUS
 62
     7
100
AcDbLine
 10
1298.1716365598
 20
891.4555762329
 30
0.0
 11
1298.027631738
 21
891.3115760677
 31
0.0
  0
LINE
  5
569
330
1F
100
AcDbEntity
  8
0
  6
CONTINUOUS
 62
     7
100
AcDbLine
 10
1298.027631738
 20
886.7998225049
 30
0.0
 11
1294.1447020553
 21
886.8286441446
 31
0.0
  0
LINE
  5
56A
330
1F
100
AcDbEntity
  8
0
  6
CONTINUOUS
 62
     7
100
AcDbLine
 10
1298.1716365598
 20
886.6558223397
 30
0.0
 11
1298.027631738
 21
886.7998225049
 31
0.0
  0
LINE
  5
56B
330
1F
100
AcDbEntity
  8
0
  6
CONTINUOUS
 62
     7
100
AcDbLine
 10
1294.1447020553
 20
886.8286441446
 30
0.0
 11
1294.0028430007
 21
886.6867743798
 31
0.0
  0
LINE
  5
56C
330
1F
100
AcDbEntity
  8
0
  6
CONTINUOUS
 62
     7
100
AcDbLine
 10
1298.027631738
 20
873.911576289
 30
0.0
 11
1298.027631738
 21
869.3998227262
 31
0.0
  0
LINE
  5
56D
330
1F
100
AcDbEntity
  8
0
  6
CONTINUOUS
 62
     7
100
AcDbLine
 10
1298.027631738
 20
891.3115760677
 30
0.0
 11
1298.027631738
 21
886.7998225049
 31
0.0
  0
LINE
  5
56E
330
1F
100
AcDbEntity
  8
0
  6
CONTINUOUS
 62
     7
100
AcDbLine
 10
1562.0718867563
 20
891.4555762329
 30
0.0
 11
1562.215891578
 21
891.3115760677
 31
0.0
  0
LINE
  5
56F
330
1F
100
AcDbEntity
  8
0
  6
CONTINUOUS
 62
     7
100
AcDbLine
 10
1566.2406803153
 20
891.4246246584
 30
0.0
 11
1566.0988212608
 21
891.282754428
 31
0.0
  0
LINE
  5
570
330
1F
100
AcDbEntity
  8
0
  6
CONTINUOUS
 62
     7
100
AcDbLine
 10
1566.0988212608
 20
891.282754428
 30
0.0
 11
1562.215891578
 21
891.3115760677
 31
0.0
  0
LINE
  5
571
330
1F
100
AcDbEntity
  8
0
  6
CONTINUOUS
 62
     7
100
AcDbLine
 10
1562.215891578
 20
869.3998227262
 30
0.0
 11
1562.0718867563
 21
869.255822561
 31
0.0
  0
LINE
  5
572
330
1F
100
AcDbEntity
  8
0
  6
CONTINUOUS
 62
     7
100
AcDbLine
 10
1562.0718867563
 20
874.0555769198
 30
0.0
 11
1562.215891578
 21
873.911576289
 31
0.0
  0
LINE
  5
573
330
1F
100
AcDbEntity
  8
0
  6
CONTINUOUS
 62
     7
100
AcDbLine
 10
1562.215891578
 20
873.911576289
 30
0.0
 11
1562.215891578
 21
869.3998227262
 31
0.0
  0
LINE
  5
574
330
1F
100
AcDbEntity
  8
0
  6
CONTINUOUS
 62
     7
100
AcDbLine
 10
1562.215891578
 20
886.7998225049
 30
0.0
 11
1562.0718867563
 21
886.6558223397
 31
0.0
  0
LINE
  5
575
330
1F
100
AcDbEntity
  8
0
  6
CONTINUOUS
 62
     7
100
AcDbLine
 10
1562.215891578
 20
891.3115760677
 30
0.0
 11
1562.215891578
 21
886.7998225049
 31
0.0
  0
LINE
  5
576
330
1F
100
AcDbEntity
  8
0
  6
CONTINUOUS
 62
     7
100
AcDbLine
 10
1566.2406803153
 20
869.2867741354
 30
0.0
 11
1566.0988212608
 21
869.4286443659
 31
0.0
  0
LINE
  5
577
330
1F
100
AcDbEntity
  8
0
  6
CONTINUOUS
 62
     7
100
AcDbLine
 10
1562.215891578
 20
869.3998227262
 30
0.0
 11
1566.0988212608
 21
869.4286443659
 31
0.0
  0
LINE
  5
578
330
1F
100
AcDbEntity
  8
0
  6
CONTINUOUS
 62
     7
100
AcDbLine
 10
1566.2406803153
 20
886.6867743798
 30
0.0
 11
1566.0988212608
 21
886.8286441446
 31
0.0
  0
LINE
  5
579
330
1F
100
AcDbEntity
  8
0
  6
CONTINUOUS
 62
     7
100
AcDbLine
 10
1562.215891578
 20
886.7998225049
 30
0.0
 11
1566.0988212608
 21
886.8286441446
 31
0.0
  0
LINE
  5
57A
330
1F
100
AcDbEntity
  8
0
  6
CONTINUOUS
 62
     7
100
AcDbLine
 10
1566.2406803153
 20
874.024624414
 30
0.0
 11
1566.0988212608
 21
873.8827546493
 31
0.0
  0
LINE
  5
57B
330
1F
100
AcDbEntity
  8
0
  6
CONTINUOUS
 62
     7
100
AcDbLine
 10
1566.0988212608
 20
873.8827546493
 30
0.0
 11
1562.215891578
 21
873.911576289
 31
0.0
  0
LINE
  5
57C
330
1F
100
AcDbEntity
  8
0
  6
CONTINUOUS
 62
     7
100
AcDbLine
 10
1566.738081076
 20
885.6523334414
 30
0.0
 11
1565.1954085611
 21
885.658058747
 31
0.0
  0
LINE
  5
57D
330
1F
100
AcDbEntity
  8
0
  6
CONTINUOUS
 62
     7
100
AcDbLine
 10
1566.738081076
 20
885.6523334414
 30
0.0
 11
1567.1724797271
 21
885.6953344673
 31
0.0
  0
LINE
  5
57E
330
1F
100
AcDbEntity
  8
0
  6
CONTINUOUS
 62
     7
100
AcDbLine
 10
1565.1954085611
 20
874.9533402168
 30
0.0
 11
1566.738081076
 21
874.9590655223
 31
0.0
  0
LINE
  5
57F
330
1F
100
AcDbEntity
  8
0
  6
CONTINUOUS
 62
     7
100
AcDbLine
 10
1567.1724797271
 20
874.9160644964
 30
0.0
 11
1566.738081076
 21
874.9590655223
 31
0.0
  0
LINE
  5
580
330
1F
100
AcDbEntity
  8
0
  6
CONTINUOUS
 62
     7
100
AcDbLine
 10
1293.071043589
 20
874.9160644964
 30
0.0
 11
1293.5054422401
 21
874.9590655223
 31
0.0
  0
LINE
  5
581
330
1F
100
AcDbEntity
  8
0
  6
CONTINUOUS
 62
     7
100
AcDbLine
 10
1295.048114755
 20
874.9533402168
 30
0.0
 11
1293.5054422401
 21
874.9590655223
 31
0.0
  0
LINE
  5
582
330
1F
100
AcDbEntity
  8
0
  6
CONTINUOUS
 62
     7
100
AcDbLine
 10
1293.5054422401
 20
885.6523334414
 30
0.0
 11
1293.071043589
 21
885.6953344673
 31
0.0
  0
LINE
  5
583
330
1F
100
AcDbEntity
  8
0
  6
CONTINUOUS
 62
     7
100
AcDbLine
 10
1295.048114755
 20
885.658058747
 30
0.0
 11
1293.5054422401
 21
885.6523334414
 31
0.0
  0
LINE
  5
584
330
1F
100
AcDbEntity
  8
0
  6
CONTINUOUS
 62
     7
100
AcDbLine
 10
1294.1447020553
 20
886.8286441446
 30
0.0
 11
1294.1447020553
 21
891.282754428
 31
0.0
  0
LINE
  5
585
330
1F
100
AcDbEntity
  8
0
  6
CONTINUOUS
 62
     7
100
AcDbLine
 10
1294.1447020553
 20
869.4286443659
 30
0.0
 11
1294.1447020553
 21
873.8827546493
 31
0.0
  0
LINE
  5
586
330
1F
100
AcDbEntity
  8
0
  6
CONTINUOUS
 62
     7
100
AcDbLine
 10
1566.0988212608
 20
886.8286441446
 30
0.0
 11
1566.0988212608
 21
891.282754428
 31
0.0
  0
LINE
  5
587
330
1F
100
AcDbEntity
  8
0
  6
CONTINUOUS
 62
     7
100
AcDbLine
 10
1566.0988212608
 20
869.4286443659
 30
0.0
 11
1566.0988212608
 21
873.8827546493
 31
0.0
  0
LINE
  5
588
330
1F
100
AcDbEntity
  8
0
  6
CONTINUOUS
 62
     7
100
AcDbLine
 10
1298.5681564592
 20
741.7049924277
 30
0.0
 11
1298.5681564592
 21
739.7264311456
 31
0.0
  0
LINE
  5
589
330
1F
100
AcDbEntity
  8
0
  6
CONTINUOUS
 62
     7
100
AcDbLine
 10
1296.5868533634
 20
739.7241363667
 30
0.0
 11
1298.5681564592
 21
739.7264311456
 31
0.0
  0
ARC
  5
58A
330
1F
100
AcDbEntity
  8
0
  6
CONTINUOUS
 62
     7
100
AcDbCircle
 10
1305.9971749529
 20
741.4183954088
 30
0.0
 40
9.561624659077674
100
AcDbArc
 50
177.4714028642
 51
190.2063395335
  0
ARC
  5
58B
330
1F
100
AcDbEntity
  8
0
  6
CONTINUOUS
 62
     7
100
AcDbCircle
 10
1567.4590129268
 20
1005.9819708181
 30
0.0
 40
9.559943392549776
100
AcDbArc
 50
79.7922743396
 51
92.5287486512
  0
LINE
  5
58C
330
1F
100
AcDbEntity
  8
0
  6
CONTINUOUS
 62
     7
100
AcDbLine
 10
1569.1510261081
 20
1013.4093085669
 30
0.0
 11
1569.1533208869
 21
1015.3906116628
 31
0.0
  0
LINE
  5
58D
330
1F
100
AcDbEntity
  8
0
  6
CONTINUOUS
 62
     7
100
AcDbLine
 10
1567.1724797271
 20
1013.4093085669
 30
0.0
 11
1569.1510261081
 21
1013.4093085669
 31
0.0
  0
ARC
  5
58E
330
1F
100
AcDbEntity
  8
0
  6
CONTINUOUS
 62
     7
100
AcDbCircle
 10
1292.7845103892
 20
754.6294281457
 30
0.0
 40
9.559943392547732
100
AcDbArc
 50
259.7922743396
 51
272.5287486512
  0
LINE
  5
58F
330
1F
100
AcDbEntity
  8
0
  6
CONTINUOUS
 62
     7
100
AcDbLine
 10
1291.092497208
 20
747.2020903968
 30
0.0
 11
1291.0902024291
 21
745.220787301
 31
0.0
  0
LINE
  5
590
330
1F
100
AcDbEntity
  8
0
  6
CONTINUOUS
 62
     7
100
AcDbLine
 10
1293.071043589
 20
747.2020903968
 30
0.0
 11
1291.092497208
 21
747.2020903968
 31
0.0
  0
LINE
  5
591
330
1F
100
AcDbEntity
  8
0
  6
CONTINUOUS
 62
     7
100
AcDbLine
 10
1561.6753668569
 20
1020.8849678182
 30
0.0
 11
1561.6753668569
 21
1018.906406536
 31
0.0
  0
LINE
  5
592
330
1F
100
AcDbEntity
  8
0
  6
CONTINUOUS
 62
     7
100
AcDbLine
 10
1563.6566699527
 20
1020.887262597
 30
0.0
 11
1561.6753668569
 21
1020.8849678182
 31
0.0
  0
ARC
  5
593
330
1F
100
AcDbEntity
  8
0
  6
CONTINUOUS
 62
     7
100
AcDbCircle
 10
1554.2463483632
 20
1019.1930035549
 30
0.0
 40
9.561624659048466
100
AcDbArc
 50
357.4714028642
 51
10.2063395335
  0
LINE
  5
594
330
1F
100
AcDbEntity
  8
0
  6
CONTINUOUS
 62
     7
100
AcDbLine
 10
1567.1724797271
 20
747.2020903968
 30
0.0
 11
1569.1510261081
 21
747.2020903968
 31
0.0
  0
LINE
  5
595
330
1F
100
AcDbEntity
  8
0
  6
CONTINUOUS
 62
     7
100
AcDbLine
 10
1569.1533208869
 20
745.220787301
 30
0.0
 11
1569.1510261081
 21
747.2020903968
 31
0.0
  0
ARC
  5
596
330
1F
100
AcDbEntity
  8
0
  6
CONTINUOUS
 62
     7
100
AcDbCircle
 10
1567.4590129268
 20
754.6294281457
 30
0.0
 40
9.559943392549776
100
AcDbArc
 50
267.4712513488
 51
280.2077256604
  0
LINE
  5
597
330
1F
100
AcDbEntity
  8
0
  6
CONTINUOUS
 62
     7
100
AcDbLine
 10
1291.092497208
 20
1013.4093085669
 30
0.0
 11
1293.071043589
 21
1013.4093085669
 31
0.0
  0
LINE
  5
598
330
1F
100
AcDbEntity
  8
0
  6
CONTINUOUS
 62
     7
100
AcDbLine
 10
1291.0902024291
 20
1015.3906116628
 30
0.0
 11
1291.092497208
 21
1013.4093085669
 31
0.0
  0
ARC
  5
599
330
1F
100
AcDbEntity
  8
0
  6
CONTINUOUS
 62
     7
100
AcDbCircle
 10
1292.7845103892
 20
1005.9819708181
 30
0.0
 40
9.559943392547742
100
AcDbArc
 50
87.4712513488
 51
100.2077256604
  0
ARC
  5
59A
330
1F
100
AcDbEntity
  8
0
  6
CONTINUOUS
 62
     7
100
AcDbCircle
 10
1554.2463483632
 20
741.4183954088
 30
0.0
 40
9.561624659047549
100
AcDbArc
 50
349.7936604665
 51
2.5285971358
  0
LINE
  5
59B
330
1F
100
AcDbEntity
  8
0
  6
CONTINUOUS
 62
     7
100
AcDbLine
 10
1561.6753668569
 20
739.7264311456
 30
0.0
 11
1563.6566699527
 21
739.7241363667
 31
0.0
  0
LINE
  5
59C
330
1F
100
AcDbEntity
  8
0
  6
CONTINUOUS
 62
     7
100
AcDbLine
 10
1561.6753668569
 20
741.7049924277
 30
0.0
 11
1561.6753668569
 21
739.7264311456
 31
0.0
  0
ARC
  5
59D
330
1F
100
AcDbEntity
  8
0
  6
CONTINUOUS
 62
     7
100
AcDbCircle
 10
1305.9971749529
 20
1019.1930035549
 30
0.0
 40
9.561624659078575
100
AcDbArc
 50
169.7936604666
 51
182.5285971358
  0
LINE
  5
59E
330
1F
100
AcDbEntity
  8
0
  6
CONTINUOUS
 62
     7
100
AcDbLine
 10
1298.5681564592
 20
1020.8849678182
 30
0.0
 11
1296.5868533634
 21
1020.887262597
 31
0.0
  0
LINE
  5
59F
330
1F
100
AcDbEntity
  8
0
  6
CONTINUOUS
 62
     7
100
AcDbLine
 10
1298.5681564592
 20
1018.906406536
 30
0.0
 11
1298.5681564592
 21
1020.8849678182
 31
0.0
  0
LINE
  5
5A0
330
1F
100
AcDbEntity
  8
0
  6
CONTINUOUS
 62
     7
100
AcDbLine
 10
1561.6753668569
 20
1020.8849678182
 30
0.0
 11
1298.5681564592
 21
1020.8849678182
 31
0.0
  0
LINE
  5
5A1
330
1F
100
AcDbEntity
  8
0
  6
CONTINUOUS
 62
     7
100
AcDbLine
 10
1298.5681564592
 20
739.7264311456
 30
0.0
 11
1561.6753668569
 21
739.7264311456
 31
0.0
  0
LINE
  5
5A2
330
1F
100
AcDbEntity
  8
0
  6
CONTINUOUS
 62
     7
100
AcDbLine
 10
1291.092497208
 20
1013.4093085669
 30
0.0
 11
1291.092497208
 21
747.2020903968
 31
0.0
  0
LINE
  5
5A3
330
1F
100
AcDbEntity
  8
0
  6
CONTINUOUS
 62
     7
100
AcDbLine
 10
1293.071043589
 20
874.9160644964
 30
0.0
 11
1293.071043589
 21
885.6953344673
 31
0.0
  0
LINE
  5
5A4
330
1F
100
AcDbEntity
  8
0
  6
CONTINUOUS
 62
     7
100
AcDbLine
 10
1569.1510261081
 20
747.2020903968
 30
0.0
 11
1569.1510261081
 21
1013.4093085669
 31
0.0
  0
LINE
  5
5A5
330
1F
100
AcDbEntity
  8
0
  6
CONTINUOUS
 62
     7
100
AcDbLine
 10
1567.1724797271
 20
885.6953344673
 30
0.0
 11
1567.1724797271
 21
874.9160644964
 31
0.0
  0
LINE
  5
5A6
330
1F
100
AcDbEntity
  8
0
  6
CONTINUOUS
 62
     7
100
AcDbLine
 10
1293.5054422401
 20
885.6523334414
 30
0.0
 11
1293.5054422401
 21
874.9590655223
 31
0.0
  0
LINE
  5
5A7
330
1F
100
AcDbEntity
  8
0
  6
CONTINUOUS
 62
     7
100
AcDbLine
 10
1566.738081076
 20
885.6523334414
 30
0.0
 11
1566.738081076
 21
874.9590655223
 31
0.0
  0
ARC
  5
5A8
330
1F
100
AcDbEntity
  8
0
  6
CONTINUOUS
 62
     7
100
AcDbCircle
 10
1563.6609334865
 20
745.2165237672
 30
0.0
 40
5.492389055237785
100
AcDbArc
 50
269.95552345
 51
0.04447655
  0
ARC
  5
5A9
330
1F
100
AcDbEntity
  8
0
  6
CONTINUOUS
 62
     7
100
AcDbCircle
 10
1296.5825810725
 20
1015.3948839537
 30
0.0
 40
5.4923803049407
100
AcDbArc
 50
89.9554320261
 51
180.0445679739
  0
ARC
  5
5AA
330
1F
100
AcDbEntity
  8
0
  6
CONTINUOUS
 62
     7
100
AcDbCircle
 10
1563.6609334865
 20
1015.3948751966
 30
0.0
 40
5.492389055237899
100
AcDbArc
 50
359.95552345
 51
90.04447655
  0
ARC
  5
5AB
330
1F
100
AcDbEntity
  8
0
  6
CONTINUOUS
 62
     7
100
AcDbCircle
 10
1296.5825810725
 20
745.2165150101
 30
0.0
 40
5.4923803049407
100
AcDbArc
 50
179.9554320261
 51
270.0445679739
  0
ELLIPSE
  5
5AC
330
1F
100
AcDbEntity
  8
0
  6
CONTINUOUS
 62
     7
100
AcDbEllipse
 10
1564.0684091644
 20
1015.8023469882
 30
0.0
 11
3.893826995295739
 21
3.893826995295512
 31
0.0
210
0.0
220
0.0
230
0.9999999999999998
 40
0.998782766
 41
5.498396131367759
 42
7.067974482991424
  0
LINE
  5
5AD
330
1F
100
AcDbEntity
  8
0
  6
CONTINUOUS
 62
     7
100
AcDbLine
 10
1569.1533208869
 20
1015.3906116628
 30
0.0
 11
1569.5717603944
 21
1015.8090511703
 31
0.0
  0
LINE
  5
5AE
330
1F
100
AcDbEntity
  8
0
  6
CONTINUOUS
 62
     7
100
AcDbLine
 10
1564.0751094602
 20
1021.3057021045
 30
0.0
 11
1563.6566699527
 21
1020.887262597
 31
0.0
  0
ELLIPSE
  5
5AF
330
1F
100
AcDbEntity
  8
0
  6
CONTINUOUS
 62
     7
100
AcDbEllipse
 10
1296.1751141517
 20
744.8090519755
 30
0.0
 11
-3.893826995295739
 21
-3.893826995295512
 31
0.0
210
0.0
220
0.0
230
0.9999999999999998
 40
0.998782766
 41
5.498396131367759
 42
7.067974482991506
  0
LINE
  5
5B0
330
1F
100
AcDbEntity
  8
0
  6
CONTINUOUS
 62
     7
100
AcDbLine
 10
1290.6717629216
 20
744.8023477935
 30
0.0
 11
1291.0902024291
 21
745.220787301
 31
0.0
  0
LINE
  5
5B1
330
1F
100
AcDbEntity
  8
0
  6
CONTINUOUS
 62
     7
100
AcDbLine
 10
1296.5868533634
 20
739.7241363667
 30
0.0
 11
1296.1684138559
 21
739.3056968593
 31
0.0
  0
ELLIPSE
  5
5B2
330
1F
100
AcDbEntity
  8
0
  6
CONTINUOUS
 62
     7
100
AcDbEllipse
 10
1564.0684091644
 20
744.8090519755
 30
0.0
 11
-3.893826995295285
 21
3.893826995295626
 31
0.0
210
0.0
220
0.0
230
0.9999999999999998
 40
0.998782766
 41
2.356803477777968
 42
3.9263818294017
  0
LINE
  5
5B3
330
1F
100
AcDbEntity
  8
0
  6
CONTINUOUS
 62
     7
100
AcDbLine
 10
1564.0751094602
 20
739.3056968593
 30
0.0
 11
1563.6566699527
 21
739.7241363667
 31
0.0
  0
LINE
  5
5B4
330
1F
100
AcDbEntity
  8
0
  6
CONTINUOUS
 62
     7
100
AcDbLine
 10
1569.5717603944
 20
744.8023477935
 30
0.0
 11
1569.1533208869
 21
745.220787301
 31
0.0
  0
ELLIPSE
  5
5B5
330
1F
100
AcDbEntity
  8
0
  6
CONTINUOUS
 62
     7
100
AcDbEllipse
 10
1296.1751141517
 20
1015.8023469882
 30
0.0
 11
3.893826995295512
 21
-3.893826995295626
 31
0.0
210
0.0
220
0.0
230
0.9999999999999998
 40
0.998782766
 41
2.356803477777924
 42
3.926381829401685
  0
LINE
  5
5B6
330
1F
100
AcDbEntity
  8
0
  6
CONTINUOUS
 62
     7
100
AcDbLine
 10
1296.5868533634
 20
1020.887262597
 30
0.0
 11
1296.1684138559
 21
1021.3057021045
 31
0.0
  0
LINE
  5
5B7
330
1F
100
AcDbEntity
  8
0
  6
CONTINUOUS
 62
     7
100
AcDbLine
 10
1291.0902024291
 20
1015.3906116628
 30
0.0
 11
1290.6717629216
 21
1015.8090511703
 31
0.0
  0
LINE
  5
5B8
330
1F
100
AcDbEntity
  8
0
  6
CONTINUOUS
 62
     7
100
AcDbLine
 10
1569.5717603944
 20
1015.8090511703
 30
0.0
 11
1569.5717603944
 21
744.8023477935
 31
0.0
  0
LINE
  5
5B9
330
1F
100
AcDbEntity
  8
0
  6
CONTINUOUS
 62
     7
100
AcDbLine
 10
1290.6717629216
 20
1015.8090511703
 30
0.0
 11
1290.6717629216
 21
744.8023477935
 31
0.0
  0
LINE
  5
5BA
330
1F
100
AcDbEntity
  8
0
  6
CONTINUOUS
 62
     7
100
AcDbLine
 10
1296.1684138559
 20
1021.3057021045
 30
0.0
 11
1564.0751094602
 21
1021.3057021045
 31
0.0
  0
LINE
  5
5BB
330
1F
100
AcDbEntity
  8
0
  6
CONTINUOUS
 62
     7
100
AcDbLine
 10
1296.1684138559
 20
739.3056968593
 30
0.0
 11
1564.0751094602
 21
739.3056968593
 31
0.0
  0
ENDSEC
  0
SECTION
  2
OBJECTS
  0
DICTIONARY
  5
C
330
0
100
AcDbDictionary
  3
ACAD_GROUP
350
D
  3
ACAD_MLINESTYLE
350
17
  0
DICTIONARY
  5
D
102
{ACAD_REACTORS
330
C
102
}
330
C
100
AcDbDictionary
  0
DICTIONARY
  5
17
102
{ACAD_REACTORS
330
C
102
}
330
C
100
AcDbDictionary
  3
STANDARD
350
18
  0
MLINESTYLE
  5
18
102
{ACAD_REACTORS
330
17
102
}
330
17
100
AcDbMlineStyle
  2
Standard
 70
     0
  3

 62
   256
 51
90.0
 52
90.0
 71
     2
 49
0.5
 62
   256
  6
BYLAYER
 49
-0.5
 62
   256
  6
BYLAYER
  0
ENDSEC
  0
EOF
