  0
SECTION
  2
HEADER
  9
$ACADVER
  1
AC1009
  9
$INSBASE
 10
0.0
 20
0.0
 30
0.0
  9
$EXTMIN
 10
-137.7446181447134
 20
73.711858906746727
 30
0.0
  9
$EXTMAX
 10
497.49665628031141
 20
391.19606499955472
 30
0.0
  9
$LIMMIN
 10
0.0
 20
0.0
  9
$LIMMAX
 10
594.0
 20
420.0
  9
$ORTHOMODE
 70
     1
  9
$REGENMODE
 70
     1
  9
$FILLMODE
 70
     1
  9
$QTEXTMODE
 70
     0
  9
$MIRRTEXT
 70
     1
  9
$DRAGMODE
 70
     2
  9
$LTSCALE
 40
7.0
  9
$OSMODE
 70
    37
  9
$ATTMODE
 70
     1
  9
$TEXTSIZE
 40
3.5
  9
$TRACEWID
 40
0.5
  9
$TEXTSTYLE
  7
TKKISO
  9
$CLAYER
  8
1
  9
$CELTYPE
  6
BYLAYER
  9
$CECOLOR
 62
   256
  9
$DIMSCALE
 40
1.0
  9
$DIMASZ
 40
3.5
  9
$DIMEXO
 40
1.0
  9
$DIMDLI
 40
7.0
  9
$DIMRND
 40
0.0
  9
$DIMDLE
 40
0.0
  9
$DIMEXE
 40
1.5
  9
$DIMTP
 40
0.0
  9
$DIMTM
 40
0.0
  9
$DIMTXT
 40
3.5
  9
$DIMCEN
 40
0.0
  9
$DIMTSZ
 40
0.0
  9
$DIMTOL
 70
     0
  9
$DIMLIM
 70
     0
  9
$DIMTIH
 70
     0
  9
$DIMTOH
 70
     0
  9
$DIMSE1
 70
     0
  9
$DIMSE2
 70
     0
  9
$DIMTAD
 70
     1
  9
$DIMZIN
 70
     8
  9
$DIMBLK
  1

  9
$DIMASO
 70
     1
  9
$DIMSHO
 70
     1
  9
$DIMPOST
  1

  9
$DIMAPOST
  1

  9
$DIMALT
 70
     0
  9
$DIMALTD
 70
     2
  9
$DIMALTF
 40
25.399999999999999
  9
$DIMLFAC
 40
1.0
  9
$DIMTOFL
 70
     1
  9
$DIMTVP
 40
0.0
  9
$DIMTIX
 70
     0
  9
$DIMSOXD
 70
     0
  9
$DIMSAH
 70
     0
  9
$DIMBLK1
  1

  9
$DIMBLK2
  1

  9
$DIMSTYLE
  2
STANDARD
  9
$DIMCLRD
 70
     1
  9
$DIMCLRE
 70
     1
  9
$DIMCLRT
 70
     3
  9
$DIMTFAC
 40
1.0
  9
$DIMGAP
 40
0.09
  9
$LUNITS
 70
     2
  9
$LUPREC
 70
     1
  9
$SKETCHINC
 40
1.0
  9
$FILLETRAD
 40
0.0
  9
$AUNITS
 70
     0
  9
$AUPREC
 70
     1
  9
$MENU
  1
caesar
  9
$ELEVATION
 40
0.0
  9
$PELEVATION
 40
0.0
  9
$THICKNESS
 40
0.0
  9
$LIMCHECK
 70
     0
  9
$BLIPMODE
 70
     0
  9
$CHAMFERA
 40
5.0
  9
$CHAMFERB
 40
5.0
  9
$SKPOLY
 70
     1
  9
$TDCREATE
 40
2448749.215554514
  9
$TDUPDATE
 40
2453620.4651240972
  9
$TDINDWG
 40
0.4695337384
  9
$TDUSRTIMER
 40
0.4695337384
  9
$USRTIMER
 70
     1
  9
$ANGBASE
 50
0.0
  9
$ANGDIR
 70
     0
  9
$PDMODE
 70
     0
  9
$PDSIZE
 40
2.0
  9
$PLINEWID
 40
0.0
  9
$COORDS
 70
     2
  9
$SPLFRAME
 70
     0
  9
$SPLINETYPE
 70
     6
  9
$SPLINESEGS
 70
     8
  9
$ATTDIA
 70
     0
  9
$ATTREQ
 70
     1
  9
$HANDLING
 70
-16383
  9
$HANDSEED
  5
2F1
  9
$SURFTAB1
 70
     6
  9
$SURFTAB2
 70
     6
  9
$SURFTYPE
 70
     6
  9
$SURFU
 70
     6
  9
$SURFV
 70
     6
  9
$UCSNAME
  2

  9
$UCSORG
 10
0.0
 20
0.0
 30
0.0
  9
$UCSXDIR
 10
1.0
 20
0.0
 30
0.0
  9
$UCSYDIR
 10
0.0
 20
1.0
 30
0.0
  9
$PUCSNAME
  2

  9
$PUCSORG
 10
0.0
 20
0.0
 30
0.0
  9
$PUCSXDIR
 10
1.0
 20
0.0
 30
0.0
  9
$PUCSYDIR
 10
0.0
 20
1.0
 30
0.0
  9
$USERI1
 70
     2
  9
$USERI2
 70
     0
  9
$USERI3
 70
     0
  9
$USERI4
 70
     0
  9
$USERI5
 70
     0
  9
$USERR1
 40
1.0
  9
$USERR2
 40
0.0
  9
$USERR3
 40
3.5
  9
$USERR4
 40
0.0
  9
$USERR5
 40
0.0
  9
$WORLDVIEW
 70
     1
  9
$SHADEDGE
 70
     3
  9
$SHADEDIF
 70
    70
  9
$TILEMODE
 70
     1
  9
$MAXACTVP
 70
    16
  9
$PLIMCHECK
 70
     0
  9
$PEXTMIN
 10
1.0000000000000000E+020
 20
1.0000000000000000E+020
 30
1.0000000000000000E+020
  9
$PEXTMAX
 10
-1.0000000000000000E+020
 20
-1.0000000000000000E+020
 30
-1.0000000000000000E+020
  9
$PLIMMIN
 10
0.0
 20
0.0
  9
$PLIMMAX
 10
12.0
 20
9.0
  9
$UNITMODE
 70
     0
  9
$VISRETAIN
 70
     0
  9
$PLINEGEN
 70
     0
  9
$PSLTSCALE
 70
     0
  0
ENDSEC
  0
SECTION
  2
TABLES
  0
TABLE
  2
VPORT
 70
     2
  0
VPORT
  2
*ACTIVE
 70
     0
 10
0.0
 20
0.0
 11
1.0
 21
1.0
 12
179.85131055358551
 22
232.4464426544105
 13
0.0
 23
0.0
 14
6.0
 24
6.0
 15
0.0
 25
0.0
 16
0.0
 26
0.0
 36
1.0
 17
0.0
 27
0.0
 37
0.0
 40
410.3314782488718
 41
1.5552208835341359
 42
50.0
 43
0.0
 44
0.0
 50
0.0
 51
0.0
 71
     0
 72
  1000
 73
     1
 74
     0
 75
     0
 76
     0
 77
     0
 78
     0
  0
ENDTAB
  0
TABLE
  2
LTYPE
 70
     3
  0
LTYPE
  2
CONTINUOUS
 70
     0
  3
Solid line
 72
    65
 73
     0
 40
0.0
  0
LTYPE
  2
DASHED
 70
     0
  3
__ __ __ __ __ __ __ __ __ __ __ __ __ __ __
 72
    65
 73
     2
 40
0.75
 49
0.5
 49
-0.25
  0
LTYPE
  2
CENTER
 70
     0
  3
------  -  -----  -  -----  -  -----  -  ------
 72
    65
 73
     4
 40
1.8
 49
1.25
 49
-0.25
 49
0.05
 49
-0.25
  0
ENDTAB
  0
TABLE
  2
LAYER
 70
    18
  0
LAYER
  2
0
 70
     0
 62
     7
  6
CONTINUOUS
  0
LAYER
  2
DEFPOINTS
 70
     0
 62
    -7
  6
CONTINUOUS
  0
LAYER
  2
L20
 70
     0
 62
     3
  6
CONTINUOUS
  0
LAYER
  2
1
 70
     0
 62
     7
  6
CONTINUOUS
  0
LAYER
  2
11
 70
     0
 62
     7
  6
CONTINUOUS
  0
LAYER
  2
13
 70
     0
 62
     1
  6
CENTER
  0
LAYER
  2
21
 70
     0
 62
     7
  6
CONTINUOUS
  0
LAYER
  2
23
 70
     0
 62
     1
  6
CENTER
  0
LAYER
  2
31
 70
     0
 62
     7
  6
CONTINUOUS
  0
LAYER
  2
33
 70
     0
 62
     1
  6
CENTER
  0
LAYER
  2
41
 70
     0
 62
     7
  6
CONTINUOUS
  0
LAYER
  2
43
 70
     0
 62
     1
  6
CENTER
  0
LAYER
  2
51
 70
     0
 62
     7
  6
CONTINUOUS
  0
LAYER
  2
52
 70
     0
 62
     1
  6
CONTINUOUS
  0
LAYER
  2
53
 70
     0
 62
     1
  6
CENTER
  0
LAYER
  2
61
 70
     0
 62
     7
  6
CONTINUOUS
  0
LAYER
  2
62
 70
     0
 62
     1
  6
CONTINUOUS
  0
LAYER
  2
63
 70
     0
 62
     1
  6
CENTER
  0
ENDTAB
  0
TABLE
  2
STYLE
 70
     3
  0
STYLE
  2
STANDARD
 70
     0
 40
0.0
 41
1.0
 50
0.0
 71
     0
 42
0.2
  3
caeiso
  4

  0
STYLE
  2
ISO
 70
     0
 40
0.0
 41
1.0
 50
0.0
 71
     0
 42
3.5
  3
ISO
  4

  0
STYLE
  2
TKKISO
 70
     0
 40
0.0
 41
1.0
 50
0.0
 71
     0
 42
3.5
  3
caeiso
  4

  0
ENDTAB
  0
TABLE
  2
VIEW
 70
     0
  0
ENDTAB
  0
TABLE
  2
UCS
 70
     0
  0
ENDTAB
  0
TABLE
  2
APPID
 70
     2
  0
APPID
  2
ACAD
 70
     0
  0
APPID
  2
DCO15
 70
     0
  0
ENDTAB
  0
TABLE
  2
DIMSTYLE
 70
     1
  0
DIMSTYLE
  2
STANDARD
 70
     0
  3

  4

  5

  6

  7

 40
1.0
 41
0.18
 42
0.0625
 43
0.38
 44
0.18
 45
0.0
 46
0.0
 47
0.0
 48
0.0
140
0.18
141
0.09
142
0.0
143
25.399999999999999
144
1.0
145
0.0
146
1.0
147
0.09
 71
     0
 72
     0
 73
     1
 74
     1
 75
     0
 76
     0
 77
     0
 78
     0
170
     0
171
     2
172
     0
173
     0
174
     0
175
     0
176
     0
177
     0
178
     0
  0
ENDTAB
  0
ENDSEC
  0
SECTION
  2
BLOCKS
  0
BLOCK
  8
0
  2
$MODEL_SPACE
 70
     0
 10
0.0
 20
0.0
 30
0.0
  3
$MODEL_SPACE
  1

  0
ENDBLK
  5
8B
  8
0
  0
BLOCK
 67
     1
  8
0
  2
$PAPER_SPACE
 70
     0
 10
0.0
 20
0.0
 30
0.0
  3
$PAPER_SPACE
  1

  0
ENDBLK
  5
89
 67
     1
  8
0
  0
ENDSEC
  0
SECTION
  2
ENTITIES
  0
LINE
  5
8C
  8
13
  6
DASHED
 10
285.47210278335211
 20
140.5118589067466
 30
0.0
 11
285.38991166174509
 21
145.2205851099653
 31
0.0
  0
ARC
  5
8D
  8
13
  6
DASHED
 10
284.88998781416689
 20
145.21185890674661
 30
0.0
 40
0.5
 50
1.000000000008219
 51
90.000000000000057
  0
LINE
  5
8E
  8
13
  6
DASHED
 10
293.47210278335211
 20
140.5118589067466
 30
0.0
 11
293.5542939049592
 21
145.2205851099653
 31
0.0
  0
ARC
  5
8F
  8
13
  6
DASHED
 10
294.0542177525374
 20
145.21185890674661
 30
0.0
 40
0.5
 50
90.000000000000057
 51
178.99999999999179
  0
LINE
  5
90
  8
13
  6
DASHED
 10
285.47210278335211
 20
140.5118589067466
 30
0.0
 11
293.47210278335211
 21
140.5118589067466
 31
0.0
  0
ARC
  5
91
  8
33
  6
DASHED
 10
425.9966587730637
 20
227.87184698396561
 30
0.0
 40
0.5
 50
91.0000000000082
 51
180.0
  0
ARC
  5
92
  8
33
  6
DASHED
 10
425.99665877306393
 20
237.03607692233601
 30
0.0
 40
0.5
 50
180.0
 51
268.99999999999181
  0
ARC
  5
93
  8
11
 10
210.81248870557741
 20
147.71185890674681
 30
0.0
 40
1.0
 50
89.999999999999915
 51
179.50000000000011
  0
ARC
  5
94
  8
11
 10
368.13171686112679
 20
147.7118589067467
 30
0.0
 40
1.0
 50
0.4999999999998163
 51
89.999999999999915
  0
ARC
  5
95
  8
31
 10
423.49665877306393
 20
193.79434787537619
 30
0.0
 40
1.0
 50
180.0
 51
269.50000000000023
  0
ARC
  5
96
  8
31
 10
423.49665877306381
 20
271.11357603092551
 30
0.0
 40
1.0
 50
90.499999999999986
 51
180.0
  0
ARC
  5
97
  8
62
 10
359.3189608784698
 20
265.33977511158599
 30
0.0
 40
0.3
 50
15.01745021050152
 51
180.0
  0
ARC
  5
98
  8
62
 10
367.67210278335182
 20
265.5320075074186
 30
0.0
 40
0.3
 50
0.0
 51
167.61920108281529
  0
ARC
  5
99
  8
62
 10
363.472102783352
 20
266.45396195315078
 30
0.0
 40
4.0
 50
195.0174502105022
 51
347.61920108281868
  0
ARC
  5
9A
  8
62
 10
359.31896087846968
 20
261.76484269850351
 30
0.0
 40
0.3
 50
90.000000000000028
 51
179.99999999999969
  0
ARC
  5
9B
  8
62
 10
367.67210278335199
 20
261.76484269850351
 30
0.0
 40
0.3
 50
0.0000000000003053
 51
90.0
  0
ARC
  5
9C
  8
62
 10
359.66453922844607
 20
261.41926434852752
 30
0.0
 40
0.3
 50
90.000000000000213
 51
179.9999999999992
  0
ARC
  5
9D
  8
62
 10
367.32652443337582
 20
261.41926434852752
 30
0.0
 40
0.3
 50
0.0000000000003562
 51
90.0
  0
ARC
  5
9E
  8
51
 10
-132.4446181447135
 20
201.9080910548206
 30
0.0
 40
0.3
 50
90.000000000000952
 51
180.0
  0
ARC
  5
9F
  8
51
 10
-125.64315627120671
 20
201.9080910548208
 30
0.0
 40
0.3
 50
359.9999999999992
 51
90.0
  0
ARC
  5
A0
  8
52
 10
-131.92100607726789
 20
201.38447898737499
 30
0.0
 40
0.3
 50
89.999999999998877
 51
180.0
  0
ARC
  5
A1
  8
52
 10
-126.1667683386522
 20
201.38447898737499
 30
0.0
 40
0.3
 50
359.99999999999818
 51
90.0
  0
ARC
  5
A2
  8
51
 10
-125.64315627120671
 20
263.50809105482051
 30
0.0
 40
0.3
 50
270.0
 51
0.0000000000007633
  0
ARC
  5
A3
  8
51
 10
-132.4446181447135
 20
263.50809105482051
 30
0.0
 40
0.3
 50
180.0
 51
270.0
  0
ARC
  5
A4
  8
52
 10
-131.92100607726789
 20
264.03170312226598
 30
0.0
 40
0.3
 50
180.0
 51
270.0
  0
ARC
  5
A5
  8
52
 10
-126.1667683386522
 20
264.03170312226598
 30
0.0
 40
0.3
 50
270.0
 51
0.0000000000017811
  0
ARC
  5
A6
  8
51
 10
22.955381855286511
 20
201.9080910548206
 30
0.0
 40
0.3
 50
0.0
 51
90.0
  0
ARC
  5
A7
  8
51
 10
16.153919981779701
 20
201.9080910548206
 30
0.0
 40
0.3
 50
90.0
 51
180.00000000000091
  0
ARC
  5
A8
  8
52
 10
16.677532049225281
 20
201.38447898737499
 30
0.0
 40
0.3
 50
90.0
 51
180.00000000000179
  0
ARC
  5
A9
  8
52
 10
22.431769787840921
 20
201.38447898737499
 30
0.0
 40
0.3
 50
0.0
 51
90.0
  0
ARC
  5
AA
  8
51
 10
22.955381855286511
 20
263.50809105482051
 30
0.0
 40
0.3
 50
270.0
 51
0.0
  0
ARC
  5
AB
  8
51
 10
16.153919981779701
 20
263.50809105482051
 30
0.0
 40
0.3
 50
179.9999999999992
 51
270.0
  0
ARC
  5
AC
  8
52
 10
16.677532049225171
 20
264.03170312226598
 30
0.0
 40
0.3
 50
179.99999999999821
 51
270.0
  0
ARC
  5
AD
  8
52
 10
22.431769787840921
 20
264.03170312226598
 30
0.0
 40
0.3
 50
270.0
 51
0.0
  0
ARC
  5
AE
  8
52
 10
-125.40373058330979
 20
195.53170312226609
 30
0.0
 40
0.3
 50
270.0
 51
31.825684299833782
  0
LINE
  5
AF
  8
52
 10
-125.86676833865231
 20
198.20809105482081
 30
0.0
 11
-125.86676833865219
 21
201.38447898737499
 31
0.0
  0
ARC
  5
B0
  8
52
 10
-121.0914762398312
 20
198.20809105482081
 30
0.0
 40
4.7752920988211374
 50
179.9999999999998
 51
211.82568429982629
  0
LINE
  5
B1
  8
52
 10
-125.40373058330979
 20
195.23170312226611
 30
0.0
 11
-128.74461814471351
 21
195.23170312226611
 31
0.0
  0
ARC
  5
B2
  8
52
 10
-128.74461814471351
 20
198.7080910548205
 30
0.0
 40
3.4763879325534952
 50
180.0
 51
270.0
  0
LINE
  5
B3
  8
52
 10
-132.2210060772679
 20
198.7080910548205
 30
0.0
 11
-132.2210060772679
 21
201.38447898737499
 31
0.0
  0
LINE
  5
B4
  8
52
 10
-126.1667683386522
 20
201.68447898737469
 30
0.0
 11
-131.92100607726789
 21
201.684478987375
 31
0.0
  0
ARC
  5
B5
  8
51
 10
-124.3284178686027
 20
195.00809105482051
 30
0.0
 40
0.3
 50
270.0
 51
44.671182946517973
  0
ARC
  5
B6
  8
51
 10
-121.0914762398312
 20
198.20809105482081
 30
0.0
 40
4.2516800313755541
 50
179.9999999999998
 51
224.67118294651311
  0
LINE
  5
B7
  8
51
 10
-125.34315627120669
 20
198.20809105482081
 30
0.0
 11
-125.34315627120669
 21
201.9080910548208
 31
0.0
  0
ARC
  5
B8
  8
52
 10
-128.74461814471351
 20
198.7080910548205
 30
0.0
 40
2.0499999999999989
 50
259.32079537942678
 51
193.3771992105406
  0
CIRCLE
  5
B9
  8
51
 10
-128.74461814471351
 20
198.7080910548205
 30
0.0
 40
1.5
  0
ARC
  5
BA
  8
51
 10
-128.7446181447134
 20
198.7080910548205
 30
0.0
 40
6.0
 50
180.0
 51
270.0
  0
LINE
  5
BB
  8
51
 10
-132.74461814471351
 20
198.7080910548205
 30
0.0
 11
-132.74461814471351
 21
201.9080910548206
 31
0.0
  0
LINE
  5
BC
  8
51
 10
-125.64315627120671
 20
202.20809105482061
 30
0.0
 11
-132.4446181447135
 21
202.20809105482061
 31
0.0
  0
LINE
  5
BD
  8
51
 10
-124.3284178686027
 20
194.7080910548205
 30
0.0
 11
-128.74461814471351
 21
194.7080910548205
 31
0.0
  0
ARC
  5
BE
  8
51
 10
-128.74461814471351
 20
198.7080910548205
 30
0.0
 40
3.9999999999990781
 50
180.0
 51
270.0
  0
ARC
  5
BF
  8
52
 10
-128.7446181447134
 20
198.7080910548205
 30
0.0
 40
4.338359623145652
 50
180.0
 51
270.0
  0
ARC
  5
C0
  8
52
 10
-128.7446181447134
 20
266.7080910548205
 30
0.0
 40
4.338359623145652
 50
90.000000000000028
 51
180.0
  0
ARC
  5
C1
  8
51
 10
-128.74461814471351
 20
266.7080910548205
 30
0.0
 40
3.9999999999990781
 50
90.000000000000028
 51
180.0
  0
LINE
  5
C2
  8
51
 10
-124.3284178686027
 20
270.7080910548205
 30
0.0
 11
-128.74461814471351
 21
270.7080910548205
 31
0.0
  0
LINE
  5
C3
  8
51
 10
-125.64315627120671
 20
263.2080910548205
 30
0.0
 11
-132.4446181447135
 21
263.2080910548205
 31
0.0
  0
LINE
  5
C4
  8
51
 10
-132.74461814471351
 20
266.7080910548205
 30
0.0
 11
-132.74461814471351
 21
263.50809105482051
 31
0.0
  0
ARC
  5
C5
  8
51
 10
-128.7446181447134
 20
266.7080910548205
 30
0.0
 40
6.0
 50
90.000000000000028
 51
180.0
  0
CIRCLE
  5
C6
  8
51
 10
-128.74461814471351
 20
266.7080910548205
 30
0.0
 40
1.5
  0
ARC
  5
C7
  8
52
 10
-128.74461814471351
 20
266.7080910548205
 30
0.0
 40
2.0499999999999989
 50
166.62280078945929
 51
100.6792046205732
  0
LINE
  5
C8
  8
51
 10
-125.34315627120669
 20
267.20809105482027
 30
0.0
 11
-125.34315627120669
 21
263.50809105482051
 31
0.0
  0
ARC
  5
C9
  8
51
 10
-121.0914762398312
 20
267.20809105482027
 30
0.0
 40
4.2516800313755541
 50
135.32881705348689
 51
180.0000000000002
  0
ARC
  5
CA
  8
51
 10
-124.3284178686027
 20
270.40809105482049
 30
0.0
 40
0.3
 50
315.328817053482
 51
90.000000000000028
  0
LINE
  5
CB
  8
52
 10
-126.1667683386522
 20
263.73170312226608
 30
0.0
 11
-131.92100607726789
 21
263.73170312226608
 31
0.0
  0
LINE
  5
CC
  8
52
 10
-132.2210060772679
 20
266.7080910548205
 30
0.0
 11
-132.2210060772679
 21
264.03170312226598
 31
0.0
  0
ARC
  5
CD
  8
52
 10
-128.74461814471351
 20
266.7080910548205
 30
0.0
 40
3.4763879325534952
 50
90.000000000000028
 51
180.0
  0
LINE
  5
CE
  8
52
 10
-125.40373058330979
 20
270.18447898737492
 30
0.0
 11
-128.74461814471351
 21
270.18447898737492
 31
0.0
  0
ARC
  5
CF
  8
52
 10
-121.0914762398312
 20
267.20809105482027
 30
0.0
 40
4.7752920988211374
 50
148.17431570017351
 51
180.0000000000002
  0
LINE
  5
D0
  8
52
 10
-125.86676833865231
 20
267.20809105482027
 30
0.0
 11
-125.86676833865219
 21
264.03170312226598
 31
0.0
  0
ARC
  5
D1
  8
52
 10
-125.40373058330979
 20
269.88447898737502
 30
0.0
 40
0.3
 50
328.17431570016618
 51
90.000000000000028
  0
ARC
  5
D2
  8
52
 10
19.255381855286348
 20
198.7080910548205
 30
0.0
 40
4.338359623145652
 50
270.0
 51
0.0
  0
ARC
  5
D3
  8
51
 10
19.255381855286458
 20
198.7080910548205
 30
0.0
 40
3.9999999999990781
 50
270.0
 51
0.0
  0
LINE
  5
D4
  8
51
 10
14.83918157917569
 20
194.7080910548205
 30
0.0
 11
19.255381855286458
 21
194.7080910548205
 31
0.0
  0
LINE
  5
D5
  8
51
 10
16.153919981779701
 20
202.20809105482061
 30
0.0
 11
22.955381855286511
 21
202.20809105482061
 31
0.0
  0
LINE
  5
D6
  8
51
 10
23.255381855286458
 20
198.7080910548205
 30
0.0
 11
23.255381855286458
 21
201.9080910548206
 31
0.0
  0
ARC
  5
D7
  8
51
 10
19.255381855286348
 20
198.7080910548205
 30
0.0
 40
6.0
 50
270.0
 51
0.0
  0
CIRCLE
  5
D8
  8
51
 10
19.255381855286458
 20
198.7080910548205
 30
0.0
 40
1.5
  0
ARC
  5
D9
  8
52
 10
19.255381855286458
 20
198.7080910548205
 30
0.0
 40
2.0499999999999989
 50
346.62280078945929
 51
280.67920462057322
  0
LINE
  5
DA
  8
51
 10
15.85391998177974
 20
198.20809105482081
 30
0.0
 11
15.853919981779629
 21
201.9080910548206
 31
0.0
  0
ARC
  5
DB
  8
51
 10
11.60223995040414
 20
198.20809105482081
 30
0.0
 40
4.2516800313755541
 50
315.32881705348689
 51
0.0000000000001654
  0
ARC
  5
DC
  8
51
 10
14.83918157917569
 20
195.00809105482051
 30
0.0
 40
0.3
 50
135.328817053482
 51
270.0
  0
LINE
  5
DD
  8
52
 10
16.677532049225281
 20
201.684478987375
 30
0.0
 11
22.431769787840921
 21
201.684478987375
 31
0.0
  0
LINE
  5
DE
  8
52
 10
22.731769787840879
 20
198.7080910548205
 30
0.0
 11
22.731769787840879
 21
201.38447898737499
 31
0.0
  0
ARC
  5
DF
  8
52
 10
19.255381855286458
 20
198.7080910548205
 30
0.0
 40
3.4763879325534952
 50
270.0
 51
0.0
  0
LINE
  5
E0
  8
52
 10
15.91449429388283
 20
195.23170312226611
 30
0.0
 11
19.255381855286458
 21
195.23170312226611
 31
0.0
  0
ARC
  5
E1
  8
52
 10
11.60223995040414
 20
198.20809105482081
 30
0.0
 40
4.7752920988211374
 50
328.17431570017362
 51
0.0000000000001654
  0
LINE
  5
E2
  8
52
 10
16.37753204922533
 20
198.20809105482081
 30
0.0
 11
16.377532049225209
 21
201.38447898737499
 31
0.0
  0
ARC
  5
E3
  8
52
 10
15.91449429388283
 20
195.53170312226609
 30
0.0
 40
0.3
 50
148.1743157001662
 51
270.0
  0
ARC
  5
E4
  8
52
 10
15.91449429388283
 20
269.88447898737502
 30
0.0
 40
0.3
 50
90.0
 51
211.82568429983371
  0
LINE
  5
E5
  8
52
 10
16.37753204922533
 20
267.20809105482027
 30
0.0
 11
16.377532049225209
 21
264.03170312226598
 31
0.0
  0
ARC
  5
E6
  8
52
 10
11.60223995040414
 20
267.20809105482027
 30
0.0
 40
4.7752920988211374
 50
359.99999999999977
 51
31.825684299826399
  0
LINE
  5
E7
  8
52
 10
15.91449429388283
 20
270.18447898737492
 30
0.0
 11
19.255381855286458
 21
270.18447898737492
 31
0.0
  0
ARC
  5
E8
  8
52
 10
19.255381855286458
 20
266.7080910548205
 30
0.0
 40
3.4763879325534952
 50
0.0
 51
90.0
  0
LINE
  5
E9
  8
52
 10
22.731769787840879
 20
266.7080910548205
 30
0.0
 11
22.731769787840879
 21
264.03170312226598
 31
0.0
  0
LINE
  5
EA
  8
52
 10
16.677532049225171
 20
263.73170312226608
 30
0.0
 11
22.431769787840921
 21
263.73170312226608
 31
0.0
  0
ARC
  5
EB
  8
51
 10
14.83918157917569
 20
270.40809105482049
 30
0.0
 40
0.3
 50
90.0
 51
224.67118294651789
  0
ARC
  5
EC
  8
51
 10
11.60223995040414
 20
267.20809105482027
 30
0.0
 40
4.2516800313755541
 50
359.99999999999977
 51
44.671182946513063
  0
LINE
  5
ED
  8
51
 10
15.85391998177974
 20
267.20809105482027
 30
0.0
 11
15.853919981779629
 21
263.50809105482051
 31
0.0
  0
ARC
  5
EE
  8
62
 10
367.32652443337582
 20
252.06341060599601
 30
0.0
 40
0.3
 50
219.47373888470901
 51
0.0
  0
LINE
  5
EF
  8
62
 10
361.8189608784698
 20
253.34639839824459
 30
0.0
 11
363.97210278335189
 21
253.34639839824459
 31
0.0
  0
LINE
  5
F0
  8
62
 10
359.36453922844601
 20
261.41926434852752
 30
0.0
 11
359.36453922844601
 21
255.80082004826841
 31
0.0
  0
ARC
  5
F1
  8
62
 10
363.97210278335189
 20
249.30082004826829
 30
0.0
 40
4.0455783499761653
 50
39.473738884708439
 51
90.0
  0
LINE
  5
F2
  8
62
 10
367.62652443337578
 20
261.41926434852752
 30
0.0
 11
367.62652443337589
 21
252.06341060599601
 31
0.0
  0
LINE
  5
F3
  8
62
 10
359.66453922844607
 20
261.71926434852747
 30
0.0
 11
367.32652443337582
 21
261.71926434852747
 31
0.0
  0
LINE
  5
F4
  8
13
  6
DASHED
 10
221.4438134402578
 20
145.21622217449581
 30
0.0
 11
221.10779095265281
 21
76.711858906746741
 31
0.0
  0
ARC
  5
F5
  8
31
 10
494.09665877306389
 20
194.94225576703889
 30
0.0
 40
0.4
 50
280.0
 51
0.0
  0
LINE
  5
F6
  8
33
  6
DASHED
 10
425.9922955053147
 20
213.42567261005649
 30
0.0
 11
494.49665877306381
 21
213.0896501224515
 31
0.0
  0
ARC
  5
F7
  8
61
 10
355.3189608784698
 20
266.9539619531505
 30
0.0
 40
1.9196632919130929
 50
359.99999999999972
 51
90.0
  0
LINE
  5
F8
  8
61
 10
357.23862417038299
 20
266.9539619531505
 30
0.0
 11
357.23862417038299
 21
255.80082004826841
 31
0.0
  0
LINE
  5
F9
  8
61
 10
361.8189608784698
 20
251.22048334018149
 30
0.0
 11
363.972102783352
 21
251.22048334018149
 31
0.0
  0
ARC
  5
FA
  8
61
 10
363.97210278335189
 20
249.30082004826829
 30
0.0
 40
1.9196632919130929
 50
0.0
 51
90.0
  0
ARC
  5
FB
  8
62
 10
355.3189608784698
 20
266.9539619531505
 30
0.0
 40
2.5174537355816371
 50
359.99999999999972
 51
90.0
  0
ARC
  5
FC
  8
62
 10
363.97210278335189
 20
249.30082004826829
 30
0.0
 40
2.5174537355816371
 50
0.0
 51
90.0
  0
ARC
  5
FD
  8
62
 10
355.3189608784698
 20
266.9539619531505
 30
0.0
 40
3.3473460385831229
 50
359.99999999999972
 51
90.0
  0
ARC
  5
FE
  8
62
 10
363.97210278335189
 20
249.30082004826829
 30
0.0
 40
3.3473460385831229
 50
0.0
 51
90.0
  0
ARC
  5
FF
  8
62
 10
367.67210278335199
 20
250.82068846362941
 30
0.0
 40
0.3
 50
202.33164500926989
 51
0.0
  0
ARC
  5
100
  8
62
 10
355.3189608784698
 20
266.9539619531505
 30
0.0
 40
3.7000000000000002
 50
359.99999999999972
 51
90.0
  0
ARC
  5
101
  8
62
 10
363.97210278335189
 20
249.30082004826829
 30
0.0
 40
3.7000000000000002
 50
0.0
 51
90.0
  0
LINE
  5
102
  8
62
 10
359.0189608784699
 20
266.9539619531505
 30
0.0
 11
359.01896087846973
 21
255.80082004826841
 31
0.0
  0
LINE
  5
103
  8
62
 10
358.66630691705291
 20
266.9539619531505
 30
0.0
 11
358.66630691705302
 21
255.80082004826841
 31
0.0
  0
LINE
  5
104
  8
62
 10
357.83641461405142
 20
266.9539619531505
 30
0.0
 11
357.83641461405142
 21
255.80082004826841
 31
0.0
  0
LINE
  5
105
  8
62
 10
361.8189608784698
 20
253.00082004826831
 30
0.0
 11
363.97210278335189
 21
253.00082004826839
 31
0.0
  0
LINE
  5
106
  8
62
 10
361.8189608784698
 20
252.6481660868516
 30
0.0
 11
363.972102783352
 21
252.6481660868516
 31
0.0
  0
LINE
  5
107
  8
62
 10
361.8189608784698
 20
251.81827378385009
 30
0.0
 11
363.972102783352
 21
251.81827378385009
 31
0.0
  0
ARC
  5
108
  8
61
 10
363.472102783352
 20
266.45396195315078
 30
0.0
 40
6.0
 50
0.0000000000000254
 51
90.0
  0
LINE
  5
109
  8
61
 10
215.4721027833522
 20
272.45396195315078
 30
0.0
 11
363.472102783352
 21
272.45396195315078
 31
0.0
  0
LINE
  5
10A
  8
61
 10
215.4721027833522
 20
192.45396195315081
 30
0.0
 11
363.47210278335211
 21
192.45396195315081
 31
0.0
  0
LINE
  5
10B
  8
61
 10
209.47210278335211
 20
266.45396195315078
 30
0.0
 11
209.47210278335211
 21
198.45396195315081
 31
0.0
  0
LINE
  5
10C
  8
61
 10
369.472102783352
 20
266.45396195315078
 30
0.0
 11
369.47210278335211
 21
198.45396195315081
 31
0.0
  0
LINE
  5
10D
  8
62
 10
367.31944882193511
 20
249.3008200482686
 30
0.0
 11
367.31944882193511
 21
215.60710385803301
 31
0.0
  0
LINE
  5
10E
  8
62
 10
223.6252446882344
 20
270.30130799173378
 30
0.0
 11
355.3189608784698
 21
270.30130799173378
 31
0.0
  0
LINE
  5
10F
  8
62
 10
211.62475674476909
 20
249.30082004826829
 30
0.0
 11
211.62475674476909
 21
215.60710385803301
 31
0.0
  0
LINE
  5
110
  8
62
 10
223.6252446882344
 20
194.6066159145677
 30
0.0
 11
355.3189608784698
 21
194.6066159145677
 31
0.0
  0
LINE
  5
111
  8
62
 10
367.67210278335199
 20
249.30082004826829
 30
0.0
 11
367.67210278335199
 21
215.60710385803301
 31
0.0
  0
LINE
  5
112
  8
62
 10
223.6252446882344
 20
270.6539619531506
 30
0.0
 11
355.3189608784698
 21
270.6539619531506
 31
0.0
  0
LINE
  5
113
  8
62
 10
211.27210278335221
 20
249.30082004826829
 30
0.0
 11
211.27210278335221
 21
215.60710385803301
 31
0.0
  0
LINE
  5
114
  8
62
 10
223.6252446882344
 20
194.25396195315071
 30
0.0
 11
355.3189608784698
 21
194.25396195315071
 31
0.0
  0
LINE
  5
115
  8
62
 10
366.48955651893351
 20
249.3008200482686
 30
0.0
 11
366.48955651893363
 21
215.60710385803301
 31
0.0
  0
LINE
  5
116
  8
62
 10
223.6252446882344
 20
269.47141568873229
 30
0.0
 11
355.3189608784698
 21
269.47141568873229
 31
0.0
  0
LINE
  5
117
  8
62
 10
212.4546490477706
 20
249.30082004826829
 30
0.0
 11
212.4546490477706
 21
215.60710385803301
 31
0.0
  0
LINE
  5
118
  8
62
 10
223.6252446882344
 20
195.4365082175693
 30
0.0
 11
355.3189608784698
 21
195.4365082175693
 31
0.0
  0
LINE
  5
119
  8
61
 10
365.89176607526508
 20
249.3008200482686
 30
0.0
 11
365.89176607526508
 21
215.60710385803301
 31
0.0
  0
LINE
  5
11A
  8
61
 10
223.6252446882344
 20
196.0342986612379
 30
0.0
 11
355.3189608784698
 21
196.0342986612379
 31
0.0
  0
LINE
  5
11B
  8
61
 10
223.6252446882344
 20
268.87362524506369
 30
0.0
 11
355.3189608784698
 21
268.87362524506369
 31
0.0
  0
LINE
  5
11C
  8
61
 10
213.0524394914392
 20
249.30082004826829
 30
0.0
 11
213.0524394914392
 21
215.60710385803301
 31
0.0
  0
LINE
  5
11D
  8
11
 10
209.4721027833522
 20
78.711858906746741
 30
0.0
 11
209.8125267825132
 21
147.72058544224521
 31
0.0
  0
LINE
  5
11E
  8
11
 10
211.27210278335221
 20
78.711858906746741
 30
0.0
 11
209.4721027833522
 21
78.711858906746741
 31
0.0
  0
LINE
  5
11F
  8
11
 10
211.27210278335221
 20
78.711858906746741
 30
0.0
 11
211.56647349603509
 21
77.042399635680056
 31
0.0
  0
ARC
  5
120
  8
11
 10
211.96039659723999
 20
77.111858906746832
 30
0.0
 40
0.4
 50
189.99999999999849
 51
270.0
  0
ARC
  5
121
  8
11
 10
366.98380896946418
 20
77.111858906746832
 30
0.0
 40
0.4
 50
270.0
 51
350.00000000000142
  0
LINE
  5
122
  8
11
 10
367.67210278335199
 20
78.711858906746741
 30
0.0
 11
367.37773207066908
 21
77.042399635680056
 31
0.0
  0
LINE
  5
123
  8
11
 10
211.96039659723999
 20
76.711858906746741
 30
0.0
 11
366.98380896946418
 21
76.711858906746741
 31
0.0
  0
LINE
  5
124
  8
11
 10
367.67210278335199
 20
78.711858906746741
 30
0.0
 11
369.472102783352
 21
78.711858906746741
 31
0.0
  0
LINE
  5
125
  8
13
  6
DASHED
 10
221.94379440178989
 20
145.71185890674661
 30
0.0
 11
357.0004111649144
 21
145.71185890674661
 31
0.0
  0
LINE
  5
126
  8
11
 10
369.472102783352
 20
78.711858906746741
 30
0.0
 11
369.13167878419091
 21
147.7205854422451
 31
0.0
  0
LINE
  5
127
  8
11
 10
210.81248870557741
 20
148.7118589067469
 30
0.0
 11
368.13171686112679
 21
148.7118589067467
 31
0.0
  0
LINE
  5
128
  8
13
  6
DASHED
 10
357.50039212644651
 20
145.21622217449581
 30
0.0
 11
357.83641461405142
 21
76.711858906746741
 31
0.0
  0
CIRCLE
  5
129
  8
62
 10
363.47210278335211
 20
266.45396195315078
 30
0.0
 40
1.5
  0
CIRCLE
  5
12A
  8
62
 10
363.47210278335211
 20
266.45396195315078
 30
0.0
 40
2.0499999999999989
  0
LINE
  5
12B
  8
62
 10
367.97210278335189
 20
265.5320075074186
 30
0.0
 11
367.972102783352
 21
250.82068846362941
 31
0.0
  0
LINE
  5
12C
  8
31
 10
422.49665877306381
 20
271.11357603092551
 30
0.0
 11
422.49665877306393
 21
193.79434787537619
 31
0.0
  0
LINE
  5
12D
  8
31
 10
492.4966587730637
 20
192.45396195315101
 30
0.0
 11
423.48793223756559
 21
192.7943859523121
 31
0.0
  0
LINE
  5
12E
  8
33
  6
DASHED
 10
425.49665877306393
 20
250.98227033471321
 30
0.0
 11
425.49665877306393
 21
237.03607692233601
 31
0.0
  0
LINE
  5
12F
  8
31
 10
492.4966587730637
 20
194.25396195315099
 30
0.0
 11
492.4966587730637
 21
192.45396195315101
 31
0.0
  0
LINE
  5
130
  8
31
 10
494.49665877306381
 20
270.15130179107757
 30
0.0
 11
494.49665877306381
 21
194.94225576703889
 31
0.0
  0
LINE
  5
131
  8
31
 10
492.4966587730637
 20
194.25396195315099
 30
0.0
 11
494.16611804413071
 21
194.54833266583381
 31
0.0
  0
LINE
  5
132
  8
31
 10
492.49665877306393
 20
270.8395956049655
 30
0.0
 11
492.4966587730637
 21
272.45396195315078
 31
0.0
  0
LINE
  5
133
  8
31
 10
492.4966587730637
 20
272.45396195315078
 30
0.0
 11
423.48793223756542
 21
272.11353795398969
 31
0.0
  0
LINE
  5
134
  8
33
  6
DASHED
 10
425.9922955053147
 20
251.48225129624529
 30
0.0
 11
494.49665877306381
 21
251.81827378385009
 31
0.0
  0
LINE
  5
135
  8
31
 10
492.49665877306393
 20
270.8395956049655
 30
0.0
 11
494.1661180441306
 21
270.54522489228259
 31
0.0
  0
ARC
  5
136
  8
31
 10
494.09665877306378
 20
270.15130179107757
 30
0.0
 40
0.4
 50
0.0000000000000127
 51
80.000000000001506
  0
LINE
  5
137
  8
62
 10
359.31896087846968
 20
262.0648426985037
 30
0.0
 11
367.67210278335199
 21
262.0648426985037
 31
0.0
  0
ARC
  5
138
  8
52
 10
19.255381855286458
 20
266.7080910548205
 30
0.0
 40
2.0499999999999989
 50
79.320795379426826
 51
13.37719921054067
  0
CIRCLE
  5
139
  8
51
 10
19.255381855286458
 20
266.7080910548205
 30
0.0
 40
1.5
  0
LINE
  5
13A
  8
51
 10
25.255381855286348
 20
266.7080910548205
 30
0.0
 11
25.255381855286458
 21
198.7080910548205
 31
0.0
  0
LINE
  5
13B
  8
51
 10
-134.7446181447134
 20
266.7080910548205
 30
0.0
 11
-134.7446181447134
 21
198.7080910548205
 31
0.0
  0
LINE
  5
13C
  8
51
 10
-128.7446181447134
 20
192.7080910548205
 30
0.0
 11
19.255381855286458
 21
192.7080910548205
 31
0.0
  0
LINE
  5
13D
  8
51
 10
-128.7446181447134
 20
272.7080910548205
 30
0.0
 11
19.255381855286348
 21
272.7080910548205
 31
0.0
  0
ARC
  5
13E
  8
51
 10
19.255381855286348
 20
266.7080910548205
 30
0.0
 40
6.0
 50
0.0000000000000254
 51
90.0
  0
LINE
  5
13F
  8
51
 10
23.255381855286458
 20
266.7080910548205
 30
0.0
 11
23.255381855286458
 21
263.50809105482051
 31
0.0
  0
LINE
  5
140
  8
51
 10
16.153919981779701
 20
263.2080910548205
 30
0.0
 11
22.955381855286511
 21
263.2080910548205
 31
0.0
  0
LINE
  5
141
  8
51
 10
14.83918157917569
 20
270.7080910548205
 30
0.0
 11
19.255381855286458
 21
270.7080910548205
 31
0.0
  0
ARC
  5
142
  8
51
 10
19.255381855286458
 20
266.7080910548205
 30
0.0
 40
3.9999999999990781
 50
0.0
 51
90.0
  0
LINE
  5
143
  8
52
 10
23.593741478432069
 20
266.7080910548205
 30
0.0
 11
23.593741478432069
 21
198.7080910548205
 31
0.0
  0
LINE
  5
144
  8
52
 10
-128.7446181447134
 20
271.04645067796611
 30
0.0
 11
19.255381855286348
 21
271.04645067796611
 31
0.0
  0
LINE
  5
145
  8
52
 10
-133.08297776785901
 20
266.7080910548205
 30
0.0
 11
-133.08297776785901
 21
198.7080910548205
 31
0.0
  0
LINE
  5
146
  8
52
 10
-128.7446181447134
 20
194.36973143167489
 30
0.0
 11
19.255381855286458
 21
194.36973143167489
 31
0.0
  0
ARC
  5
147
  8
52
 10
19.255381855286348
 20
266.7080910548205
 30
0.0
 40
4.338359623145652
 50
0.0000000000000254
 51
90.0
  0
LINE
  5
148
  8
33
  6
DASHED
 10
430.6966587730638
 20
236.45396195315081
 30
0.0
 11
430.6966587730638
 21
228.45396195315081
 31
0.0
  0
LINE
  5
149
  8
33
  6
DASHED
 10
430.6966587730638
 20
236.45396195315081
 30
0.0
 11
425.9879325698451
 21
236.53615307475781
 31
0.0
  0
LINE
  5
14A
  8
33
  6
DASHED
 10
430.6966587730638
 20
228.45396195315081
 30
0.0
 11
425.9879325698451
 21
228.37177083154381
 31
0.0
  0
LINE
  5
14B
  8
33
  6
DASHED
 10
425.4966587730637
 20
227.87184698396561
 30
0.0
 11
425.4966587730637
 21
213.9256535715885
 31
0.0
  0
CIRCLE
  5
14C
  8
62
 10
363.47210278335211
 20
257.45396195315078
 30
0.0
 40
2.25
  0
CIRCLE
  5
14D
  8
51
 10
19.255381855286458
 20
257.7080910548205
 30
0.0
 40
2.25
  0
CIRCLE
  5
14E
  8
51
 10
19.255381855286458
 20
207.7080910548205
 30
0.0
 40
2.25
  0
CIRCLE
  5
14F
  8
51
 10
-128.7446181447136
 20
257.7080910548205
 30
0.0
 40
2.25
  0
CIRCLE
  5
150
  8
51
 10
-128.7446181447136
 20
207.7080910548205
 30
0.0
 40
2.25
  0
CIRCLE
  5
151
  8
61
 10
350.22210278335211
 20
261.45396195315072
 30
0.0
 40
2.0
  0
CIRCLE
  5
152
  8
61
 10
350.22210278335211
 20
261.45396195315072
 30
0.0
 40
2.25
  0
CIRCLE
  5
153
  8
61
 10
350.22210278335211
 20
261.45396195315072
 30
0.0
 40
4.0
  0
CIRCLE
  5
154
  8
61
 10
319.47210278335211
 20
261.45396195315072
 30
0.0
 40
2.0
  0
CIRCLE
  5
155
  8
61
 10
319.47210278335211
 20
261.45396195315072
 30
0.0
 40
2.25
  0
CIRCLE
  5
156
  8
61
 10
319.47210278335211
 20
261.45396195315072
 30
0.0
 40
4.0
  0
CIRCLE
  5
157
  8
61
 10
289.47210278335211
 20
261.45396195315072
 30
0.0
 40
2.0
  0
CIRCLE
  5
158
  8
61
 10
289.47210278335211
 20
261.45396195315072
 30
0.0
 40
2.25
  0
CIRCLE
  5
159
  8
61
 10
289.47210278335211
 20
261.45396195315072
 30
0.0
 40
4.0
  0
LINE
  5
15A
  8
63
 10
289.47210278335211
 20
267.45396195315072
 30
0.0
 11
289.47210278335211
 21
197.53533433986681
 31
0.0
  0
CIRCLE
  5
15B
  8
61
 10
259.47210278335211
 20
261.45396195315072
 30
0.0
 40
2.0
  0
CIRCLE
  5
15C
  8
61
 10
259.47210278335211
 20
261.45396195315072
 30
0.0
 40
2.25
  0
CIRCLE
  5
15D
  8
61
 10
259.47210278335211
 20
261.45396195315072
 30
0.0
 40
4.0
  0
CIRCLE
  5
15E
  8
61
 10
228.72210278335211
 20
261.45396195315072
 30
0.0
 40
2.0
  0
CIRCLE
  5
15F
  8
61
 10
228.72210278335211
 20
261.45396195315072
 30
0.0
 40
2.25
  0
CIRCLE
  5
160
  8
61
 10
228.72210278335211
 20
261.45396195315072
 30
0.0
 40
4.0
  0
CIRCLE
  5
161
  8
61
 10
228.72210278335211
 20
203.4539619531507
 30
0.0
 40
2.0
  0
CIRCLE
  5
162
  8
61
 10
228.72210278335211
 20
203.4539619531507
 30
0.0
 40
2.25
  0
CIRCLE
  5
163
  8
61
 10
228.72210278335211
 20
203.4539619531507
 30
0.0
 40
4.0
  0
CIRCLE
  5
164
  8
61
 10
259.47210278335211
 20
203.4539619531507
 30
0.0
 40
2.0
  0
CIRCLE
  5
165
  8
61
 10
259.47210278335211
 20
203.4539619531507
 30
0.0
 40
2.25
  0
CIRCLE
  5
166
  8
61
 10
259.47210278335211
 20
203.4539619531507
 30
0.0
 40
4.0
  0
CIRCLE
  5
167
  8
61
 10
289.47210278335211
 20
203.4539619531507
 30
0.0
 40
2.0
  0
CIRCLE
  5
168
  8
61
 10
289.47210278335211
 20
203.4539619531507
 30
0.0
 40
2.25
  0
CIRCLE
  5
169
  8
61
 10
289.47210278335211
 20
203.4539619531507
 30
0.0
 40
4.0
  0
CIRCLE
  5
16A
  8
61
 10
319.47210278335211
 20
203.4539619531507
 30
0.0
 40
2.0
  0
CIRCLE
  5
16B
  8
61
 10
319.47210278335211
 20
203.4539619531507
 30
0.0
 40
2.25
  0
CIRCLE
  5
16C
  8
61
 10
319.47210278335211
 20
203.4539619531507
 30
0.0
 40
4.0
  0
CIRCLE
  5
16D
  8
61
 10
350.22210278335211
 20
203.4539619531507
 30
0.0
 40
2.0
  0
CIRCLE
  5
16E
  8
61
 10
350.22210278335211
 20
203.4539619531507
 30
0.0
 40
2.25
  0
CIRCLE
  5
16F
  8
61
 10
350.22210278335211
 20
203.4539619531507
 30
0.0
 40
4.0
  0
CIRCLE
  5
170
  8
61
 10
289.47210278335211
 20
232.4539619531507
 30
0.0
 40
2.0
  0
CIRCLE
  5
171
  8
61
 10
289.47210278335211
 20
232.4539619531507
 30
0.0
 40
2.25
  0
CIRCLE
  5
172
  8
61
 10
289.47210278335211
 20
232.4539619531507
 30
0.0
 40
4.0
  0
LINE
  5
173
  8
63
 10
215.34008865292739
 20
232.4539619531507
 30
0.0
 11
363.47210278335211
 21
232.4539619531507
 31
0.0
  0
CIRCLE
  5
174
  8
61
 10
357.47210278335211
 20
232.4539619531507
 30
0.0
 40
4.0
  0
CIRCLE
  5
175
  8
61
 10
357.47210278335211
 20
232.4539619531507
 30
0.0
 40
2.25
  0
CIRCLE
  5
176
  8
61
 10
357.47210278335211
 20
232.4539619531507
 30
0.0
 40
2.0
  0
CIRCLE
  5
177
  8
61
 10
221.4721027833522
 20
232.4539619531507
 30
0.0
 40
4.0
  0
CIRCLE
  5
178
  8
61
 10
221.4721027833522
 20
232.4539619531507
 30
0.0
 40
2.25
  0
CIRCLE
  5
179
  8
62
 10
221.4721027833522
 20
232.4539619531507
 30
0.0
 40
2.0
  0
ARC
  5
17A
  8
62
 10
361.8189608784698
 20
255.80082004826841
 30
0.0
 40
2.7999999999999989
 50
179.9999999999996
 51
270.0
  0
ARC
  5
17B
  8
62
 10
361.8189608784698
 20
255.80082004826841
 30
0.0
 40
3.152653961416819
 50
179.9999999999996
 51
270.0
  0
ARC
  5
17C
  8
62
 10
361.8189608784698
 20
255.80082004826841
 30
0.0
 40
2.4544216500238059
 50
179.9999999999996
 51
270.0
  0
ARC
  5
17D
  8
62
 10
361.8189608784698
 20
255.80082004826841
 30
0.0
 40
3.9825462644182772
 50
179.9999999999996
 51
270.0
  0
ARC
  5
17E
  8
61
 10
361.8189608784698
 20
255.80082004826841
 30
0.0
 40
4.5803367080868211
 50
179.9999999999996
 51
270.0
  0
ARC
  5
17F
  8
61
 10
361.8189608784698
 20
209.10710385803301
 30
0.0
 40
4.5803367080868211
 50
90.0
 51
180.00000000000031
  0
ARC
  5
180
  8
62
 10
361.8189608784698
 20
209.10710385803301
 30
0.0
 40
3.9825462644182772
 50
90.0
 51
180.00000000000031
  0
ARC
  5
181
  8
62
 10
361.8189608784698
 20
209.10710385803301
 30
0.0
 40
2.4544216500238059
 50
90.0
 51
180.00000000000031
  0
ARC
  5
182
  8
62
 10
361.8189608784698
 20
209.10710385803301
 30
0.0
 40
3.152653961416819
 50
90.0
 51
180.00000000000031
  0
ARC
  5
183
  8
62
 10
361.8189608784698
 20
209.10710385803301
 30
0.0
 40
2.7999999999999989
 50
90.0
 51
180.00000000000031
  0
CIRCLE
  5
184
  8
62
 10
363.47210278335211
 20
207.45396195315061
 30
0.0
 40
2.25
  0
LINE
  5
185
  8
62
 10
359.31896087846968
 20
202.8430812077977
 30
0.0
 11
367.67210278335199
 21
202.8430812077977
 31
0.0
  0
LINE
  5
186
  8
62
 10
367.97210278335189
 20
199.37591639888271
 30
0.0
 11
367.972102783352
 21
214.0872354426719
 31
0.0
  0
CIRCLE
  5
187
  8
62
 10
363.47210278335211
 20
198.45396195315061
 30
0.0
 40
2.0499999999999989
  0
CIRCLE
  5
188
  8
62
 10
363.47210278335211
 20
198.45396195315061
 30
0.0
 40
1.5
  0
ARC
  5
189
  8
61
 10
363.472102783352
 20
198.45396195315061
 30
0.0
 40
6.0
 50
270.0
 51
0.0
  0
LINE
  5
18A
  8
62
 10
361.8189608784698
 20
213.08965012245119
 30
0.0
 11
363.972102783352
 21
213.08965012245119
 31
0.0
  0
LINE
  5
18B
  8
62
 10
361.8189608784698
 20
212.2597578194497
 30
0.0
 11
363.972102783352
 21
212.2597578194497
 31
0.0
  0
LINE
  5
18C
  8
62
 10
361.8189608784698
 20
211.90710385803291
 30
0.0
 11
363.97210278335189
 21
211.90710385803291
 31
0.0
  0
LINE
  5
18D
  8
62
 10
357.83641461405142
 20
197.95396195315081
 30
0.0
 11
357.83641461405142
 21
209.1071038580329
 31
0.0
  0
LINE
  5
18E
  8
62
 10
358.66630691705291
 20
197.95396195315081
 30
0.0
 11
358.66630691705302
 21
209.1071038580329
 31
0.0
  0
LINE
  5
18F
  8
62
 10
359.0189608784699
 20
197.95396195315081
 30
0.0
 11
359.01896087846973
 21
209.10710385803301
 31
0.0
  0
ARC
  5
190
  8
62
 10
363.97210278335189
 20
215.60710385803301
 30
0.0
 40
3.7000000000000002
 50
270.0
 51
0.0
  0
ARC
  5
191
  8
62
 10
355.3189608784698
 20
197.95396195315081
 30
0.0
 40
3.7000000000000002
 50
270.0
 51
0.0000000000001781
  0
ARC
  5
192
  8
62
 10
367.67210278335199
 20
214.0872354426719
 30
0.0
 40
0.3
 50
0.0
 51
157.66835499072999
  0
ARC
  5
193
  8
62
 10
363.97210278335189
 20
215.60710385803301
 30
0.0
 40
3.3473460385831229
 50
270.0
 51
0.0
  0
ARC
  5
194
  8
62
 10
355.3189608784698
 20
197.95396195315081
 30
0.0
 40
3.3473460385831229
 50
270.0
 51
0.0000000000001781
  0
ARC
  5
195
  8
62
 10
363.97210278335189
 20
215.60710385803301
 30
0.0
 40
2.5174537355816371
 50
270.0
 51
0.0
  0
ARC
  5
196
  8
62
 10
355.3189608784698
 20
197.95396195315081
 30
0.0
 40
2.5174537355816371
 50
270.0
 51
0.0000000000001781
  0
ARC
  5
197
  8
61
 10
363.97210278335189
 20
215.60710385803301
 30
0.0
 40
1.9196632919130929
 50
270.0
 51
0.0
  0
LINE
  5
198
  8
61
 10
361.8189608784698
 20
213.6874405661199
 30
0.0
 11
363.972102783352
 21
213.6874405661199
 31
0.0
  0
LINE
  5
199
  8
61
 10
357.23862417038299
 20
197.95396195315081
 30
0.0
 11
357.23862417038299
 21
209.1071038580329
 31
0.0
  0
ARC
  5
19A
  8
61
 10
355.3189608784698
 20
197.95396195315081
 30
0.0
 40
1.9196632919130929
 50
270.0
 51
0.0000000000001781
  0
LINE
  5
19B
  8
62
 10
359.66453922844607
 20
203.18865955777389
 30
0.0
 11
367.32652443337582
 21
203.18865955777389
 31
0.0
  0
LINE
  5
19C
  8
62
 10
367.62652443337578
 20
203.48865955777379
 30
0.0
 11
367.62652443337589
 21
212.84451330030541
 31
0.0
  0
ARC
  5
19D
  8
62
 10
363.97210278335189
 20
215.60710385803301
 30
0.0
 40
4.0455783499761653
 50
270.0
 51
320.5262611152915
  0
LINE
  5
19E
  8
62
 10
359.36453922844601
 20
203.48865955777379
 30
0.0
 11
359.36453922844601
 21
209.1071038580329
 31
0.0
  0
LINE
  5
19F
  8
62
 10
361.8189608784698
 20
211.56152550805669
 30
0.0
 11
363.97210278335189
 21
211.56152550805669
 31
0.0
  0
ARC
  5
1A0
  8
62
 10
367.32652443337582
 20
212.84451330030541
 30
0.0
 40
0.3
 50
0.0
 51
140.52626111529091
  0
ARC
  5
1A1
  8
62
 10
367.32652443337582
 20
203.48865955777379
 30
0.0
 40
0.3
 50
270.0
 51
359.9999999999996
  0
ARC
  5
1A2
  8
62
 10
359.66453922844607
 20
203.48865955777379
 30
0.0
 40
0.3
 50
180.00000000000071
 51
269.99999999999972
  0
ARC
  5
1A3
  8
62
 10
367.67210278335199
 20
203.14308120779779
 30
0.0
 40
0.3
 50
270.0
 51
359.99999999999972
  0
ARC
  5
1A4
  8
62
 10
359.31896087846968
 20
203.14308120779779
 30
0.0
 40
0.3
 50
180.00000000000031
 51
270.0
  0
ARC
  5
1A5
  8
62
 10
363.472102783352
 20
198.45396195315061
 30
0.0
 40
4.0
 50
12.38079891718129
 51
164.9825497894978
  0
ARC
  5
1A6
  8
62
 10
367.67210278335182
 20
199.37591639888271
 30
0.0
 40
0.3
 50
192.38079891718459
 51
0.0
  0
ARC
  5
1A7
  8
62
 10
359.3189608784698
 20
199.5681487947154
 30
0.0
 40
0.3
 50
180.0
 51
344.98254978949842
  0
ARC
  5
1A8
  8
61
 10
217.12524468823449
 20
255.80082004826841
 30
0.0
 40
4.5803367080868211
 50
270.0
 51
0.0000000000003181
  0
ARC
  5
1A9
  8
62
 10
217.12524468823449
 20
255.80082004826841
 30
0.0
 40
3.9825462644182772
 50
270.0
 51
0.0000000000003181
  0
ARC
  5
1AA
  8
62
 10
217.12524468823449
 20
255.80082004826841
 30
0.0
 40
2.4544216500238059
 50
270.0
 51
0.0000000000003181
  0
ARC
  5
1AB
  8
62
 10
217.12524468823449
 20
255.80082004826841
 30
0.0
 40
3.152653961416819
 50
270.0
 51
0.0000000000003181
  0
ARC
  5
1AC
  8
62
 10
217.12524468823449
 20
255.80082004826841
 30
0.0
 40
2.7999999999999989
 50
270.0
 51
0.0000000000003181
  0
CIRCLE
  5
1AD
  8
62
 10
215.47210278335211
 20
257.45396195315078
 30
0.0
 40
2.25
  0
LINE
  5
1AE
  8
62
 10
219.62524468823449
 20
262.0648426985037
 30
0.0
 11
211.27210278335241
 21
262.0648426985037
 31
0.0
  0
LINE
  5
1AF
  8
62
 10
210.9721027833524
 20
265.5320075074186
 30
0.0
 11
210.9721027833522
 21
250.82068846362941
 31
0.0
  0
CIRCLE
  5
1B0
  8
62
 10
215.47210278335211
 20
266.45396195315078
 30
0.0
 40
2.0499999999999989
  0
CIRCLE
  5
1B1
  8
62
 10
215.47210278335211
 20
266.45396195315078
 30
0.0
 40
1.5
  0
ARC
  5
1B2
  8
61
 10
215.4721027833522
 20
266.45396195315078
 30
0.0
 40
6.0
 50
90.000000000000028
 51
180.0
  0
LINE
  5
1B3
  8
62
 10
217.12524468823449
 20
251.81827378385009
 30
0.0
 11
214.97210278335231
 21
251.81827378385009
 31
0.0
  0
LINE
  5
1B4
  8
62
 10
217.12524468823449
 20
252.6481660868516
 30
0.0
 11
214.97210278335231
 21
252.6481660868516
 31
0.0
  0
LINE
  5
1B5
  8
62
 10
217.12524468823449
 20
253.00082004826831
 30
0.0
 11
214.97210278335231
 21
253.00082004826839
 31
0.0
  0
LINE
  5
1B6
  8
62
 10
221.10779095265281
 20
266.9539619531505
 30
0.0
 11
221.10779095265281
 21
255.80082004826841
 31
0.0
  0
LINE
  5
1B7
  8
62
 10
220.27789864965141
 20
266.9539619531505
 30
0.0
 11
220.27789864965141
 21
255.80082004826841
 31
0.0
  0
LINE
  5
1B8
  8
62
 10
219.92524468823439
 20
266.9539619531505
 30
0.0
 11
219.9252446882345
 21
255.80082004826841
 31
0.0
  0
ARC
  5
1B9
  8
62
 10
214.97210278335231
 20
249.30082004826829
 30
0.0
 40
3.7000000000000002
 50
90.000000000000028
 51
180.0
  0
ARC
  5
1BA
  8
62
 10
223.6252446882344
 20
266.9539619531505
 30
0.0
 40
3.7000000000000002
 50
90.000000000000028
 51
180.0000000000002
  0
ARC
  5
1BB
  8
62
 10
211.2721027833523
 20
250.82068846362941
 30
0.0
 40
0.3
 50
180.0
 51
337.66835499072999
  0
ARC
  5
1BC
  8
62
 10
214.97210278335231
 20
249.30082004826829
 30
0.0
 40
3.3473460385831229
 50
90.000000000000028
 51
180.0
  0
ARC
  5
1BD
  8
62
 10
223.6252446882344
 20
266.9539619531505
 30
0.0
 40
3.3473460385831229
 50
90.000000000000028
 51
180.0000000000002
  0
ARC
  5
1BE
  8
62
 10
214.97210278335231
 20
249.30082004826829
 30
0.0
 40
2.5174537355816371
 50
90.000000000000028
 51
180.0
  0
ARC
  5
1BF
  8
62
 10
223.6252446882344
 20
266.9539619531505
 30
0.0
 40
2.5174537355816371
 50
90.000000000000028
 51
180.0000000000002
  0
ARC
  5
1C0
  8
61
 10
214.97210278335231
 20
249.30082004826829
 30
0.0
 40
1.9196632919130929
 50
90.000000000000028
 51
180.0
  0
LINE
  5
1C1
  8
61
 10
217.12524468823449
 20
251.22048334018149
 30
0.0
 11
214.97210278335231
 21
251.22048334018149
 31
0.0
  0
LINE
  5
1C2
  8
61
 10
221.70558139632129
 20
266.9539619531505
 30
0.0
 11
221.70558139632129
 21
255.80082004826841
 31
0.0
  0
ARC
  5
1C3
  8
61
 10
223.6252446882344
 20
266.9539619531505
 30
0.0
 40
1.9196632919130929
 50
90.000000000000028
 51
180.0000000000002
  0
LINE
  5
1C4
  8
62
 10
219.27966633825829
 20
261.71926434852747
 30
0.0
 11
211.6176811333284
 21
261.71926434852747
 31
0.0
  0
LINE
  5
1C5
  8
62
 10
211.31768113332839
 20
261.41926434852752
 30
0.0
 11
211.31768113332839
 21
252.06341060599601
 31
0.0
  0
ARC
  5
1C6
  8
62
 10
214.97210278335231
 20
249.30082004826829
 30
0.0
 40
4.0455783499761653
 50
90.000000000000028
 51
140.5262611152915
  0
LINE
  5
1C7
  8
62
 10
219.57966633825831
 20
261.41926434852752
 30
0.0
 11
219.57966633825831
 21
255.80082004826841
 31
0.0
  0
LINE
  5
1C8
  8
62
 10
217.12524468823449
 20
253.34639839824459
 30
0.0
 11
214.97210278335231
 21
253.34639839824459
 31
0.0
  0
ARC
  5
1C9
  8
62
 10
211.6176811333284
 20
252.06341060599601
 30
0.0
 40
0.3
 50
180.0
 51
320.52626111529088
  0
ARC
  5
1CA
  8
62
 10
211.61768113332849
 20
261.41926434852752
 30
0.0
 40
0.3
 50
90.000000000000028
 51
179.9999999999996
  0
ARC
  5
1CB
  8
62
 10
219.27966633825829
 20
261.41926434852752
 30
0.0
 40
0.3
 50
0.0000000000007252
 51
89.999999999999758
  0
ARC
  5
1CC
  8
62
 10
211.27210278335241
 20
261.76484269850351
 30
0.0
 40
0.3
 50
90.000000000000028
 51
179.99999999999969
  0
ARC
  5
1CD
  8
62
 10
219.6252446882346
 20
261.76484269850351
 30
0.0
 40
0.3
 50
0.0000000000002672
 51
89.999999999999986
  0
ARC
  5
1CE
  8
62
 10
215.4721027833522
 20
266.45396195315078
 30
0.0
 40
4.0
 50
192.38079891718129
 51
344.98254978949768
  0
ARC
  5
1CF
  8
62
 10
211.27210278335241
 20
265.5320075074186
 30
0.0
 40
0.3
 50
12.38079891718465
 51
180.0
  0
ARC
  5
1D0
  8
62
 10
219.6252446882344
 20
265.33977511158599
 30
0.0
 40
0.3
 50
0.0000000000000127
 51
164.98254978949851
  0
ARC
  5
1D1
  8
62
 10
219.6252446882344
 20
199.5681487947154
 30
0.0
 40
0.3
 50
195.01745021050149
 51
359.99999999999989
  0
ARC
  5
1D2
  8
62
 10
211.27210278335241
 20
199.37591639888271
 30
0.0
 40
0.3
 50
180.0
 51
347.61920108281532
  0
ARC
  5
1D3
  8
62
 10
215.4721027833522
 20
198.45396195315061
 30
0.0
 40
4.0
 50
15.01745021050221
 51
167.61920108281871
  0
ARC
  5
1D4
  8
62
 10
219.6252446882346
 20
203.14308120779779
 30
0.0
 40
0.3
 50
270.0
 51
359.99999999999972
  0
ARC
  5
1D5
  8
62
 10
211.27210278335241
 20
203.14308120779779
 30
0.0
 40
0.3
 50
180.00000000000031
 51
270.0
  0
ARC
  5
1D6
  8
62
 10
219.27966633825829
 20
203.48865955777379
 30
0.0
 40
0.3
 50
270.00000000000023
 51
359.9999999999992
  0
ARC
  5
1D7
  8
62
 10
211.61768113332849
 20
203.48865955777379
 30
0.0
 40
0.3
 50
180.00000000000031
 51
270.0
  0
ARC
  5
1D8
  8
62
 10
211.6176811333284
 20
212.84451330030541
 30
0.0
 40
0.3
 50
39.4737388847091
 51
180.0
  0
LINE
  5
1D9
  8
62
 10
217.12524468823449
 20
211.56152550805669
 30
0.0
 11
214.97210278335231
 21
211.56152550805669
 31
0.0
  0
LINE
  5
1DA
  8
62
 10
219.57966633825831
 20
203.48865955777379
 30
0.0
 11
219.57966633825831
 21
209.1071038580329
 31
0.0
  0
ARC
  5
1DB
  8
62
 10
214.97210278335231
 20
215.60710385803301
 30
0.0
 40
4.0455783499761653
 50
219.47373888470841
 51
270.0
  0
LINE
  5
1DC
  8
62
 10
211.31768113332839
 20
203.48865955777379
 30
0.0
 11
211.31768113332839
 21
212.84451330030541
 31
0.0
  0
LINE
  5
1DD
  8
62
 10
219.27966633825829
 20
203.18865955777389
 30
0.0
 11
211.6176811333284
 21
203.18865955777389
 31
0.0
  0
ARC
  5
1DE
  8
61
 10
223.6252446882344
 20
197.95396195315081
 30
0.0
 40
1.9196632919130929
 50
179.9999999999998
 51
270.0
  0
LINE
  5
1DF
  8
61
 10
221.70558139632129
 20
197.95396195315081
 30
0.0
 11
221.70558139632129
 21
209.1071038580329
 31
0.0
  0
LINE
  5
1E0
  8
61
 10
217.12524468823449
 20
213.6874405661199
 30
0.0
 11
214.97210278335231
 21
213.6874405661199
 31
0.0
  0
ARC
  5
1E1
  8
61
 10
214.97210278335231
 20
215.60710385803301
 30
0.0
 40
1.9196632919130929
 50
180.0
 51
270.0
  0
ARC
  5
1E2
  8
62
 10
223.6252446882344
 20
197.95396195315081
 30
0.0
 40
2.5174537355816371
 50
179.9999999999998
 51
270.0
  0
ARC
  5
1E3
  8
62
 10
214.97210278335231
 20
215.60710385803301
 30
0.0
 40
2.5174537355816371
 50
180.0
 51
270.0
  0
ARC
  5
1E4
  8
62
 10
223.6252446882344
 20
197.95396195315081
 30
0.0
 40
3.3473460385831229
 50
179.9999999999998
 51
270.0
  0
ARC
  5
1E5
  8
62
 10
214.97210278335231
 20
215.60710385803301
 30
0.0
 40
3.3473460385831229
 50
180.0
 51
270.0
  0
ARC
  5
1E6
  8
62
 10
211.2721027833523
 20
214.0872354426719
 30
0.0
 40
0.3
 50
22.33164500926997
 51
180.0
  0
ARC
  5
1E7
  8
62
 10
223.6252446882344
 20
197.95396195315081
 30
0.0
 40
3.7000000000000002
 50
179.9999999999998
 51
270.0
  0
ARC
  5
1E8
  8
62
 10
214.97210278335231
 20
215.60710385803301
 30
0.0
 40
3.7000000000000002
 50
180.0
 51
270.0
  0
LINE
  5
1E9
  8
62
 10
219.92524468823439
 20
197.95396195315081
 30
0.0
 11
219.9252446882345
 21
209.10710385803301
 31
0.0
  0
LINE
  5
1EA
  8
62
 10
220.27789864965141
 20
197.95396195315081
 30
0.0
 11
220.27789864965141
 21
209.1071038580329
 31
0.0
  0
LINE
  5
1EB
  8
62
 10
221.10779095265281
 20
197.95396195315081
 30
0.0
 11
221.10779095265281
 21
209.1071038580329
 31
0.0
  0
LINE
  5
1EC
  8
62
 10
217.12524468823449
 20
211.90710385803291
 30
0.0
 11
214.97210278335231
 21
211.90710385803291
 31
0.0
  0
LINE
  5
1ED
  8
62
 10
217.12524468823449
 20
212.2597578194497
 30
0.0
 11
214.97210278335231
 21
212.2597578194497
 31
0.0
  0
LINE
  5
1EE
  8
62
 10
217.12524468823449
 20
213.08965012245119
 30
0.0
 11
214.97210278335231
 21
213.08965012245119
 31
0.0
  0
ARC
  5
1EF
  8
61
 10
215.4721027833522
 20
198.45396195315061
 30
0.0
 40
6.0
 50
180.0
 51
270.0
  0
CIRCLE
  5
1F0
  8
62
 10
215.47210278335211
 20
198.45396195315061
 30
0.0
 40
1.5
  0
CIRCLE
  5
1F1
  8
62
 10
215.47210278335211
 20
198.45396195315061
 30
0.0
 40
2.0499999999999989
  0
LINE
  5
1F2
  8
62
 10
210.9721027833524
 20
199.37591639888271
 30
0.0
 11
210.9721027833522
 21
214.0872354426719
 31
0.0
  0
LINE
  5
1F3
  8
62
 10
219.62524468823449
 20
202.8430812077977
 30
0.0
 11
211.27210278335241
 21
202.8430812077977
 31
0.0
  0
CIRCLE
  5
1F4
  8
62
 10
215.47210278335211
 20
207.45396195315061
 30
0.0
 40
2.25
  0
ARC
  5
1F5
  8
62
 10
217.12524468823449
 20
209.10710385803301
 30
0.0
 40
2.7999999999999989
 50
359.9999999999996
 51
90.000000000000028
  0
ARC
  5
1F6
  8
62
 10
217.12524468823449
 20
209.10710385803301
 30
0.0
 40
3.152653961416819
 50
359.9999999999996
 51
90.000000000000028
  0
ARC
  5
1F7
  8
62
 10
217.12524468823449
 20
209.10710385803301
 30
0.0
 40
2.4544216500238059
 50
359.9999999999996
 51
90.000000000000028
  0
ARC
  5
1F8
  8
62
 10
217.12524468823449
 20
209.10710385803301
 30
0.0
 40
3.9825462644182772
 50
359.9999999999996
 51
90.000000000000028
  0
ARC
  5
1F9
  8
61
 10
217.12524468823449
 20
209.10710385803301
 30
0.0
 40
4.5803367080868211
 50
359.9999999999996
 51
90.000000000000028
  0
ARC
  5
1FA
  8
33
  6
DASHED
 10
425.99665877306393
 20
250.98227033471321
 30
0.0
 40
0.5
 50
90.499999999999815
 51
180.0
  0
ARC
  5
1FB
  8
33
  6
DASHED
 10
425.9966587730637
 20
213.9256535715885
 30
0.0
 40
0.5
 50
180.0
 51
269.50000000000011
  0
ARC
  5
1FC
  8
13
  6
DASHED
 10
357.0004111649144
 20
145.21185890674661
 30
0.0
 40
0.5
 50
0.5000000000000452
 51
90.0
  0
ARC
  5
1FD
  8
13
  6
DASHED
 10
221.94379440178989
 20
145.21185890674661
 30
0.0
 40
0.5
 50
90.0
 51
179.5
  0
CIRCLE
  5
1FE
  8
62
 10
363.472102783352
 20
266.45396195315078
 30
0.0
 40
3.0
  0
CIRCLE
  5
1FF
  8
62
 10
363.472102783352
 20
198.45396195315061
 30
0.0
 40
3.0
  0
CIRCLE
  5
200
  8
62
 10
215.4721027833522
 20
266.45396195315078
 30
0.0
 40
3.0
  0
CIRCLE
  5
201
  8
62
 10
215.4721027833522
 20
198.45396195315061
 30
0.0
 40
3.0
  0
LINE
  5
202
  8
31
 10
492.49665877306393
 20
270.83959560496538
 30
0.0
 11
492.4966587730637
 21
194.25396195315099
 31
0.0
  0
LINE
  5
203
  8
11
 10
211.27210278335221
 20
78.711858906746741
 30
0.0
 11
367.67210278335199
 21
78.711858906746741
 31
0.0
  0
LINE
  5
204
  8
33
  6
DASHED
 10
425.49665877306393
 20
237.03607692233601
 30
0.0
 11
425.49665877306381
 21
227.87184698396561
 31
0.0
  0
LINE
  5
205
  8
43
  6
DASHED
 10
153.44754679364041
 20
237.03607692233601
 30
0.0
 11
153.44754679364041
 21
227.87184698396561
 31
0.0
  0
LINE
  5
206
  8
41
 10
86.447546793640413
 20
270.83959560496538
 30
0.0
 11
86.447546793640527
 21
194.25396195315099
 31
0.0
  0
ARC
  5
207
  8
43
  6
DASHED
 10
152.9475467936405
 20
213.9256535715885
 30
0.0
 40
0.5
 50
270.49999999999977
 51
0.0
  0
ARC
  5
208
  8
43
  6
DASHED
 10
152.94754679364041
 20
250.98227033471321
 30
0.0
 40
0.5
 50
0.0
 51
89.500000000000185
  0
LINE
  5
209
  8
43
  6
DASHED
 10
153.4475467936405
 20
227.87184698396561
 30
0.0
 11
153.4475467936405
 21
213.9256535715885
 31
0.0
  0
LINE
  5
20A
  8
43
  6
DASHED
 10
148.2475467936404
 20
228.45396195315081
 30
0.0
 11
152.9562729968591
 21
228.37177083154381
 31
0.0
  0
LINE
  5
20B
  8
43
  6
DASHED
 10
148.2475467936404
 20
236.45396195315081
 30
0.0
 11
152.9562729968591
 21
236.53615307475781
 31
0.0
  0
LINE
  5
20C
  8
43
  6
DASHED
 10
148.2475467936404
 20
236.45396195315081
 30
0.0
 11
148.2475467936404
 21
228.45396195315081
 31
0.0
  0
ARC
  5
20D
  8
41
 10
84.847546793640504
 20
270.15130179107757
 30
0.0
 40
0.4
 50
99.999999999998494
 51
180.0
  0
LINE
  5
20E
  8
41
 10
86.447546793640413
 20
270.8395956049655
 30
0.0
 11
84.778087522573742
 21
270.54522489228259
 31
0.0
  0
LINE
  5
20F
  8
43
  6
DASHED
 10
152.95191006138961
 20
251.48225129624529
 30
0.0
 11
84.447546793640527
 21
251.81827378385009
 31
0.0
  0
LINE
  5
210
  8
41
 10
86.447546793640527
 20
272.45396195315078
 30
0.0
 11
155.45627332913881
 21
272.11353795398969
 31
0.0
  0
LINE
  5
211
  8
41
 10
86.447546793640413
 20
270.8395956049655
 30
0.0
 11
86.447546793640527
 21
272.45396195315078
 31
0.0
  0
LINE
  5
212
  8
41
 10
86.447546793640527
 20
194.25396195315099
 30
0.0
 11
84.778087522573628
 21
194.54833266583381
 31
0.0
  0
LINE
  5
213
  8
41
 10
84.447546793640527
 20
270.15130179107757
 30
0.0
 11
84.447546793640527
 21
194.94225576703889
 31
0.0
  0
LINE
  5
214
  8
41
 10
86.447546793640527
 20
194.25396195315099
 30
0.0
 11
86.447546793640527
 21
192.45396195315101
 31
0.0
  0
LINE
  5
215
  8
43
  6
DASHED
 10
153.44754679364041
 20
250.98227033471321
 30
0.0
 11
153.44754679364041
 21
237.03607692233601
 31
0.0
  0
LINE
  5
216
  8
41
 10
86.447546793640527
 20
192.45396195315101
 30
0.0
 11
155.4562733291387
 21
192.7943859523121
 31
0.0
  0
LINE
  5
217
  8
41
 10
156.4475467936405
 20
271.11357603092551
 30
0.0
 11
156.44754679364041
 21
193.79434787537619
 31
0.0
  0
LINE
  5
218
  8
43
  6
DASHED
 10
152.95191006138961
 20
213.42567261005649
 30
0.0
 11
84.447546793640527
 21
213.0896501224515
 31
0.0
  0
ARC
  5
219
  8
41
 10
84.84754679364039
 20
194.94225576703889
 30
0.0
 40
0.4
 50
180.0
 51
259.99999999999989
  0
ARC
  5
21A
  8
41
 10
155.4475467936405
 20
271.11357603092551
 30
0.0
 40
1.0
 50
359.99999999999989
 51
89.500000000000014
  0
ARC
  5
21B
  8
41
 10
155.44754679364041
 20
193.79434787537619
 30
0.0
 40
1.0
 50
270.49999999999972
 51
359.99999999999989
  0
ARC
  5
21C
  8
43
  6
DASHED
 10
152.94754679364041
 20
237.03607692233601
 30
0.0
 40
0.5
 50
271.00000000000819
 51
0.0
  0
ARC
  5
21D
  8
43
  6
DASHED
 10
152.9475467936405
 20
227.87184698396561
 30
0.0
 40
0.5
 50
0.0
 51
88.999999999991815
  0
LINE
  5
21E
  8
21
 10
211.27210278335221
 20
386.19606499955472
 30
0.0
 11
367.67210278335199
 21
386.19606499955472
 31
0.0
  0
ARC
  5
21F
  8
23
  6
DASHED
 10
221.94379440178989
 20
319.69606499955472
 30
0.0
 40
0.5
 50
180.49999999999989
 51
270.0
  0
ARC
  5
220
  8
23
  6
DASHED
 10
357.0004111649144
 20
319.69606499955472
 30
0.0
 40
0.5
 50
270.0
 51
359.5
  0
LINE
  5
221
  8
23
  6
DASHED
 10
357.50039212644651
 20
319.69170173180561
 30
0.0
 11
357.83641461405142
 21
388.19606499955472
 31
0.0
  0
LINE
  5
222
  8
21
 10
210.81248870557741
 20
316.19606499955449
 30
0.0
 11
368.13171686112679
 21
316.19606499955472
 31
0.0
  0
LINE
  5
223
  8
21
 10
369.472102783352
 20
386.19606499955472
 30
0.0
 11
369.13167878419091
 21
317.18733846405632
 31
0.0
  0
LINE
  5
224
  8
23
  6
DASHED
 10
221.94379440178989
 20
319.19606499955472
 30
0.0
 11
357.0004111649144
 21
319.19606499955472
 31
0.0
  0
LINE
  5
225
  8
21
 10
367.67210278335199
 20
386.19606499955472
 30
0.0
 11
369.472102783352
 21
386.19606499955472
 31
0.0
  0
LINE
  5
226
  8
21
 10
211.96039659723999
 20
388.19606499955472
 30
0.0
 11
366.98380896946418
 21
388.19606499955472
 31
0.0
  0
LINE
  5
227
  8
21
 10
367.67210278335199
 20
386.19606499955472
 30
0.0
 11
367.37773207066908
 21
387.86552427062139
 31
0.0
  0
ARC
  5
228
  8
21
 10
366.98380896946418
 20
387.79606499955457
 30
0.0
 40
0.4
 50
9.9999999999985096
 51
90.0
  0
ARC
  5
229
  8
21
 10
211.96039659723999
 20
387.79606499955457
 30
0.0
 40
0.4
 50
90.0
 51
170.00000000000139
  0
LINE
  5
22A
  8
21
 10
211.27210278335221
 20
386.19606499955472
 30
0.0
 11
211.56647349603509
 21
387.86552427062139
 31
0.0
  0
LINE
  5
22B
  8
21
 10
211.27210278335221
 20
386.19606499955472
 30
0.0
 11
209.4721027833522
 21
386.19606499955472
 31
0.0
  0
LINE
  5
22C
  8
21
 10
209.4721027833522
 20
386.19606499955472
 30
0.0
 11
209.8125267825132
 21
317.18733846405621
 31
0.0
  0
LINE
  5
22D
  8
23
  6
DASHED
 10
221.4438134402578
 20
319.69170173180561
 30
0.0
 11
221.10779095265281
 21
388.19606499955472
 31
0.0
  0
ARC
  5
22E
  8
21
 10
368.13171686112679
 20
317.19606499955472
 30
0.0
 40
1.0
 50
270.00000000000011
 51
359.50000000000011
  0
ARC
  5
22F
  8
21
 10
210.81248870557741
 20
317.19606499955449
 30
0.0
 40
1.0
 50
180.4999999999998
 51
270.00000000000011
  0
LINE
  5
230
  8
23
  6
DASHED
 10
285.47210278335211
 20
324.39606499955482
 30
0.0
 11
293.47210278335211
 21
324.39606499955482
 31
0.0
  0
ARC
  5
231
  8
23
  6
DASHED
 10
294.0542177525374
 20
319.69606499955472
 30
0.0
 40
0.5
 50
181.00000000000821
 51
269.99999999999989
  0
LINE
  5
232
  8
23
  6
DASHED
 10
293.47210278335211
 20
324.39606499955482
 30
0.0
 11
293.5542939049592
 21
319.68733879633612
 31
0.0
  0
ARC
  5
233
  8
23
  6
DASHED
 10
284.88998781416689
 20
319.69606499955489
 30
0.0
 40
0.5
 50
269.99999999999989
 51
358.9999999999917
  0
LINE
  5
234
  8
23
  6
DASHED
 10
285.47210278335211
 20
324.39606499955482
 30
0.0
 11
285.38991166174509
 21
319.68733879633612
 31
0.0
  0
TEXT
  5
235
  8
L20
 10
-103.7323546838293
 20
341.13246479328859
 30
0.0
 40
12.177302443427029
  1
FIBOX EURONORD II 
  7
ISO
  0
LINE
  5
237
  8
23
 10
289.47210278335211
 20
391.19606499955472
 30
0.0
 11
289.47210278335211
 21
313.19606499955461
 31
0.0
  0
LINE
  5
238
  8
43
 10
159.44754430088801
 20
232.45009458861821
 30
0.0
 11
81.44754928639297
 21
232.55064614359091
 31
0.0
  0
LINE
  5
239
  8
13
 10
289.47210278335211
 20
73.711858906746727
 30
0.0
 11
289.47210278335211
 21
151.7118589067467
 31
0.0
  0
LINE
  5
23A
  8
33
 10
419.49666126581627
 20
232.45009458861821
 30
0.0
 11
497.49665628031141
 21
232.55064614359091
 31
0.0
  0
LINE
  5
23B
  8
53
 10
-54.74461814471357
 20
275.7080910548205
 30
0.0
 11
-54.744618144713513
 21
189.7080910548205
 31
0.0
  0
LINE
  5
23C
  8
53
 10
-137.7446181447134
 20
232.7080910548205
 30
0.0
 11
28.255381855286409
 21
232.7080910548205
 31
0.0
  0
TEXT
  5
243
  8
L20
 10
-103.7323546838293
 20
319.42026509837052
 30
0.0
 40
12.177302443427029
  1
80x160x70 BASE
  7
ISO
  0
ENDSEC
  0
EOF
