  0
SECTION
  2
HEADER
  9
$ACADVER
  1
AC1009
  9
$INSBASE
 10
0.0
 20
0.0
 30
0.0
  9
$EXTMIN
 10
52.344559710645171
 20
75.629045207571039
 30
0.0
  9
$EXTMAX
 10
622.32332817769247
 20
333.11325130037892
 30
0.0
  9
$LIMMIN
 10
0.0
 20
0.0
  9
$LIMMAX
 10
594.0
 20
420.0
  9
$ORTHOMODE
 70
     1
  9
$REGENMODE
 70
     1
  9
$FILLMODE
 70
     1
  9
$QTEXTMODE
 70
     0
  9
$MIRRTEXT
 70
     1
  9
$DRAGMODE
 70
     2
  9
$LTSCALE
 40
7.0
  9
$OSMODE
 70
    37
  9
$ATTMODE
 70
     1
  9
$TEXTSIZE
 40
3.5
  9
$TRACEWID
 40
0.5
  9
$TEXTSTYLE
  7
TKKISO
  9
$CLAYER
  8
1
  9
$CELTYPE
  6
BYLAYER
  9
$CECOLOR
 62
   256
  9
$DIMSCALE
 40
1.0
  9
$DIMASZ
 40
3.5
  9
$DIMEXO
 40
1.0
  9
$DIMDLI
 40
7.0
  9
$DIMRND
 40
0.0
  9
$DIMDLE
 40
0.0
  9
$DIMEXE
 40
1.5
  9
$DIMTP
 40
0.0
  9
$DIMTM
 40
0.0
  9
$DIMTXT
 40
3.5
  9
$DIMCEN
 40
0.0
  9
$DIMTSZ
 40
0.0
  9
$DIMTOL
 70
     0
  9
$DIMLIM
 70
     0
  9
$DIMTIH
 70
     0
  9
$DIMTOH
 70
     0
  9
$DIMSE1
 70
     0
  9
$DIMSE2
 70
     0
  9
$DIMTAD
 70
     1
  9
$DIMZIN
 70
     8
  9
$DIMBLK
  1

  9
$DIMASO
 70
     1
  9
$DIMSHO
 70
     1
  9
$DIMPOST
  1

  9
$DIMAPOST
  1

  9
$DIMALT
 70
     0
  9
$DIMALTD
 70
     2
  9
$DIMALTF
 40
25.399999999999999
  9
$DIMLFAC
 40
1.0
  9
$DIMTOFL
 70
     1
  9
$DIMTVP
 40
0.0
  9
$DIMTIX
 70
     0
  9
$DIMSOXD
 70
     0
  9
$DIMSAH
 70
     0
  9
$DIMBLK1
  1

  9
$DIMBLK2
  1

  9
$DIMSTYLE
  2
STANDARD
  9
$DIMCLRD
 70
     1
  9
$DIMCLRE
 70
     1
  9
$DIMCLRT
 70
     3
  9
$DIMTFAC
 40
1.0
  9
$DIMGAP
 40
0.09
  9
$LUNITS
 70
     2
  9
$LUPREC
 70
     1
  9
$SKETCHINC
 40
1.0
  9
$FILLETRAD
 40
0.0
  9
$AUNITS
 70
     0
  9
$AUPREC
 70
     1
  9
$MENU
  1
caesar
  9
$ELEVATION
 40
0.0
  9
$PELEVATION
 40
0.0
  9
$THICKNESS
 40
0.0
  9
$LIMCHECK
 70
     0
  9
$BLIPMODE
 70
     0
  9
$CHAMFERA
 40
5.0
  9
$CHAMFERB
 40
5.0
  9
$SKPOLY
 70
     1
  9
$TDCREATE
 40
2448769.4325216431
  9
$TDUPDATE
 40
2453620.4652751042
  9
$TDINDWG
 40
0.2474976157
  9
$TDUSRTIMER
 40
0.2474976157
  9
$USRTIMER
 70
     1
  9
$ANGBASE
 50
0.0
  9
$ANGDIR
 70
     0
  9
$PDMODE
 70
     0
  9
$PDSIZE
 40
2.0
  9
$PLINEWID
 40
0.0
  9
$COORDS
 70
     2
  9
$SPLFRAME
 70
     0
  9
$SPLINETYPE
 70
     6
  9
$SPLINESEGS
 70
     8
  9
$ATTDIA
 70
     0
  9
$ATTREQ
 70
     1
  9
$HANDLING
 70
-16383
  9
$HANDSEED
  5
311
  9
$SURFTAB1
 70
     6
  9
$SURFTAB2
 70
     6
  9
$SURFTYPE
 70
     6
  9
$SURFU
 70
     6
  9
$SURFV
 70
     6
  9
$UCSNAME
  2

  9
$UCSORG
 10
0.0
 20
0.0
 30
0.0
  9
$UCSXDIR
 10
1.0
 20
0.0
 30
0.0
  9
$UCSYDIR
 10
0.0
 20
1.0
 30
0.0
  9
$PUCSNAME
  2

  9
$PUCSORG
 10
0.0
 20
0.0
 30
0.0
  9
$PUCSXDIR
 10
1.0
 20
0.0
 30
0.0
  9
$PUCSYDIR
 10
0.0
 20
1.0
 30
0.0
  9
$USERI1
 70
     2
  9
$USERI2
 70
     0
  9
$USERI3
 70
     0
  9
$USERI4
 70
     0
  9
$USERI5
 70
     0
  9
$USERR1
 40
1.0
  9
$USERR2
 40
0.0
  9
$USERR3
 40
3.5
  9
$USERR4
 40
0.0
  9
$USERR5
 40
0.0
  9
$WORLDVIEW
 70
     1
  9
$SHADEDGE
 70
     3
  9
$SHADEDIF
 70
    70
  9
$TILEMODE
 70
     1
  9
$MAXACTVP
 70
    16
  9
$PLIMCHECK
 70
     0
  9
$PEXTMIN
 10
1.0000000000000000E+020
 20
1.0000000000000000E+020
 30
1.0000000000000000E+020
  9
$PEXTMAX
 10
-1.0000000000000000E+020
 20
-1.0000000000000000E+020
 30
-1.0000000000000000E+020
  9
$PLIMMIN
 10
0.0
 20
0.0
  9
$PLIMMAX
 10
12.0
 20
9.0
  9
$UNITMODE
 70
     0
  9
$VISRETAIN
 70
     0
  9
$PLINEGEN
 70
     0
  9
$PSLTSCALE
 70
     0
  0
ENDSEC
  0
SECTION
  2
TABLES
  0
TABLE
  2
VPORT
 70
     2
  0
VPORT
  2
*ACTIVE
 70
     0
 10
0.0
 20
0.0
 11
1.0
 21
1.0
 12
337.33919401088639
 22
204.3763742623575
 13
0.0
 23
0.0
 14
6.0
 24
6.0
 15
0.0
 25
0.0
 16
0.0
 26
0.0
 36
1.0
 17
0.0
 27
0.0
 37
0.0
 40
368.11724189371932
 41
1.5552208835341359
 42
50.0
 43
0.0
 44
0.0
 50
0.0
 51
0.0
 71
     0
 72
   500
 73
     1
 74
     0
 75
     0
 76
     0
 77
     0
 78
     0
  0
ENDTAB
  0
TABLE
  2
LTYPE
 70
     3
  0
LTYPE
  2
CONTINUOUS
 70
     0
  3
Solid line
 72
    65
 73
     0
 40
0.0
  0
LTYPE
  2
DASHED
 70
     0
  3
__ __ __ __ __ __ __ __ __ __ __ __ __ __ __
 72
    65
 73
     2
 40
0.75
 49
0.5
 49
-0.25
  0
LTYPE
  2
CENTER
 70
     0
  3
------  -  -----  -  -----  -  -----  -  ------
 72
    65
 73
     4
 40
1.8
 49
1.25
 49
-0.25
 49
0.05
 49
-0.25
  0
ENDTAB
  0
TABLE
  2
LAYER
 70
    12
  0
LAYER
  2
0
 70
     0
 62
     7
  6
CONTINUOUS
  0
LAYER
  2
L20
 70
     0
 62
     3
  6
CONTINUOUS
  0
LAYER
  2
1
 70
     0
 62
     7
  6
CONTINUOUS
  0
LAYER
  2
13
 70
     0
 62
     1
  6
CENTER
  0
LAYER
  2
23
 70
     0
 62
     1
  6
CENTER
  0
LAYER
  2
33
 70
     0
 62
     1
  6
CENTER
  0
LAYER
  2
43
 70
     0
 62
     1
  6
CENTER
  0
LAYER
  2
51
 70
     0
 62
     7
  6
CONTINUOUS
  0
LAYER
  2
52
 70
     0
 62
     1
  6
CONTINUOUS
  0
LAYER
  2
53
 70
     0
 62
     1
  6
CENTER
  0
LAYER
  2
61
 70
     0
 62
     7
  6
CONTINUOUS
  0
LAYER
  2
62
 70
     0
 62
     1
  6
CONTINUOUS
  0
ENDTAB
  0
TABLE
  2
STYLE
 70
     3
  0
STYLE
  2
STANDARD
 70
     0
 40
0.0
 41
1.0
 50
0.0
 71
     0
 42
0.2
  3
caeiso
  4

  0
STYLE
  2
ISO
 70
     0
 40
0.0
 41
1.0
 50
0.0
 71
     0
 42
3.5
  3
SIMPLEX
  4

  0
STYLE
  2
TKKISO
 70
     0
 40
0.0
 41
1.0
 50
0.0
 71
     0
 42
3.5
  3
caeiso
  4

  0
ENDTAB
  0
TABLE
  2
VIEW
 70
     0
  0
ENDTAB
  0
TABLE
  2
UCS
 70
     0
  0
ENDTAB
  0
TABLE
  2
APPID
 70
     2
  0
APPID
  2
ACAD
 70
     0
  0
APPID
  2
DCO15
 70
     0
  0
ENDTAB
  0
TABLE
  2
DIMSTYLE
 70
     1
  0
DIMSTYLE
  2
STANDARD
 70
     0
  3

  4

  5

  6

  7

 40
1.0
 41
0.18
 42
0.0625
 43
0.38
 44
0.18
 45
0.0
 46
0.0
 47
0.0
 48
0.0
140
0.18
141
0.09
142
0.0
143
25.399999999999999
144
1.0
145
0.0
146
1.0
147
0.09
 71
     0
 72
     0
 73
     1
 74
     1
 75
     0
 76
     0
 77
     0
 78
     0
170
     0
171
     2
172
     0
173
     0
174
     0
175
     0
176
     0
177
     0
178
     0
  0
ENDTAB
  0
ENDSEC
  0
SECTION
  2
BLOCKS
  0
BLOCK
  8
0
  2
$MODEL_SPACE
 70
     0
 10
0.0
 20
0.0
 30
0.0
  3
$MODEL_SPACE
  1

  0
ENDBLK
  5
84
  8
0
  0
BLOCK
 67
     1
  8
0
  2
$PAPER_SPACE
 70
     0
 10
0.0
 20
0.0
 30
0.0
  3
$PAPER_SPACE
  1

  0
ENDBLK
  5
82
 67
     1
  8
0
  0
ENDSEC
  0
SECTION
  2
ENTITIES
  0
ARC
  5
85
  8
62
 10
514.14563277585103
 20
237.25696141241031
 30
0.0
 40
0.3
 50
15.01745021050152
 51
180.0
  0
ARC
  5
86
  8
62
 10
522.49877468073305
 20
237.44919380824291
 30
0.0
 40
0.3
 50
0.0
 51
167.61920108281529
  0
ARC
  5
87
  8
62
 10
518.29877468073323
 20
238.37114825397509
 30
0.0
 40
4.0
 50
195.0174502105022
 51
347.61920108281868
  0
ARC
  5
88
  8
62
 10
514.14563277585091
 20
233.6820289993278
 30
0.0
 40
0.3
 50
90.000000000000028
 51
179.99999999999969
  0
ARC
  5
89
  8
62
 10
522.49877468073316
 20
233.6820289993278
 30
0.0
 40
0.3
 50
0.0000000000003053
 51
90.0
  0
ARC
  5
8A
  8
62
 10
514.49121112582725
 20
233.3364506493518
 30
0.0
 40
0.3
 50
90.000000000000213
 51
179.9999999999992
  0
ARC
  5
8B
  8
62
 10
522.15319633075705
 20
233.3364506493518
 30
0.0
 40
0.3
 50
0.0000000000003562
 51
90.0
  0
ARC
  5
8C
  8
62
 10
522.15319633075705
 20
223.9805969068203
 30
0.0
 40
0.3
 50
219.47373888470901
 51
0.0
  0
LINE
  5
8D
  8
62
 10
516.64563277585103
 20
225.26358469906879
 30
0.0
 11
518.79877468073312
 21
225.2635846990689
 31
0.0
  0
LINE
  5
8E
  8
62
 10
514.19121112582707
 20
233.3364506493518
 30
0.0
 11
514.19121112582707
 21
227.71800634909269
 31
0.0
  0
ARC
  5
8F
  8
62
 10
518.79877468073312
 20
221.2180063490926
 30
0.0
 40
4.0455783499761653
 50
39.473738884708439
 51
90.0
  0
LINE
  5
90
  8
62
 10
522.45319633075701
 20
233.3364506493518
 30
0.0
 11
522.45319633075712
 21
223.9805969068203
 31
0.0
  0
LINE
  5
91
  8
62
 10
514.49121112582725
 20
233.6364506493517
 30
0.0
 11
522.15319633075705
 21
233.6364506493517
 31
0.0
  0
ARC
  5
92
  8
61
 10
510.14563277585103
 20
238.87114825397481
 30
0.0
 40
1.9196632919130929
 50
359.99999999999972
 51
90.0
  0
LINE
  5
93
  8
61
 10
512.06529606776417
 20
238.87114825397481
 30
0.0
 11
512.06529606776417
 21
227.71800634909269
 31
0.0
  0
LINE
  5
94
  8
61
 10
516.64563277585103
 20
223.1376696410058
 30
0.0
 11
518.79877468073323
 21
223.1376696410058
 31
0.0
  0
ARC
  5
95
  8
61
 10
518.79877468073312
 20
221.2180063490926
 30
0.0
 40
1.9196632919130929
 50
0.0
 51
90.0
  0
ARC
  5
96
  8
62
 10
510.14563277585103
 20
238.87114825397481
 30
0.0
 40
2.5174537355816371
 50
359.99999999999972
 51
90.0
  0
ARC
  5
97
  8
62
 10
518.79877468073312
 20
221.2180063490926
 30
0.0
 40
2.5174537355816371
 50
0.0
 51
90.0
  0
ARC
  5
98
  8
62
 10
510.14563277585103
 20
238.87114825397481
 30
0.0
 40
3.3473460385831229
 50
359.99999999999972
 51
90.0
  0
ARC
  5
99
  8
62
 10
518.79877468073312
 20
221.2180063490926
 30
0.0
 40
3.3473460385831229
 50
0.0
 51
90.0
  0
ARC
  5
9A
  8
62
 10
522.49877468073316
 20
222.73787476445369
 30
0.0
 40
0.3
 50
202.33164500926989
 51
0.0
  0
ARC
  5
9B
  8
62
 10
510.14563277585103
 20
238.87114825397481
 30
0.0
 40
3.7000000000000002
 50
359.99999999999972
 51
90.0
  0
ARC
  5
9C
  8
62
 10
518.79877468073312
 20
221.2180063490926
 30
0.0
 40
3.7000000000000002
 50
0.0
 51
90.0
  0
LINE
  5
9D
  8
62
 10
513.84563277585096
 20
238.87114825397481
 30
0.0
 11
513.84563277585085
 21
227.71800634909269
 31
0.0
  0
LINE
  5
9E
  8
62
 10
513.49297881443397
 20
238.87114825397481
 30
0.0
 11
513.49297881443397
 21
227.71800634909269
 31
0.0
  0
LINE
  5
9F
  8
62
 10
512.66308651143265
 20
238.87114825397481
 30
0.0
 11
512.66308651143265
 21
227.71800634909269
 31
0.0
  0
LINE
  5
A0
  8
62
 10
516.64563277585103
 20
224.91800634909259
 30
0.0
 11
518.79877468073312
 21
224.91800634909271
 31
0.0
  0
LINE
  5
A1
  8
62
 10
516.64563277585103
 20
224.56535238767589
 30
0.0
 11
518.79877468073323
 21
224.56535238767589
 31
0.0
  0
LINE
  5
A2
  8
62
 10
516.64563277585103
 20
223.7354600846744
 30
0.0
 11
518.79877468073323
 21
223.7354600846744
 31
0.0
  0
ARC
  5
A3
  8
51
 10
518.29877468073323
 20
238.37114825397509
 30
0.0
 40
6.0
 50
0.0000000000000254
 51
90.0
  0
LINE
  5
A4
  8
51
 10
370.29877468073329
 20
244.37114825397501
 30
0.0
 11
518.29877468073323
 21
244.37114825397501
 31
0.0
  0
LINE
  5
A5
  8
51
 10
370.29877468073329
 20
164.37114825397501
 30
0.0
 11
518.29877468073335
 21
164.37114825397501
 31
0.0
  0
LINE
  5
A6
  8
51
 10
364.29877468073329
 20
238.37114825397509
 30
0.0
 11
364.29877468073329
 21
170.37114825397509
 31
0.0
  0
LINE
  5
A7
  8
51
 10
524.29877468073323
 20
238.37114825397509
 30
0.0
 11
524.29877468073335
 21
170.37114825397509
 31
0.0
  0
LINE
  5
A8
  8
62
 10
522.14612071931617
 20
221.2180063490928
 30
0.0
 11
522.14612071931617
 21
187.52429015885721
 31
0.0
  0
LINE
  5
A9
  8
62
 10
378.45191658561561
 20
242.21849429255809
 30
0.0
 11
510.14563277585103
 21
242.21849429255809
 31
0.0
  0
LINE
  5
AA
  8
62
 10
366.45142864215029
 20
221.2180063490926
 30
0.0
 11
366.45142864215029
 21
187.52429015885721
 31
0.0
  0
LINE
  5
AB
  8
62
 10
378.45191658561561
 20
166.52380221539201
 30
0.0
 11
510.14563277585103
 21
166.52380221539201
 31
0.0
  0
LINE
  5
AC
  8
62
 10
522.49877468073316
 20
221.2180063490926
 30
0.0
 11
522.49877468073316
 21
187.52429015885721
 31
0.0
  0
LINE
  5
AD
  8
62
 10
378.45191658561561
 20
242.57114825397491
 30
0.0
 11
510.14563277585103
 21
242.57114825397491
 31
0.0
  0
LINE
  5
AE
  8
62
 10
366.09877468073341
 20
221.2180063490926
 30
0.0
 11
366.09877468073341
 21
187.52429015885721
 31
0.0
  0
LINE
  5
AF
  8
62
 10
378.45191658561561
 20
166.17114825397499
 30
0.0
 11
510.14563277585103
 21
166.17114825397499
 31
0.0
  0
LINE
  5
B0
  8
62
 10
521.31622841631474
 20
221.2180063490928
 30
0.0
 11
521.31622841631474
 21
187.52429015885721
 31
0.0
  0
LINE
  5
B1
  8
62
 10
378.45191658561561
 20
241.38860198955661
 30
0.0
 11
510.14563277585103
 21
241.38860198955661
 31
0.0
  0
LINE
  5
B2
  8
62
 10
367.28132094515178
 20
221.2180063490926
 30
0.0
 11
367.28132094515178
 21
187.52429015885721
 31
0.0
  0
LINE
  5
B3
  8
62
 10
378.45191658561561
 20
167.3536945183935
 30
0.0
 11
510.14563277585103
 21
167.3536945183935
 31
0.0
  0
LINE
  5
B4
  8
51
 10
520.71843797264626
 20
221.2180063490928
 30
0.0
 11
520.71843797264626
 21
187.52429015885721
 31
0.0
  0
LINE
  5
B5
  8
51
 10
378.45191658561561
 20
167.9514849620621
 30
0.0
 11
510.14563277585103
 21
167.9514849620621
 31
0.0
  0
LINE
  5
B6
  8
51
 10
378.45191658561561
 20
240.790811545888
 30
0.0
 11
510.14563277585103
 21
240.790811545888
 31
0.0
  0
LINE
  5
B7
  8
51
 10
367.87911138882038
 20
221.2180063490926
 30
0.0
 11
367.87911138882038
 21
187.52429015885721
 31
0.0
  0
CIRCLE
  5
B8
  8
62
 10
518.29877468073335
 20
238.37114825397509
 30
0.0
 40
1.5
  0
CIRCLE
  5
B9
  8
62
 10
518.29877468073335
 20
238.37114825397509
 30
0.0
 40
2.0499999999999989
  0
LINE
  5
BA
  8
62
 10
522.79877468073312
 20
237.44919380824291
 30
0.0
 11
522.79877468073323
 21
222.73787476445369
 31
0.0
  0
LINE
  5
BB
  8
62
 10
514.14563277585091
 20
233.98202899932801
 30
0.0
 11
522.49877468073316
 21
233.98202899932801
 31
0.0
  0
CIRCLE
  5
BC
  8
62
 10
518.29877468073335
 20
229.37114825397501
 30
0.0
 40
2.25
  0
CIRCLE
  5
BD
  8
51
 10
505.04877468073329
 20
233.37114825397501
 30
0.0
 40
2.0
  0
CIRCLE
  5
BE
  8
51
 10
505.04877468073329
 20
233.37114825397501
 30
0.0
 40
2.25
  0
CIRCLE
  5
BF
  8
51
 10
505.04877468073329
 20
233.37114825397501
 30
0.0
 40
4.0
  0
CIRCLE
  5
C0
  8
51
 10
474.29877468073329
 20
233.37114825397501
 30
0.0
 40
2.0
  0
CIRCLE
  5
C1
  8
51
 10
474.29877468073329
 20
233.37114825397501
 30
0.0
 40
2.25
  0
CIRCLE
  5
C2
  8
51
 10
474.29877468073329
 20
233.37114825397501
 30
0.0
 40
4.0
  0
CIRCLE
  5
C3
  8
51
 10
444.29877468073329
 20
233.37114825397501
 30
0.0
 40
2.0
  0
CIRCLE
  5
C4
  8
51
 10
444.29877468073329
 20
233.37114825397501
 30
0.0
 40
2.25
  0
CIRCLE
  5
C5
  8
51
 10
444.29877468073329
 20
233.37114825397501
 30
0.0
 40
4.0
  0
LINE
  5
C6
  8
53
 10
444.29877468073329
 20
239.37114825397489
 30
0.0
 11
444.29877468073329
 21
169.45252064069101
 31
0.0
  0
CIRCLE
  5
C7
  8
51
 10
414.29877468073329
 20
233.37114825397501
 30
0.0
 40
2.0
  0
CIRCLE
  5
C8
  8
51
 10
414.29877468073329
 20
233.37114825397501
 30
0.0
 40
2.25
  0
CIRCLE
  5
C9
  8
51
 10
414.29877468073329
 20
233.37114825397501
 30
0.0
 40
4.0
  0
CIRCLE
  5
CA
  8
51
 10
383.54877468073329
 20
233.37114825397501
 30
0.0
 40
2.0
  0
CIRCLE
  5
CB
  8
51
 10
383.54877468073329
 20
233.37114825397501
 30
0.0
 40
2.25
  0
CIRCLE
  5
CC
  8
51
 10
383.54877468073329
 20
233.37114825397501
 30
0.0
 40
4.0
  0
CIRCLE
  5
CD
  8
51
 10
383.54877468073329
 20
175.37114825397489
 30
0.0
 40
2.0
  0
CIRCLE
  5
CE
  8
51
 10
383.54877468073329
 20
175.37114825397489
 30
0.0
 40
2.25
  0
CIRCLE
  5
CF
  8
51
 10
383.54877468073329
 20
175.37114825397489
 30
0.0
 40
4.0
  0
CIRCLE
  5
D0
  8
51
 10
414.29877468073329
 20
175.37114825397489
 30
0.0
 40
2.0
  0
CIRCLE
  5
D1
  8
51
 10
414.29877468073329
 20
175.37114825397489
 30
0.0
 40
2.25
  0
CIRCLE
  5
D2
  8
51
 10
414.29877468073329
 20
175.37114825397489
 30
0.0
 40
4.0
  0
CIRCLE
  5
D3
  8
51
 10
444.29877468073329
 20
175.37114825397489
 30
0.0
 40
2.0
  0
CIRCLE
  5
D4
  8
51
 10
444.29877468073329
 20
175.37114825397489
 30
0.0
 40
2.25
  0
CIRCLE
  5
D5
  8
51
 10
444.29877468073329
 20
175.37114825397489
 30
0.0
 40
4.0
  0
CIRCLE
  5
D6
  8
51
 10
474.29877468073329
 20
175.37114825397489
 30
0.0
 40
2.0
  0
CIRCLE
  5
D7
  8
51
 10
474.29877468073329
 20
175.37114825397489
 30
0.0
 40
2.25
  0
CIRCLE
  5
D8
  8
51
 10
474.29877468073329
 20
175.37114825397489
 30
0.0
 40
4.0
  0
CIRCLE
  5
D9
  8
51
 10
505.04877468073329
 20
175.37114825397489
 30
0.0
 40
2.0
  0
CIRCLE
  5
DA
  8
51
 10
505.04877468073329
 20
175.37114825397489
 30
0.0
 40
2.25
  0
CIRCLE
  5
DB
  8
51
 10
505.04877468073329
 20
175.37114825397489
 30
0.0
 40
4.0
  0
CIRCLE
  5
DC
  8
51
 10
444.29877468073329
 20
204.37114825397489
 30
0.0
 40
2.0
  0
CIRCLE
  5
DD
  8
51
 10
444.29877468073329
 20
204.37114825397489
 30
0.0
 40
2.25
  0
CIRCLE
  5
DE
  8
51
 10
444.29877468073329
 20
204.37114825397489
 30
0.0
 40
4.0
  0
LINE
  5
DF
  8
53
 10
370.16676055030848
 20
204.37114825397489
 30
0.0
 11
518.29877468073335
 21
204.37114825397489
 31
0.0
  0
CIRCLE
  5
E0
  8
51
 10
512.29877468073335
 20
204.37114825397489
 30
0.0
 40
4.0
  0
CIRCLE
  5
E1
  8
51
 10
512.29877468073335
 20
204.37114825397489
 30
0.0
 40
2.25
  0
CIRCLE
  5
E2
  8
51
 10
512.29877468073335
 20
204.37114825397489
 30
0.0
 40
2.0
  0
CIRCLE
  5
E3
  8
61
 10
376.29877468073329
 20
204.37114825397489
 30
0.0
 40
4.0
  0
CIRCLE
  5
E4
  8
61
 10
376.29877468073329
 20
204.37114825397489
 30
0.0
 40
2.25
  0
CIRCLE
  5
E5
  8
61
 10
376.29877468073329
 20
204.37114825397489
 30
0.0
 40
2.0
  0
ARC
  5
E6
  8
62
 10
516.64563277585103
 20
227.7180063490926
 30
0.0
 40
2.7999999999999989
 50
179.9999999999996
 51
270.0
  0
ARC
  5
E7
  8
62
 10
516.64563277585103
 20
227.7180063490926
 30
0.0
 40
3.152653961416819
 50
179.9999999999996
 51
270.0
  0
ARC
  5
E8
  8
62
 10
516.64563277585103
 20
227.7180063490926
 30
0.0
 40
2.4544216500238059
 50
179.9999999999996
 51
270.0
  0
ARC
  5
E9
  8
62
 10
516.64563277585103
 20
227.7180063490926
 30
0.0
 40
3.9825462644182772
 50
179.9999999999996
 51
270.0
  0
ARC
  5
EA
  8
61
 10
516.64563277585103
 20
227.7180063490926
 30
0.0
 40
4.5803367080868211
 50
179.9999999999996
 51
270.0
  0
ARC
  5
EB
  8
51
 10
516.64563277585103
 20
181.0242901588573
 30
0.0
 40
4.5803367080868211
 50
90.0
 51
180.00000000000031
  0
ARC
  5
EC
  8
62
 10
516.64563277585103
 20
181.0242901588573
 30
0.0
 40
3.9825462644182772
 50
90.0
 51
180.00000000000031
  0
ARC
  5
ED
  8
62
 10
516.64563277585103
 20
181.0242901588573
 30
0.0
 40
2.4544216500238059
 50
90.0
 51
180.00000000000031
  0
ARC
  5
EE
  8
62
 10
516.64563277585103
 20
181.0242901588573
 30
0.0
 40
3.152653961416819
 50
90.0
 51
180.00000000000031
  0
ARC
  5
EF
  8
62
 10
516.64563277585103
 20
181.0242901588573
 30
0.0
 40
2.7999999999999989
 50
90.0
 51
180.00000000000031
  0
CIRCLE
  5
F0
  8
62
 10
518.29877468073335
 20
179.37114825397481
 30
0.0
 40
2.25
  0
LINE
  5
F1
  8
62
 10
514.14563277585091
 20
174.76026750862189
 30
0.0
 11
522.49877468073316
 21
174.76026750862189
 31
0.0
  0
LINE
  5
F2
  8
62
 10
522.79877468073312
 20
171.29310269970691
 30
0.0
 11
522.79877468073323
 21
186.00442174349621
 31
0.0
  0
CIRCLE
  5
F3
  8
62
 10
518.29877468073335
 20
170.37114825397481
 30
0.0
 40
2.0499999999999989
  0
CIRCLE
  5
F4
  8
62
 10
518.29877468073335
 20
170.37114825397481
 30
0.0
 40
1.5
  0
ARC
  5
F5
  8
51
 10
518.29877468073323
 20
170.37114825397481
 30
0.0
 40
6.0
 50
270.0
 51
0.0
  0
LINE
  5
F6
  8
62
 10
516.64563277585103
 20
185.0068364232755
 30
0.0
 11
518.79877468073323
 21
185.0068364232755
 31
0.0
  0
LINE
  5
F7
  8
62
 10
516.64563277585103
 20
184.17694412027399
 30
0.0
 11
518.79877468073323
 21
184.17694412027399
 31
0.0
  0
LINE
  5
F8
  8
62
 10
516.64563277585103
 20
183.8242901588572
 30
0.0
 11
518.79877468073312
 21
183.8242901588572
 31
0.0
  0
LINE
  5
F9
  8
62
 10
512.66308651143265
 20
169.87114825397501
 30
0.0
 11
512.66308651143265
 21
181.0242901588571
 31
0.0
  0
LINE
  5
FA
  8
62
 10
513.49297881443397
 20
169.87114825397501
 30
0.0
 11
513.49297881443397
 21
181.0242901588571
 31
0.0
  0
LINE
  5
FB
  8
62
 10
513.84563277585096
 20
169.87114825397501
 30
0.0
 11
513.84563277585085
 21
181.02429015885721
 31
0.0
  0
ARC
  5
FC
  8
62
 10
518.79877468073312
 20
187.52429015885721
 30
0.0
 40
3.7000000000000002
 50
270.0
 51
0.0
  0
ARC
  5
FD
  8
62
 10
510.14563277585103
 20
169.87114825397501
 30
0.0
 40
3.7000000000000002
 50
270.0
 51
0.0000000000001781
  0
ARC
  5
FE
  8
62
 10
522.49877468073316
 20
186.00442174349621
 30
0.0
 40
0.3
 50
0.0
 51
157.66835499072999
  0
ARC
  5
FF
  8
62
 10
518.79877468073312
 20
187.52429015885721
 30
0.0
 40
3.3473460385831229
 50
270.0
 51
0.0
  0
ARC
  5
100
  8
62
 10
510.14563277585103
 20
169.87114825397501
 30
0.0
 40
3.3473460385831229
 50
270.0
 51
0.0000000000001781
  0
ARC
  5
101
  8
62
 10
518.79877468073312
 20
187.52429015885721
 30
0.0
 40
2.5174537355816371
 50
270.0
 51
0.0
  0
ARC
  5
102
  8
62
 10
510.14563277585103
 20
169.87114825397501
 30
0.0
 40
2.5174537355816371
 50
270.0
 51
0.0000000000001781
  0
ARC
  5
103
  8
51
 10
518.79877468073312
 20
187.52429015885721
 30
0.0
 40
1.9196632919130929
 50
270.0
 51
0.0
  0
LINE
  5
104
  8
51
 10
516.64563277585103
 20
185.6046268669441
 30
0.0
 11
518.79877468073323
 21
185.6046268669441
 31
0.0
  0
LINE
  5
105
  8
51
 10
512.06529606776417
 20
169.87114825397501
 30
0.0
 11
512.06529606776417
 21
181.0242901588571
 31
0.0
  0
ARC
  5
106
  8
51
 10
510.14563277585103
 20
169.87114825397501
 30
0.0
 40
1.9196632919130929
 50
270.0
 51
0.0000000000001781
  0
LINE
  5
107
  8
62
 10
514.49121112582725
 20
175.10584585859809
 30
0.0
 11
522.15319633075705
 21
175.10584585859809
 31
0.0
  0
LINE
  5
108
  8
62
 10
522.45319633075701
 20
175.4058458585981
 30
0.0
 11
522.45319633075712
 21
184.76169960112961
 31
0.0
  0
ARC
  5
109
  8
62
 10
518.79877468073312
 20
187.52429015885721
 30
0.0
 40
4.0455783499761653
 50
270.0
 51
320.5262611152915
  0
LINE
  5
10A
  8
62
 10
514.19121112582707
 20
175.4058458585981
 30
0.0
 11
514.19121112582707
 21
181.0242901588571
 31
0.0
  0
LINE
  5
10B
  8
62
 10
516.64563277585103
 20
183.478711808881
 30
0.0
 11
518.79877468073312
 21
183.478711808881
 31
0.0
  0
ARC
  5
10C
  8
62
 10
522.15319633075705
 20
184.76169960112961
 30
0.0
 40
0.3
 50
0.0
 51
140.52626111529091
  0
ARC
  5
10D
  8
62
 10
522.15319633075705
 20
175.4058458585981
 30
0.0
 40
0.3
 50
270.0
 51
359.9999999999996
  0
ARC
  5
10E
  8
62
 10
514.49121112582725
 20
175.4058458585981
 30
0.0
 40
0.3
 50
180.00000000000071
 51
269.99999999999972
  0
ARC
  5
10F
  8
62
 10
522.49877468073316
 20
175.0602675086221
 30
0.0
 40
0.3
 50
270.0
 51
359.99999999999972
  0
ARC
  5
110
  8
62
 10
514.14563277585091
 20
175.0602675086221
 30
0.0
 40
0.3
 50
180.00000000000031
 51
270.0
  0
ARC
  5
111
  8
62
 10
518.29877468073323
 20
170.37114825397481
 30
0.0
 40
4.0
 50
12.38079891718129
 51
164.9825497894978
  0
ARC
  5
112
  8
62
 10
522.49877468073305
 20
171.29310269970691
 30
0.0
 40
0.3
 50
192.38079891718459
 51
0.0
  0
ARC
  5
113
  8
62
 10
514.14563277585103
 20
171.4853350955396
 30
0.0
 40
0.3
 50
180.0
 51
344.98254978949842
  0
ARC
  5
114
  8
51
 10
371.95191658561572
 20
227.7180063490926
 30
0.0
 40
4.5803367080868211
 50
270.0
 51
0.0000000000003181
  0
ARC
  5
115
  8
62
 10
371.95191658561572
 20
227.7180063490926
 30
0.0
 40
3.9825462644182772
 50
270.0
 51
0.0000000000003181
  0
ARC
  5
116
  8
62
 10
371.95191658561572
 20
227.7180063490926
 30
0.0
 40
2.4544216500238059
 50
270.0
 51
0.0000000000003181
  0
ARC
  5
117
  8
62
 10
371.95191658561572
 20
227.7180063490926
 30
0.0
 40
3.152653961416819
 50
270.0
 51
0.0000000000003181
  0
ARC
  5
118
  8
62
 10
371.95191658561572
 20
227.7180063490926
 30
0.0
 40
2.7999999999999989
 50
270.0
 51
0.0000000000003181
  0
CIRCLE
  5
119
  8
62
 10
370.29877468073329
 20
229.37114825397501
 30
0.0
 40
2.25
  0
LINE
  5
11A
  8
62
 10
374.45191658561572
 20
233.98202899932801
 30
0.0
 11
366.09877468073353
 21
233.98202899932801
 31
0.0
  0
LINE
  5
11B
  8
62
 10
365.79877468073352
 20
237.44919380824291
 30
0.0
 11
365.7987746807334
 21
222.73787476445369
 31
0.0
  0
CIRCLE
  5
11C
  8
62
 10
370.29877468073329
 20
238.37114825397509
 30
0.0
 40
2.0499999999999989
  0
CIRCLE
  5
11D
  8
62
 10
370.29877468073329
 20
238.37114825397509
 30
0.0
 40
1.5
  0
ARC
  5
11E
  8
51
 10
370.2987746807334
 20
238.37114825397509
 30
0.0
 40
6.0
 50
90.000000000000028
 51
180.0
  0
LINE
  5
11F
  8
62
 10
371.95191658561572
 20
223.7354600846744
 30
0.0
 11
369.7987746807334
 21
223.7354600846744
 31
0.0
  0
LINE
  5
120
  8
62
 10
371.95191658561572
 20
224.56535238767589
 30
0.0
 11
369.7987746807334
 21
224.56535238767589
 31
0.0
  0
LINE
  5
121
  8
62
 10
371.95191658561572
 20
224.91800634909259
 30
0.0
 11
369.79877468073352
 21
224.91800634909271
 31
0.0
  0
LINE
  5
122
  8
62
 10
375.93446285003398
 20
238.87114825397481
 30
0.0
 11
375.93446285003398
 21
227.71800634909269
 31
0.0
  0
LINE
  5
123
  8
62
 10
375.10457054703261
 20
238.87114825397481
 30
0.0
 11
375.10457054703249
 21
227.71800634909269
 31
0.0
  0
LINE
  5
124
  8
62
 10
374.75191658561562
 20
238.87114825397481
 30
0.0
 11
374.75191658561567
 21
227.71800634909269
 31
0.0
  0
ARC
  5
125
  8
62
 10
369.79877468073352
 20
221.2180063490926
 30
0.0
 40
3.7000000000000002
 50
90.000000000000028
 51
180.0
  0
ARC
  5
126
  8
62
 10
378.45191658561561
 20
238.87114825397481
 30
0.0
 40
3.7000000000000002
 50
90.000000000000028
 51
180.0000000000002
  0
ARC
  5
127
  8
62
 10
366.09877468073341
 20
222.73787476445369
 30
0.0
 40
0.3
 50
180.0
 51
337.66835499072999
  0
ARC
  5
128
  8
62
 10
369.79877468073352
 20
221.2180063490926
 30
0.0
 40
3.3473460385831229
 50
90.000000000000028
 51
180.0
  0
ARC
  5
129
  8
62
 10
378.45191658561561
 20
238.87114825397481
 30
0.0
 40
3.3473460385831229
 50
90.000000000000028
 51
180.0000000000002
  0
ARC
  5
12A
  8
62
 10
369.79877468073352
 20
221.2180063490926
 30
0.0
 40
2.5174537355816371
 50
90.000000000000028
 51
180.0
  0
ARC
  5
12B
  8
62
 10
378.45191658561561
 20
238.87114825397481
 30
0.0
 40
2.5174537355816371
 50
90.000000000000028
 51
180.0000000000002
  0
ARC
  5
12C
  8
51
 10
369.79877468073352
 20
221.2180063490926
 30
0.0
 40
1.9196632919130929
 50
90.000000000000028
 51
180.0
  0
LINE
  5
12D
  8
51
 10
371.95191658561572
 20
223.1376696410058
 30
0.0
 11
369.7987746807334
 21
223.1376696410058
 31
0.0
  0
LINE
  5
12E
  8
51
 10
376.53225329370252
 20
238.87114825397481
 30
0.0
 11
376.53225329370252
 21
227.71800634909269
 31
0.0
  0
ARC
  5
12F
  8
51
 10
378.45191658561561
 20
238.87114825397481
 30
0.0
 40
1.9196632919130929
 50
90.000000000000028
 51
180.0000000000002
  0
LINE
  5
130
  8
62
 10
374.10633823563938
 20
233.6364506493517
 30
0.0
 11
366.44435303070958
 21
233.6364506493517
 31
0.0
  0
LINE
  5
131
  8
62
 10
366.14435303070962
 20
233.3364506493518
 30
0.0
 11
366.14435303070951
 21
223.9805969068203
 31
0.0
  0
ARC
  5
132
  8
62
 10
369.79877468073352
 20
221.2180063490926
 30
0.0
 40
4.0455783499761653
 50
90.000000000000028
 51
140.5262611152915
  0
LINE
  5
133
  8
62
 10
374.40633823563951
 20
233.3364506493518
 30
0.0
 11
374.40633823563951
 21
227.71800634909269
 31
0.0
  0
LINE
  5
134
  8
62
 10
371.95191658561572
 20
225.26358469906879
 30
0.0
 11
369.79877468073352
 21
225.2635846990689
 31
0.0
  0
ARC
  5
135
  8
62
 10
366.44435303070958
 20
223.9805969068203
 30
0.0
 40
0.3
 50
180.0
 51
320.52626111529088
  0
ARC
  5
136
  8
62
 10
366.44435303070958
 20
233.3364506493518
 30
0.0
 40
0.3
 50
90.000000000000028
 51
179.9999999999996
  0
ARC
  5
137
  8
62
 10
374.10633823563938
 20
233.3364506493518
 30
0.0
 40
0.3
 50
0.0000000000007252
 51
89.999999999999758
  0
ARC
  5
138
  8
62
 10
366.09877468073353
 20
233.6820289993278
 30
0.0
 40
0.3
 50
90.000000000000028
 51
179.99999999999969
  0
ARC
  5
139
  8
62
 10
374.45191658561572
 20
233.6820289993278
 30
0.0
 40
0.3
 50
0.0000000000002672
 51
89.999999999999986
  0
ARC
  5
13A
  8
62
 10
370.2987746807334
 20
238.37114825397509
 30
0.0
 40
4.0
 50
192.38079891718129
 51
344.98254978949768
  0
ARC
  5
13B
  8
62
 10
366.09877468073358
 20
237.44919380824291
 30
0.0
 40
0.3
 50
12.38079891718465
 51
180.0
  0
ARC
  5
13C
  8
62
 10
374.45191658561561
 20
237.25696141241031
 30
0.0
 40
0.3
 50
0.0000000000000127
 51
164.98254978949851
  0
ARC
  5
13D
  8
62
 10
374.45191658561561
 20
171.4853350955396
 30
0.0
 40
0.3
 50
195.01745021050149
 51
359.99999999999989
  0
ARC
  5
13E
  8
62
 10
366.09877468073358
 20
171.29310269970691
 30
0.0
 40
0.3
 50
180.0
 51
347.61920108281532
  0
ARC
  5
13F
  8
62
 10
370.2987746807334
 20
170.37114825397481
 30
0.0
 40
4.0
 50
15.01745021050221
 51
167.61920108281871
  0
ARC
  5
140
  8
62
 10
374.45191658561572
 20
175.0602675086221
 30
0.0
 40
0.3
 50
270.0
 51
359.99999999999972
  0
ARC
  5
141
  8
62
 10
366.09877468073353
 20
175.0602675086221
 30
0.0
 40
0.3
 50
180.00000000000031
 51
270.0
  0
ARC
  5
142
  8
62
 10
374.10633823563938
 20
175.4058458585981
 30
0.0
 40
0.3
 50
270.00000000000023
 51
359.9999999999992
  0
ARC
  5
143
  8
62
 10
366.44435303070958
 20
175.4058458585981
 30
0.0
 40
0.3
 50
180.00000000000031
 51
270.0
  0
ARC
  5
144
  8
62
 10
366.44435303070958
 20
184.76169960112961
 30
0.0
 40
0.3
 50
39.4737388847091
 51
180.0
  0
LINE
  5
145
  8
62
 10
371.95191658561572
 20
183.478711808881
 30
0.0
 11
369.79877468073352
 21
183.478711808881
 31
0.0
  0
LINE
  5
146
  8
62
 10
374.40633823563951
 20
175.4058458585981
 30
0.0
 11
374.40633823563951
 21
181.0242901588571
 31
0.0
  0
ARC
  5
147
  8
62
 10
369.79877468073352
 20
187.52429015885721
 30
0.0
 40
4.0455783499761653
 50
219.47373888470841
 51
270.0
  0
LINE
  5
148
  8
62
 10
366.14435303070962
 20
175.4058458585981
 30
0.0
 11
366.14435303070951
 21
184.76169960112961
 31
0.0
  0
LINE
  5
149
  8
62
 10
374.10633823563938
 20
175.10584585859809
 30
0.0
 11
366.44435303070958
 21
175.10584585859809
 31
0.0
  0
ARC
  5
14A
  8
51
 10
378.45191658561561
 20
169.87114825397501
 30
0.0
 40
1.9196632919130929
 50
179.9999999999998
 51
270.0
  0
LINE
  5
14B
  8
51
 10
376.53225329370252
 20
169.87114825397501
 30
0.0
 11
376.53225329370252
 21
181.0242901588571
 31
0.0
  0
LINE
  5
14C
  8
51
 10
371.95191658561572
 20
185.6046268669441
 30
0.0
 11
369.7987746807334
 21
185.6046268669441
 31
0.0
  0
ARC
  5
14D
  8
51
 10
369.79877468073352
 20
187.52429015885721
 30
0.0
 40
1.9196632919130929
 50
180.0
 51
270.0
  0
ARC
  5
14E
  8
62
 10
378.45191658561561
 20
169.87114825397501
 30
0.0
 40
2.5174537355816371
 50
179.9999999999998
 51
270.0
  0
ARC
  5
14F
  8
62
 10
369.79877468073352
 20
187.52429015885721
 30
0.0
 40
2.5174537355816371
 50
180.0
 51
270.0
  0
ARC
  5
150
  8
62
 10
378.45191658561561
 20
169.87114825397501
 30
0.0
 40
3.3473460385831229
 50
179.9999999999998
 51
270.0
  0
ARC
  5
151
  8
62
 10
369.79877468073352
 20
187.52429015885721
 30
0.0
 40
3.3473460385831229
 50
180.0
 51
270.0
  0
ARC
  5
152
  8
62
 10
366.09877468073341
 20
186.00442174349621
 30
0.0
 40
0.3
 50
22.33164500926997
 51
180.0
  0
ARC
  5
153
  8
62
 10
378.45191658561561
 20
169.87114825397501
 30
0.0
 40
3.7000000000000002
 50
179.9999999999998
 51
270.0
  0
ARC
  5
154
  8
62
 10
369.79877468073352
 20
187.52429015885721
 30
0.0
 40
3.7000000000000002
 50
180.0
 51
270.0
  0
LINE
  5
155
  8
62
 10
374.75191658561562
 20
169.87114825397501
 30
0.0
 11
374.75191658561567
 21
181.02429015885721
 31
0.0
  0
LINE
  5
156
  8
62
 10
375.10457054703261
 20
169.87114825397501
 30
0.0
 11
375.10457054703249
 21
181.0242901588571
 31
0.0
  0
LINE
  5
157
  8
62
 10
375.93446285003398
 20
169.87114825397501
 30
0.0
 11
375.93446285003398
 21
181.0242901588571
 31
0.0
  0
LINE
  5
158
  8
62
 10
371.95191658561572
 20
183.8242901588572
 30
0.0
 11
369.79877468073352
 21
183.8242901588572
 31
0.0
  0
LINE
  5
159
  8
62
 10
371.95191658561572
 20
184.17694412027399
 30
0.0
 11
369.7987746807334
 21
184.17694412027399
 31
0.0
  0
LINE
  5
15A
  8
62
 10
371.95191658561572
 20
185.0068364232755
 30
0.0
 11
369.7987746807334
 21
185.0068364232755
 31
0.0
  0
ARC
  5
15B
  8
51
 10
370.2987746807334
 20
170.37114825397481
 30
0.0
 40
6.0
 50
180.0
 51
270.0
  0
CIRCLE
  5
15C
  8
62
 10
370.29877468073329
 20
170.37114825397481
 30
0.0
 40
1.5
  0
CIRCLE
  5
15D
  8
62
 10
370.29877468073329
 20
170.37114825397481
 30
0.0
 40
2.0499999999999989
  0
LINE
  5
15E
  8
62
 10
365.79877468073352
 20
171.29310269970691
 30
0.0
 11
365.7987746807334
 21
186.00442174349621
 31
0.0
  0
LINE
  5
15F
  8
62
 10
374.45191658561572
 20
174.76026750862189
 30
0.0
 11
366.09877468073353
 21
174.76026750862189
 31
0.0
  0
CIRCLE
  5
160
  8
62
 10
370.29877468073329
 20
179.37114825397481
 30
0.0
 40
2.25
  0
ARC
  5
161
  8
62
 10
371.95191658561572
 20
181.0242901588573
 30
0.0
 40
2.7999999999999989
 50
359.9999999999996
 51
90.000000000000028
  0
ARC
  5
162
  8
62
 10
371.95191658561572
 20
181.0242901588573
 30
0.0
 40
3.152653961416819
 50
359.9999999999996
 51
90.000000000000028
  0
ARC
  5
163
  8
62
 10
371.95191658561572
 20
181.0242901588573
 30
0.0
 40
2.4544216500238059
 50
359.9999999999996
 51
90.000000000000028
  0
ARC
  5
164
  8
62
 10
371.95191658561572
 20
181.0242901588573
 30
0.0
 40
3.9825462644182772
 50
359.9999999999996
 51
90.000000000000028
  0
ARC
  5
165
  8
51
 10
371.95191658561572
 20
181.0242901588573
 30
0.0
 40
4.5803367080868211
 50
359.9999999999996
 51
90.000000000000028
  0
CIRCLE
  5
166
  8
62
 10
518.29877468073323
 20
238.37114825397509
 30
0.0
 40
3.0
  0
CIRCLE
  5
167
  8
62
 10
518.29877468073323
 20
170.37114825397481
 30
0.0
 40
3.0
  0
CIRCLE
  5
168
  8
62
 10
370.2987746807334
 20
238.37114825397509
 30
0.0
 40
3.0
  0
CIRCLE
  5
169
  8
62
 10
370.29877468073329
 20
170.37114825397481
 30
0.0
 40
3.0
  0
TEXT
  5
16A
  8
L20
 10
74.618205253031505
 20
311.78788095566142
 30
0.0
 40
9.1613373339951707
  1
FIBOX EURONORD II
  7
ISO
  0
LINE
  5
16C
  8
53
 10
444.29877468073329
 20
333.11325130037892
 30
0.0
 11
444.29877468073329
 21
285.11325130037892
 31
0.0
  0
LINE
  5
16D
  8
53
 10
266.2742211837741
 20
204.46783244441511
 30
0.0
 11
314.27421619826907
 21
204.36728088944241
 31
0.0
  0
LINE
  5
16E
  8
53
 10
622.32332817769247
 20
204.46783244441511
 30
0.0
 11
574.3233331631975
 21
204.36728088944241
 31
0.0
  0
LINE
  5
16F
  8
53
 10
444.29877468073329
 20
75.629045207571039
 30
0.0
 11
444.29877468073329
 21
123.629045207571
 31
0.0
  0
LINE
  5
170
  8
53
 10
135.344559710645
 20
247.6807530536847
 30
0.0
 11
135.34455971064509
 21
161.6807530536847
 31
0.0
  0
LINE
  5
171
  8
53
 10
218.344559710645
 20
204.6807530536847
 30
0.0
 11
52.344559710645171
 21
204.68075305368481
 31
0.0
  0
ARC
  5
172
  8
43
  6
DASHED
 10
307.7742186910217
 20
199.78903328478981
 30
0.0
 40
0.5
 50
0.0
 51
88.999999999991815
  0
ARC
  5
173
  8
43
  6
DASHED
 10
307.77421869102147
 20
208.95326322316021
 30
0.0
 40
0.5
 50
271.00000000000819
 51
0.0
  0
ARC
  5
174
  8
51
 10
310.27421869102147
 20
165.7115341762005
 30
0.0
 40
1.0
 50
270.49999999999972
 51
359.99999999999989
  0
ARC
  5
175
  8
51
 10
310.2742186910217
 20
243.03076233174971
 30
0.0
 40
1.0
 50
359.99999999999989
 51
89.500000000000014
  0
ARC
  5
176
  8
51
 10
269.67421869102151
 20
166.85944206786311
 30
0.0
 40
0.4
 50
180.0
 51
259.99999999999989
  0
LINE
  5
177
  8
43
  6
DASHED
 10
307.77858195877081
 20
185.34285891088069
 30
0.0
 11
269.2742186910217
 21
185.0068364232757
 31
0.0
  0
LINE
  5
178
  8
51
 10
311.27421869102159
 20
243.03076233174971
 30
0.0
 11
311.27421869102159
 21
165.7115341762005
 31
0.0
  0
LINE
  5
179
  8
51
 10
271.2742186910217
 20
164.37114825397521
 30
0.0
 11
310.28294522651993
 21
164.7115722531363
 31
0.0
  0
LINE
  5
17A
  8
43
  6
DASHED
 10
308.27421869102147
 20
222.8994566355374
 30
0.0
 11
308.27421869102147
 21
208.95326322316021
 31
0.0
  0
LINE
  5
17B
  8
51
 10
271.2742186910217
 20
166.17114825397519
 30
0.0
 11
271.2742186910217
 21
164.37114825397521
 31
0.0
  0
LINE
  5
17C
  8
51
 10
269.2742186910217
 20
242.06848809190191
 30
0.0
 11
269.2742186910217
 21
166.85944206786311
 31
0.0
  0
LINE
  5
17D
  8
51
 10
271.2742186910217
 20
166.17114825397519
 30
0.0
 11
269.60475941995469
 21
166.46551896665801
 31
0.0
  0
LINE
  5
17E
  8
51
 10
271.27421869102147
 20
242.75678190578969
 30
0.0
 11
271.2742186910217
 21
244.37114825397501
 31
0.0
  0
LINE
  5
17F
  8
51
 10
271.2742186910217
 20
244.37114825397501
 30
0.0
 11
310.28294522651998
 21
244.03072425481389
 31
0.0
  0
LINE
  5
180
  8
43
  6
DASHED
 10
307.77858195877081
 20
223.39943759706949
 30
0.0
 11
269.2742186910217
 21
223.73546008467429
 31
0.0
  0
LINE
  5
181
  8
51
 10
271.27421869102147
 20
242.75678190578969
 30
0.0
 11
269.60475941995492
 21
242.4624111931069
 31
0.0
  0
ARC
  5
182
  8
51
 10
269.67421869102168
 20
242.06848809190191
 30
0.0
 40
0.4
 50
99.999999999998494
 51
180.0
  0
LINE
  5
183
  8
43
  6
DASHED
 10
303.0742186910216
 20
208.37114825397501
 30
0.0
 11
303.0742186910216
 21
200.37114825397501
 31
0.0
  0
LINE
  5
184
  8
43
  6
DASHED
 10
303.0742186910216
 20
208.37114825397501
 30
0.0
 11
307.7829448942403
 21
208.453339375582
 31
0.0
  0
LINE
  5
185
  8
43
  6
DASHED
 10
303.0742186910216
 20
200.37114825397501
 30
0.0
 11
307.7829448942403
 21
200.28895713236801
 31
0.0
  0
LINE
  5
186
  8
43
  6
DASHED
 10
308.2742186910217
 20
199.78903328478981
 30
0.0
 11
308.2742186910217
 21
185.8428398724127
 31
0.0
  0
ARC
  5
187
  8
43
  6
DASHED
 10
307.77421869102147
 20
222.8994566355374
 30
0.0
 40
0.5
 50
0.0
 51
89.500000000000185
  0
ARC
  5
188
  8
43
  6
DASHED
 10
307.7742186910217
 20
185.8428398724127
 30
0.0
 40
0.5
 50
270.49999999999977
 51
0.0
  0
LINE
  5
189
  8
51
 10
271.27421869102147
 20
242.75678190578969
 30
0.0
 11
271.2742186910217
 21
166.17114825397519
 31
0.0
  0
LINE
  5
18A
  8
43
  6
DASHED
 10
308.27421869102147
 20
208.95326322316021
 30
0.0
 11
308.27421869102159
 21
199.78903328478981
 31
0.0
  0
CIRCLE
  5
18B
  8
51
 10
61.344559710645058
 20
179.6807530536847
 30
0.0
 40
2.25
  0
CIRCLE
  5
18C
  8
51
 10
61.344559710645058
 20
229.6807530536847
 30
0.0
 40
2.25
  0
CIRCLE
  5
18D
  8
51
 10
209.34455971064509
 20
179.6807530536847
 30
0.0
 40
2.25
  0
CIRCLE
  5
18E
  8
51
 10
209.34455971064509
 20
229.6807530536847
 30
0.0
 40
2.25
  0
ARC
  5
18F
  8
52
 10
209.344559710645
 20
238.6807530536847
 30
0.0
 40
4.338359623145652
 50
0.0000000000000254
 51
90.0
  0
LINE
  5
190
  8
52
 10
61.344559710645171
 20
166.34239343053909
 30
0.0
 11
209.34455971064509
 21
166.34239343053909
 31
0.0
  0
LINE
  5
191
  8
52
 10
57.006200087499572
 20
238.6807530536847
 30
0.0
 11
57.006200087499572
 21
170.6807530536847
 31
0.0
  0
LINE
  5
192
  8
52
 10
61.344559710645171
 20
243.0191126768303
 30
0.0
 11
209.344559710645
 21
243.0191126768303
 31
0.0
  0
LINE
  5
193
  8
52
 10
213.68291933379069
 20
238.6807530536847
 30
0.0
 11
213.68291933379069
 21
170.6807530536847
 31
0.0
  0
ARC
  5
194
  8
51
 10
209.34455971064509
 20
238.6807530536847
 30
0.0
 40
3.9999999999990781
 50
0.0
 51
90.0
  0
LINE
  5
195
  8
51
 10
204.92835943453429
 20
242.6807530536847
 30
0.0
 11
209.34455971064509
 21
242.6807530536847
 31
0.0
  0
LINE
  5
196
  8
51
 10
206.24309783713829
 20
235.1807530536847
 30
0.0
 11
213.0445597106451
 21
235.1807530536847
 31
0.0
  0
LINE
  5
197
  8
51
 10
213.344559710645
 20
238.6807530536847
 30
0.0
 11
213.344559710645
 21
235.48075305368459
 31
0.0
  0
ARC
  5
198
  8
51
 10
209.344559710645
 20
238.6807530536847
 30
0.0
 40
6.0
 50
0.0000000000000254
 51
90.0
  0
LINE
  5
199
  8
51
 10
61.344559710645171
 20
244.6807530536847
 30
0.0
 11
209.344559710645
 21
244.6807530536847
 31
0.0
  0
LINE
  5
19A
  8
51
 10
61.344559710645171
 20
164.6807530536847
 30
0.0
 11
209.34455971064509
 21
164.6807530536847
 31
0.0
  0
LINE
  5
19B
  8
51
 10
55.344559710645171
 20
238.6807530536847
 30
0.0
 11
55.344559710645171
 21
170.6807530536847
 31
0.0
  0
LINE
  5
19C
  8
51
 10
215.344559710645
 20
238.6807530536847
 30
0.0
 11
215.34455971064509
 21
170.6807530536847
 31
0.0
  0
CIRCLE
  5
19D
  8
51
 10
209.34455971064509
 20
238.6807530536847
 30
0.0
 40
1.5
  0
ARC
  5
19E
  8
52
 10
209.34455971064509
 20
238.6807530536847
 30
0.0
 40
2.0499999999999989
 50
79.320795379426826
 51
13.37719921054067
  0
LINE
  5
19F
  8
51
 10
205.94309783713831
 20
239.1807530536845
 30
0.0
 11
205.9430978371382
 21
235.48075305368459
 31
0.0
  0
ARC
  5
1A0
  8
51
 10
201.6914178057628
 20
239.1807530536845
 30
0.0
 40
4.2516800313755541
 50
359.99999999999977
 51
44.671182946513063
  0
ARC
  5
1A1
  8
51
 10
204.92835943453429
 20
242.38075305368471
 30
0.0
 40
0.3
 50
90.0
 51
224.67118294651789
  0
LINE
  5
1A2
  8
52
 10
206.76670990458379
 20
235.70436512113031
 30
0.0
 11
212.52094764319949
 21
235.70436512113031
 31
0.0
  0
LINE
  5
1A3
  8
52
 10
212.8209476431995
 20
238.6807530536847
 30
0.0
 11
212.8209476431995
 21
236.00436512113021
 31
0.0
  0
ARC
  5
1A4
  8
52
 10
209.34455971064509
 20
238.6807530536847
 30
0.0
 40
3.4763879325534952
 50
0.0
 51
90.0
  0
LINE
  5
1A5
  8
52
 10
206.0036721492414
 20
242.15714098623911
 30
0.0
 11
209.34455971064509
 21
242.15714098623911
 31
0.0
  0
ARC
  5
1A6
  8
52
 10
201.6914178057628
 20
239.1807530536845
 30
0.0
 40
4.7752920988211374
 50
359.99999999999977
 51
31.825684299826399
  0
LINE
  5
1A7
  8
52
 10
206.46670990458401
 20
239.1807530536845
 30
0.0
 11
206.46670990458381
 21
236.00436512113021
 31
0.0
  0
ARC
  5
1A8
  8
52
 10
206.0036721492414
 20
241.85714098623919
 30
0.0
 40
0.3
 50
90.0
 51
211.82568429983371
  0
ARC
  5
1A9
  8
52
 10
206.0036721492414
 20
167.50436512113021
 30
0.0
 40
0.3
 50
148.1743157001662
 51
270.0
  0
LINE
  5
1AA
  8
52
 10
206.46670990458401
 20
170.1807530536849
 30
0.0
 11
206.46670990458381
 21
173.35714098623919
 31
0.0
  0
ARC
  5
1AB
  8
52
 10
201.6914178057628
 20
170.1807530536849
 30
0.0
 40
4.7752920988211374
 50
328.17431570017362
 51
0.0000000000001654
  0
LINE
  5
1AC
  8
52
 10
206.0036721492414
 20
167.20436512113031
 30
0.0
 11
209.34455971064509
 21
167.20436512113031
 31
0.0
  0
ARC
  5
1AD
  8
52
 10
209.34455971064509
 20
170.6807530536847
 30
0.0
 40
3.4763879325534952
 50
270.0
 51
0.0
  0
LINE
  5
1AE
  8
52
 10
212.8209476431995
 20
170.6807530536847
 30
0.0
 11
212.8209476431995
 21
173.35714098623919
 31
0.0
  0
LINE
  5
1AF
  8
52
 10
206.76670990458391
 20
173.65714098623911
 30
0.0
 11
212.52094764319949
 21
173.65714098623911
 31
0.0
  0
ARC
  5
1B0
  8
51
 10
204.92835943453429
 20
166.98075305368471
 30
0.0
 40
0.3
 50
135.328817053482
 51
270.0
  0
ARC
  5
1B1
  8
51
 10
201.6914178057628
 20
170.1807530536849
 30
0.0
 40
4.2516800313755541
 50
315.32881705348689
 51
0.0000000000001654
  0
LINE
  5
1B2
  8
51
 10
205.94309783713831
 20
170.1807530536849
 30
0.0
 11
205.9430978371382
 21
173.88075305368471
 31
0.0
  0
ARC
  5
1B3
  8
52
 10
209.34455971064509
 20
170.6807530536847
 30
0.0
 40
2.0499999999999989
 50
346.62280078945929
 51
280.67920462057322
  0
CIRCLE
  5
1B4
  8
51
 10
209.34455971064509
 20
170.6807530536847
 30
0.0
 40
1.5
  0
ARC
  5
1B5
  8
51
 10
209.344559710645
 20
170.6807530536847
 30
0.0
 40
6.0
 50
270.0
 51
0.0
  0
LINE
  5
1B6
  8
51
 10
213.344559710645
 20
170.6807530536847
 30
0.0
 11
213.344559710645
 21
173.88075305368471
 31
0.0
  0
LINE
  5
1B7
  8
51
 10
206.24309783713829
 20
174.1807530536847
 30
0.0
 11
213.0445597106451
 21
174.1807530536847
 31
0.0
  0
LINE
  5
1B8
  8
51
 10
204.92835943453429
 20
166.6807530536847
 30
0.0
 11
209.34455971064509
 21
166.6807530536847
 31
0.0
  0
ARC
  5
1B9
  8
51
 10
209.34455971064509
 20
170.6807530536847
 30
0.0
 40
3.9999999999990781
 50
270.0
 51
0.0
  0
ARC
  5
1BA
  8
52
 10
209.344559710645
 20
170.6807530536847
 30
0.0
 40
4.338359623145652
 50
270.0
 51
0.0
  0
ARC
  5
1BB
  8
52
 10
64.685447272048805
 20
241.85714098623919
 30
0.0
 40
0.3
 50
328.17431570016618
 51
90.000000000000028
  0
LINE
  5
1BC
  8
52
 10
64.222409516706307
 20
239.1807530536845
 30
0.0
 11
64.222409516706421
 21
236.00436512113021
 31
0.0
  0
ARC
  5
1BD
  8
52
 10
68.997701615527433
 20
239.1807530536845
 30
0.0
 40
4.7752920988211374
 50
148.17431570017351
 51
180.0000000000002
  0
LINE
  5
1BE
  8
52
 10
64.685447272048805
 20
242.15714098623911
 30
0.0
 11
61.344559710645107
 21
242.15714098623911
 31
0.0
  0
ARC
  5
1BF
  8
52
 10
61.344559710645107
 20
238.6807530536847
 30
0.0
 40
3.4763879325534952
 50
90.000000000000028
 51
180.0
  0
LINE
  5
1C0
  8
52
 10
57.868171778090691
 20
238.6807530536847
 30
0.0
 11
57.868171778090641
 21
236.00436512113021
 31
0.0
  0
LINE
  5
1C1
  8
52
 10
63.922409516706409
 20
235.70436512113031
 30
0.0
 11
58.168171778090652
 21
235.70436512113031
 31
0.0
  0
ARC
  5
1C2
  8
51
 10
65.760759986755943
 20
242.38075305368471
 30
0.0
 40
0.3
 50
315.328817053482
 51
90.000000000000028
  0
ARC
  5
1C3
  8
51
 10
68.997701615527433
 20
239.1807530536845
 30
0.0
 40
4.2516800313755541
 50
135.32881705348689
 51
180.0000000000002
  0
LINE
  5
1C4
  8
51
 10
64.74602158415189
 20
239.1807530536845
 30
0.0
 11
64.746021584151947
 21
235.48075305368459
 31
0.0
  0
ARC
  5
1C5
  8
52
 10
61.344559710645107
 20
238.6807530536847
 30
0.0
 40
2.0499999999999989
 50
166.62280078945929
 51
100.6792046205732
  0
CIRCLE
  5
1C6
  8
51
 10
61.344559710645107
 20
238.6807530536847
 30
0.0
 40
1.5
  0
ARC
  5
1C7
  8
51
 10
61.344559710645228
 20
238.6807530536847
 30
0.0
 40
6.0
 50
90.000000000000028
 51
180.0
  0
LINE
  5
1C8
  8
51
 10
57.344559710645107
 20
238.6807530536847
 30
0.0
 11
57.344559710645107
 21
235.48075305368459
 31
0.0
  0
LINE
  5
1C9
  8
51
 10
64.446021584151936
 20
235.1807530536847
 30
0.0
 11
57.644559710645133
 21
235.1807530536847
 31
0.0
  0
LINE
  5
1CA
  8
51
 10
65.760759986755943
 20
242.6807530536847
 30
0.0
 11
61.344559710645107
 21
242.6807530536847
 31
0.0
  0
ARC
  5
1CB
  8
51
 10
61.344559710645107
 20
238.6807530536847
 30
0.0
 40
3.9999999999990781
 50
90.000000000000028
 51
180.0
  0
ARC
  5
1CC
  8
52
 10
61.344559710645228
 20
238.6807530536847
 30
0.0
 40
4.338359623145652
 50
90.000000000000028
 51
180.0
  0
ARC
  5
1CD
  8
52
 10
61.344559710645228
 20
170.6807530536847
 30
0.0
 40
4.338359623145652
 50
180.0
 51
270.0
  0
ARC
  5
1CE
  8
51
 10
61.344559710645107
 20
170.6807530536847
 30
0.0
 40
3.9999999999990781
 50
180.0
 51
270.0
  0
LINE
  5
1CF
  8
51
 10
65.760759986755943
 20
166.6807530536847
 30
0.0
 11
61.344559710645107
 21
166.6807530536847
 31
0.0
  0
LINE
  5
1D0
  8
51
 10
64.446021584151936
 20
174.1807530536847
 30
0.0
 11
57.644559710645133
 21
174.1807530536847
 31
0.0
  0
LINE
  5
1D1
  8
51
 10
57.344559710645107
 20
170.6807530536847
 30
0.0
 11
57.344559710645107
 21
173.88075305368471
 31
0.0
  0
ARC
  5
1D2
  8
51
 10
61.344559710645228
 20
170.6807530536847
 30
0.0
 40
6.0
 50
180.0
 51
270.0
  0
CIRCLE
  5
1D3
  8
51
 10
61.344559710645107
 20
170.6807530536847
 30
0.0
 40
1.5
  0
ARC
  5
1D4
  8
52
 10
61.344559710645107
 20
170.6807530536847
 30
0.0
 40
2.0499999999999989
 50
259.32079537942678
 51
193.3771992105406
  0
LINE
  5
1D5
  8
51
 10
64.74602158415189
 20
170.1807530536849
 30
0.0
 11
64.74602158415189
 21
173.880753053685
 31
0.0
  0
ARC
  5
1D6
  8
51
 10
68.997701615527433
 20
170.1807530536849
 30
0.0
 40
4.2516800313755541
 50
179.9999999999998
 51
224.67118294651311
  0
ARC
  5
1D7
  8
51
 10
65.760759986755943
 20
166.98075305368471
 30
0.0
 40
0.3
 50
270.0
 51
44.671182946517973
  0
LINE
  5
1D8
  8
52
 10
63.922409516706409
 20
173.65714098623889
 30
0.0
 11
58.168171778090652
 21
173.65714098623911
 31
0.0
  0
LINE
  5
1D9
  8
52
 10
57.868171778090691
 20
170.6807530536847
 30
0.0
 11
57.868171778090641
 21
173.35714098623919
 31
0.0
  0
ARC
  5
1DA
  8
52
 10
61.344559710645107
 20
170.6807530536847
 30
0.0
 40
3.4763879325534952
 50
180.0
 51
270.0
  0
LINE
  5
1DB
  8
52
 10
64.685447272048805
 20
167.20436512113031
 30
0.0
 11
61.344559710645107
 21
167.20436512113031
 31
0.0
  0
ARC
  5
1DC
  8
52
 10
68.997701615527433
 20
170.1807530536849
 30
0.0
 40
4.7752920988211374
 50
179.9999999999998
 51
211.82568429982629
  0
LINE
  5
1DD
  8
52
 10
64.222409516706307
 20
170.1807530536849
 30
0.0
 11
64.222409516706421
 21
173.35714098623919
 31
0.0
  0
ARC
  5
1DE
  8
52
 10
64.685447272048805
 20
167.50436512113021
 30
0.0
 40
0.3
 50
270.0
 51
31.825684299833782
  0
ARC
  5
1DF
  8
52
 10
212.52094764319949
 20
236.00436512113021
 30
0.0
 40
0.3
 50
270.0
 51
0.0
  0
ARC
  5
1E0
  8
52
 10
206.76670990458379
 20
236.00436512113021
 30
0.0
 40
0.3
 50
179.99999999999821
 51
270.0
  0
ARC
  5
1E1
  8
51
 10
206.24309783713829
 20
235.48075305368459
 30
0.0
 40
0.3
 50
179.9999999999992
 51
270.0
  0
ARC
  5
1E2
  8
51
 10
213.0445597106451
 20
235.48075305368459
 30
0.0
 40
0.3
 50
270.0
 51
0.0
  0
ARC
  5
1E3
  8
52
 10
212.52094764319949
 20
173.35714098623919
 30
0.0
 40
0.3
 50
0.0
 51
90.0
  0
ARC
  5
1E4
  8
52
 10
206.76670990458391
 20
173.35714098623919
 30
0.0
 40
0.3
 50
90.0
 51
180.00000000000179
  0
ARC
  5
1E5
  8
51
 10
206.24309783713829
 20
173.88075305368471
 30
0.0
 40
0.3
 50
90.0
 51
180.00000000000091
  0
ARC
  5
1E6
  8
51
 10
213.0445597106451
 20
173.88075305368471
 30
0.0
 40
0.3
 50
0.0
 51
90.0
  0
ARC
  5
1E7
  8
52
 10
63.922409516706409
 20
236.00436512113021
 30
0.0
 40
0.3
 50
270.0
 51
0.0000000000017811
  0
ARC
  5
1E8
  8
52
 10
58.168171778090652
 20
236.00436512113021
 30
0.0
 40
0.3
 50
180.0
 51
270.0
  0
ARC
  5
1E9
  8
51
 10
57.644559710645133
 20
235.48075305368459
 30
0.0
 40
0.3
 50
180.0
 51
270.0
  0
ARC
  5
1EA
  8
51
 10
64.446021584151936
 20
235.48075305368459
 30
0.0
 40
0.3
 50
270.0
 51
0.0000000000007633
  0
ARC
  5
1EB
  8
52
 10
63.922409516706409
 20
173.35714098623919
 30
0.0
 40
0.3
 50
359.99999999999818
 51
90.0
  0
ARC
  5
1EC
  8
52
 10
58.168171778090652
 20
173.35714098623919
 30
0.0
 40
0.3
 50
89.999999999998877
 51
180.0
  0
ARC
  5
1ED
  8
51
 10
64.446021584151936
 20
173.880753053685
 30
0.0
 40
0.3
 50
359.9999999999992
 51
90.0
  0
ARC
  5
1EE
  8
51
 10
57.644559710645133
 20
173.88075305368471
 30
0.0
 40
0.3
 50
90.000000000000952
 51
180.0
  0
LINE
  5
1EF
  8
23
  6
DASHED
 10
440.29877468073329
 20
296.31325130037902
 30
0.0
 11
440.21658355912621
 21
291.60452509716032
 31
0.0
  0
ARC
  5
1F0
  8
23
  6
DASHED
 10
439.716659711548
 20
291.61325130037909
 30
0.0
 40
0.5
 50
269.99999999999989
 51
358.9999999999917
  0
LINE
  5
1F1
  8
23
  6
DASHED
 10
448.29877468073329
 20
296.31325130037902
 30
0.0
 11
448.38096580234031
 21
291.60452509716032
 31
0.0
  0
ARC
  5
1F2
  8
23
  6
DASHED
 10
448.88088964991852
 20
291.61325130037898
 30
0.0
 40
0.5
 50
181.00000000000821
 51
269.99999999999989
  0
LINE
  5
1F3
  8
23
  6
DASHED
 10
440.29877468073329
 20
296.31325130037902
 30
0.0
 11
448.29877468073329
 21
296.31325130037902
 31
0.0
  0
ARC
  5
1F4
  8
51
 10
365.63916060295861
 20
289.11325130037881
 30
0.0
 40
1.0
 50
180.4999999999998
 51
270.00000000000011
  0
ARC
  5
1F5
  8
51
 10
522.95838875850791
 20
289.11325130037898
 30
0.0
 40
1.0
 50
270.00000000000011
 51
359.50000000000011
  0
LINE
  5
1F6
  8
23
  6
DASHED
 10
376.270485337639
 20
291.60888803262992
 30
0.0
 11
375.93446285003398
 21
330.11325130037892
 31
0.0
  0
LINE
  5
1F7
  8
51
 10
364.29877468073329
 20
328.11325130037892
 30
0.0
 11
364.63919867989438
 21
289.10452476488041
 31
0.0
  0
LINE
  5
1F8
  8
51
 10
366.09877468073341
 20
328.11325130037892
 30
0.0
 11
364.29877468073329
 21
328.11325130037892
 31
0.0
  0
LINE
  5
1F9
  8
51
 10
366.09877468073341
 20
328.11325130037892
 30
0.0
 11
366.39314539341632
 21
329.78271057144559
 31
0.0
  0
ARC
  5
1FA
  8
51
 10
366.78706849462122
 20
329.71325130037877
 30
0.0
 40
0.4
 50
90.0
 51
170.00000000000139
  0
ARC
  5
1FB
  8
51
 10
521.81048086684541
 20
329.71325130037877
 30
0.0
 40
0.4
 50
9.9999999999985096
 51
90.0
  0
LINE
  5
1FC
  8
51
 10
522.49877468073316
 20
328.11325130037892
 30
0.0
 11
522.20440396805031
 21
329.78271057144559
 31
0.0
  0
LINE
  5
1FD
  8
51
 10
366.78706849462122
 20
330.11325130037892
 30
0.0
 11
521.81048086684541
 21
330.11325130037892
 31
0.0
  0
LINE
  5
1FE
  8
51
 10
522.49877468073316
 20
328.11325130037892
 30
0.0
 11
524.29877468073323
 21
328.11325130037892
 31
0.0
  0
LINE
  5
1FF
  8
23
  6
DASHED
 10
376.77046629917112
 20
291.11325130037898
 30
0.0
 11
511.82708306229563
 21
291.11325130037898
 31
0.0
  0
LINE
  5
200
  8
51
 10
524.29877468073323
 20
328.11325130037892
 30
0.0
 11
523.95835068157214
 21
289.10452476488058
 31
0.0
  0
LINE
  5
201
  8
51
 10
365.63916060295861
 20
288.11325130037869
 30
0.0
 11
522.95838875850791
 21
288.11325130037898
 31
0.0
  0
LINE
  5
202
  8
23
  6
DASHED
 10
512.32706402382769
 20
291.60888803262992
 30
0.0
 11
512.66308651143265
 21
330.11325130037892
 31
0.0
  0
ARC
  5
203
  8
23
  6
DASHED
 10
511.82708306229563
 20
291.61325130037898
 30
0.0
 40
0.5
 50
270.0
 51
359.5
  0
ARC
  5
204
  8
23
  6
DASHED
 10
376.77046629917112
 20
291.61325130037898
 30
0.0
 40
0.5
 50
180.49999999999989
 51
270.0
  0
LINE
  5
205
  8
51
 10
366.09877468073341
 20
328.11325130037892
 30
0.0
 11
522.49877468073316
 21
328.11325130037892
 31
0.0
  0
LINE
  5
206
  8
33
  6
DASHED
 10
580.32333067044499
 20
208.95326322316021
 30
0.0
 11
580.32333067044499
 21
199.78903328478981
 31
0.0
  0
LINE
  5
207
  8
51
 10
617.32333067044499
 20
242.75678190578969
 30
0.0
 11
617.32333067044499
 21
166.17114825397519
 31
0.0
  0
ARC
  5
208
  8
33
  6
DASHED
 10
580.82333067044488
 20
185.8428398724127
 30
0.0
 40
0.5
 50
180.0
 51
269.50000000000011
  0
ARC
  5
209
  8
33
  6
DASHED
 10
580.82333067044499
 20
222.8994566355374
 30
0.0
 40
0.5
 50
90.499999999999815
 51
180.0
  0
LINE
  5
20A
  8
33
  6
DASHED
 10
580.32333067044488
 20
199.78903328478981
 30
0.0
 11
580.32333067044488
 21
185.8428398724127
 31
0.0
  0
LINE
  5
20B
  8
33
  6
DASHED
 10
585.52333067044503
 20
200.37114825397501
 30
0.0
 11
580.81460446722633
 21
200.28895713236801
 31
0.0
  0
LINE
  5
20C
  8
33
  6
DASHED
 10
585.52333067044503
 20
208.37114825397501
 30
0.0
 11
580.81460446722633
 21
208.453339375582
 31
0.0
  0
LINE
  5
20D
  8
33
  6
DASHED
 10
585.52333067044503
 20
208.37114825397501
 30
0.0
 11
585.52333067044503
 21
200.37114825397501
 31
0.0
  0
ARC
  5
20E
  8
51
 10
618.92333067044501
 20
242.06848809190191
 30
0.0
 40
0.4
 50
0.0000000000000127
 51
80.000000000001506
  0
LINE
  5
20F
  8
51
 10
617.32333067044499
 20
242.75678190578969
 30
0.0
 11
618.99278994151166
 21
242.4624111931069
 31
0.0
  0
LINE
  5
210
  8
33
  6
DASHED
 10
580.81896740269588
 20
223.39943759706949
 30
0.0
 11
619.32333067044488
 21
223.73546008467429
 31
0.0
  0
LINE
  5
211
  8
51
 10
617.32333067044499
 20
244.37114825397501
 30
0.0
 11
578.31460413494665
 21
244.03072425481389
 31
0.0
  0
LINE
  5
212
  8
51
 10
617.32333067044499
 20
242.75678190578969
 30
0.0
 11
617.32333067044499
 21
244.37114825397501
 31
0.0
  0
LINE
  5
213
  8
51
 10
617.32333067044499
 20
166.17114825397519
 30
0.0
 11
618.99278994151189
 21
166.46551896665801
 31
0.0
  0
LINE
  5
214
  8
51
 10
619.32333067044488
 20
242.06848809190191
 30
0.0
 11
619.32333067044488
 21
166.85944206786311
 31
0.0
  0
LINE
  5
215
  8
51
 10
617.32333067044499
 20
166.17114825397519
 30
0.0
 11
617.32333067044499
 21
164.37114825397521
 31
0.0
  0
LINE
  5
216
  8
33
  6
DASHED
 10
580.32333067044499
 20
222.8994566355374
 30
0.0
 11
580.32333067044499
 21
208.95326322316021
 31
0.0
  0
LINE
  5
217
  8
51
 10
617.32333067044499
 20
164.37114825397521
 30
0.0
 11
578.31460413494665
 21
164.7115722531363
 31
0.0
  0
LINE
  5
218
  8
51
 10
577.32333067044488
 20
243.03076233174971
 30
0.0
 11
577.3233306704451
 21
165.7115341762005
 31
0.0
  0
LINE
  5
219
  8
33
  6
DASHED
 10
580.81896740269588
 20
185.34285891088069
 30
0.0
 11
619.32333067044488
 21
185.0068364232757
 31
0.0
  0
ARC
  5
21A
  8
51
 10
618.92333067044513
 20
166.85944206786311
 30
0.0
 40
0.4
 50
280.0
 51
0.0
  0
ARC
  5
21B
  8
51
 10
578.32333067044499
 20
243.03076233174971
 30
0.0
 40
1.0
 50
90.499999999999986
 51
180.0
  0
ARC
  5
21C
  8
51
 10
578.3233306704451
 20
165.7115341762005
 30
0.0
 40
1.0
 50
180.0
 51
269.50000000000023
  0
ARC
  5
21D
  8
33
  6
DASHED
 10
580.82333067044499
 20
208.95326322316021
 30
0.0
 40
0.5
 50
180.0
 51
268.99999999999181
  0
ARC
  5
21E
  8
33
  6
DASHED
 10
580.82333067044488
 20
199.78903328478981
 30
0.0
 40
0.5
 50
91.0000000000082
 51
180.0
  0
LINE
  5
21F
  8
51
 10
366.09877468073341
 20
80.629045207570996
 30
0.0
 11
522.49877468073316
 21
80.629045207570996
 31
0.0
  0
ARC
  5
220
  8
13
  6
DASHED
 10
376.77046629917112
 20
117.1290452075709
 30
0.0
 40
0.5
 50
90.0
 51
179.5
  0
ARC
  5
221
  8
13
  6
DASHED
 10
511.82708306229563
 20
117.1290452075709
 30
0.0
 40
0.5
 50
0.5000000000000452
 51
90.0
  0
LINE
  5
222
  8
13
  6
DASHED
 10
512.32706402382769
 20
117.13340847532
 30
0.0
 11
512.66308651143265
 21
78.629045207570982
 31
0.0
  0
LINE
  5
223
  8
51
 10
365.63916060295861
 20
120.6290452075711
 30
0.0
 11
522.95838875850791
 21
120.6290452075709
 31
0.0
  0
LINE
  5
224
  8
51
 10
524.29877468073323
 20
80.629045207570996
 30
0.0
 11
523.95835068157214
 21
119.63777174306929
 31
0.0
  0
LINE
  5
225
  8
13
  6
DASHED
 10
376.77046629917112
 20
117.6290452075708
 30
0.0
 11
511.82708306229563
 21
117.6290452075708
 31
0.0
  0
LINE
  5
226
  8
51
 10
522.49877468073316
 20
80.629045207570996
 30
0.0
 11
524.29877468073323
 21
80.629045207570996
 31
0.0
  0
LINE
  5
227
  8
51
 10
366.78706849462122
 20
78.629045207570982
 30
0.0
 11
521.81048086684541
 21
78.629045207570982
 31
0.0
  0
LINE
  5
228
  8
51
 10
522.49877468073316
 20
80.629045207570996
 30
0.0
 11
522.20440396805031
 21
78.959585936504311
 31
0.0
  0
ARC
  5
229
  8
51
 10
521.81048086684541
 20
79.029045207571073
 30
0.0
 40
0.4
 50
270.0
 51
350.00000000000142
  0
ARC
  5
22A
  8
51
 10
366.78706849462122
 20
79.029045207571073
 30
0.0
 40
0.4
 50
189.99999999999849
 51
270.0
  0
LINE
  5
22B
  8
51
 10
366.09877468073341
 20
80.629045207570996
 30
0.0
 11
366.39314539341632
 21
78.959585936504311
 31
0.0
  0
LINE
  5
22C
  8
51
 10
366.09877468073341
 20
80.629045207570996
 30
0.0
 11
364.29877468073329
 21
80.629045207570996
 31
0.0
  0
LINE
  5
22D
  8
51
 10
364.29877468073329
 20
80.629045207570996
 30
0.0
 11
364.63919867989438
 21
119.63777174306949
 31
0.0
  0
LINE
  5
22E
  8
13
  6
DASHED
 10
376.270485337639
 20
117.13340847532
 30
0.0
 11
375.93446285003398
 21
78.629045207570982
 31
0.0
  0
ARC
  5
22F
  8
51
 10
522.95838875850791
 20
119.6290452075709
 30
0.0
 40
1.0
 50
0.4999999999998163
 51
89.999999999999915
  0
ARC
  5
230
  8
51
 10
365.63916060295861
 20
119.6290452075711
 30
0.0
 40
1.0
 50
89.999999999999915
 51
179.50000000000011
  0
LINE
  5
231
  8
13
  6
DASHED
 10
440.29877468073329
 20
112.42904520757079
 30
0.0
 11
448.29877468073329
 21
112.42904520757079
 31
0.0
  0
ARC
  5
232
  8
13
  6
DASHED
 10
448.88088964991852
 20
117.1290452075709
 30
0.0
 40
0.5
 50
90.000000000000057
 51
178.99999999999179
  0
LINE
  5
233
  8
13
  6
DASHED
 10
448.29877468073329
 20
112.42904520757079
 30
0.0
 11
448.38096580234031
 21
117.1377714107896
 31
0.0
  0
ARC
  5
234
  8
13
  6
DASHED
 10
439.716659711548
 20
117.1290452075708
 30
0.0
 40
0.5
 50
1.000000000008219
 51
90.000000000000057
  0
LINE
  5
235
  8
13
  6
DASHED
 10
440.29877468073329
 20
112.42904520757079
 30
0.0
 11
440.21658355912621
 21
117.1377714107895
 31
0.0
  0
TEXT
  5
237
  8
L20
 10
74.618205253031505
 20
293.5392566529394
 30
0.0
 40
9.1613373339951707
  1
80x160x40 BASE
  7
ISO
  0
ENDSEC
  0
EOF
