  0
SECTION
  2
HEADER
  9
$ACADVER
  1
AC1009
  9
$INSBASE
 10
0.0
 20
0.0
 30
0.0
  9
$EXTMIN
 10
-53.788635204155469
 20
-51.600077310341312
 30
0.0
  9
$EXTMAX
 10
407.4725597444085
 20
184.17890922516159
 30
0.0
  9
$LIMMIN
 10
0.0
 20
0.0
  9
$LIMMAX
 10
594.0
 20
420.0
  9
$ORTHOMODE
 70
     1
  9
$REGENMODE
 70
     1
  9
$FILLMODE
 70
     1
  9
$QTEXTMODE
 70
     0
  9
$MIRRTEXT
 70
     1
  9
$DRAGMODE
 70
     2
  9
$LTSCALE
 40
7.0
  9
$OSMODE
 70
    37
  9
$ATTMODE
 70
     1
  9
$TEXTSIZE
 40
3.5
  9
$TRACEWID
 40
0.05
  9
$TEXTSTYLE
  7
TKKISO
  9
$CLAYER
  8
1
  9
$CELTYPE
  6
BYLAYER
  9
$CECOLOR
 62
   256
  9
$DIMSCALE
 40
1.0
  9
$DIMASZ
 40
3.5
  9
$DIMEXO
 40
1.0
  9
$DIMDLI
 40
7.0
  9
$DIMRND
 40
0.0
  9
$DIMDLE
 40
0.0
  9
$DIMEXE
 40
1.5
  9
$DIMTP
 40
0.0
  9
$DIMTM
 40
0.0
  9
$DIMTXT
 40
3.5
  9
$DIMCEN
 40
0.0
  9
$DIMTSZ
 40
0.0
  9
$DIMTOL
 70
     0
  9
$DIMLIM
 70
     0
  9
$DIMTIH
 70
     0
  9
$DIMTOH
 70
     0
  9
$DIMSE1
 70
     0
  9
$DIMSE2
 70
     0
  9
$DIMTAD
 70
     1
  9
$DIMZIN
 70
     8
  9
$DIMBLK
  1

  9
$DIMASO
 70
     1
  9
$DIMSHO
 70
     1
  9
$DIMPOST
  1

  9
$DIMAPOST
  1

  9
$DIMALT
 70
     0
  9
$DIMALTD
 70
     2
  9
$DIMALTF
 40
25.399999999999999
  9
$DIMLFAC
 40
1.0
  9
$DIMTOFL
 70
     1
  9
$DIMTVP
 40
0.0
  9
$DIMTIX
 70
     0
  9
$DIMSOXD
 70
     0
  9
$DIMSAH
 70
     0
  9
$DIMBLK1
  1

  9
$DIMBLK2
  1

  9
$DIMSTYLE
  2
STANDARD
  9
$DIMCLRD
 70
     1
  9
$DIMCLRE
 70
     1
  9
$DIMCLRT
 70
     3
  9
$DIMTFAC
 40
1.0
  9
$DIMGAP
 40
0.09
  9
$LUNITS
 70
     2
  9
$LUPREC
 70
     3
  9
$SKETCHINC
 40
1.0
  9
$FILLETRAD
 40
0.0
  9
$AUNITS
 70
     0
  9
$AUPREC
 70
     1
  9
$MENU
  1
caesar
  9
$ELEVATION
 40
0.0
  9
$PELEVATION
 40
0.0
  9
$THICKNESS
 40
0.0
  9
$LIMCHECK
 70
     0
  9
$BLIPMODE
 70
     0
  9
$CHAMFERA
 40
5.0
  9
$CHAMFERB
 40
5.0
  9
$SKPOLY
 70
     1
  9
$TDCREATE
 40
2448769.4888120368
  9
$TDUPDATE
 40
2453620.4654608439
  9
$TDINDWG
 40
0.3472632523
  9
$TDUSRTIMER
 40
0.3472632523
  9
$USRTIMER
 70
     1
  9
$ANGBASE
 50
0.0
  9
$ANGDIR
 70
     0
  9
$PDMODE
 70
     0
  9
$PDSIZE
 40
2.0
  9
$PLINEWID
 40
0.0
  9
$COORDS
 70
     2
  9
$SPLFRAME
 70
     0
  9
$SPLINETYPE
 70
     6
  9
$SPLINESEGS
 70
     8
  9
$ATTDIA
 70
     0
  9
$ATTREQ
 70
     1
  9
$HANDLING
 70
-16383
  9
$HANDSEED
  5
224
  9
$SURFTAB1
 70
     6
  9
$SURFTAB2
 70
     6
  9
$SURFTYPE
 70
     6
  9
$SURFU
 70
     6
  9
$SURFV
 70
     6
  9
$UCSNAME
  2

  9
$UCSORG
 10
0.0
 20
0.0
 30
0.0
  9
$UCSXDIR
 10
1.0
 20
0.0
 30
0.0
  9
$UCSYDIR
 10
0.0
 20
1.0
 30
0.0
  9
$PUCSNAME
  2

  9
$PUCSORG
 10
0.0
 20
0.0
 30
0.0
  9
$PUCSXDIR
 10
1.0
 20
0.0
 30
0.0
  9
$PUCSYDIR
 10
0.0
 20
1.0
 30
0.0
  9
$USERI1
 70
     2
  9
$USERI2
 70
     0
  9
$USERI3
 70
     0
  9
$USERI4
 70
     0
  9
$USERI5
 70
     0
  9
$USERR1
 40
1.0
  9
$USERR2
 40
0.0
  9
$USERR3
 40
3.5
  9
$USERR4
 40
0.0
  9
$USERR5
 40
0.0
  9
$WORLDVIEW
 70
     1
  9
$SHADEDGE
 70
     3
  9
$SHADEDIF
 70
    70
  9
$TILEMODE
 70
     1
  9
$MAXACTVP
 70
    16
  9
$PLIMCHECK
 70
     0
  9
$PEXTMIN
 10
1.0000000000000000E+020
 20
1.0000000000000000E+020
 30
1.0000000000000000E+020
  9
$PEXTMAX
 10
-1.0000000000000000E+020
 20
-1.0000000000000000E+020
 30
-1.0000000000000000E+020
  9
$PLIMMIN
 10
0.0
 20
0.0
  9
$PLIMMAX
 10
12.0
 20
9.0
  9
$UNITMODE
 70
     0
  9
$VISRETAIN
 70
     0
  9
$PLINEGEN
 70
     0
  9
$PSLTSCALE
 70
     0
  0
ENDSEC
  0
SECTION
  2
TABLES
  0
TABLE
  2
VPORT
 70
     2
  0
VPORT
  2
*ACTIVE
 70
     0
 10
0.0
 20
0.0
 11
1.0
 21
1.0
 12
176.8461038098531
 22
66.292746931909846
 13
0.0
 23
0.0
 14
6.0
 24
6.0
 15
0.0
 25
0.0
 16
0.0
 26
0.0
 36
1.0
 17
0.0
 27
0.0
 37
0.0
 40
297.86577541392359
 41
1.5552208835341359
 42
50.0
 43
0.0
 44
0.0
 50
0.0
 51
0.0
 71
     0
 72
   500
 73
     1
 74
     0
 75
     0
 76
     0
 77
     0
 78
     0
  0
ENDTAB
  0
TABLE
  2
LTYPE
 70
     3
  0
LTYPE
  2
CONTINUOUS
 70
     0
  3
Solid line
 72
    65
 73
     0
 40
0.0
  0
LTYPE
  2
CENTER
 70
     0
  3
------  -  -----  -  -----  -  -----  -  ------
 72
    65
 73
     4
 40
1.8
 49
1.25
 49
-0.25
 49
0.05
 49
-0.25
  0
LTYPE
  2
DASHED
 70
     0
  3
__ __ __ __ __ __ __ __ __ __ __ __ __ __ __
 72
    65
 73
     2
 40
0.75
 49
0.5
 49
-0.25
  0
ENDTAB
  0
TABLE
  2
LAYER
 70
    16
  0
LAYER
  2
0
 70
     0
 62
     7
  6
CONTINUOUS
  0
LAYER
  2
DEFPOINTS
 70
     0
 62
    -7
  6
CONTINUOUS
  0
LAYER
  2
L20
 70
     0
 62
     3
  6
CONTINUOUS
  0
LAYER
  2
1
 70
     0
 62
     7
  6
CONTINUOUS
  0
LAYER
  2
11
 70
     0
 62
     7
  6
CONTINUOUS
  0
LAYER
  2
13
 70
     0
 62
     1
  6
CENTER
  0
LAYER
  2
21
 70
     0
 62
     7
  6
CONTINUOUS
  0
LAYER
  2
23
 70
     0
 62
     1
  6
CENTER
  0
LAYER
  2
41
 70
     0
 62
     7
  6
CONTINUOUS
  0
LAYER
  2
43
 70
     0
 62
     1
  6
CENTER
  0
LAYER
  2
51
 70
     0
 62
     7
  6
CONTINUOUS
  0
LAYER
  2
52
 70
     0
 62
     1
  6
CONTINUOUS
  0
LAYER
  2
53
 70
     0
 62
     1
  6
CENTER
  0
LAYER
  2
61
 70
     0
 62
     7
  6
CONTINUOUS
  0
LAYER
  2
62
 70
     0
 62
     1
  6
CONTINUOUS
  0
LAYER
  2
63
 70
     0
 62
     1
  6
CENTER
  0
ENDTAB
  0
TABLE
  2
STYLE
 70
     3
  0
STYLE
  2
STANDARD
 70
     0
 40
0.0
 41
1.0
 50
0.0
 71
     0
 42
0.2
  3
caeiso
  4

  0
STYLE
  2
ISO
 70
     0
 40
0.0
 41
1.0
 50
0.0
 71
     0
 42
3.5
  3
SIMPLEX
  4

  0
STYLE
  2
TKKISO
 70
     0
 40
0.0
 41
1.0
 50
0.0
 71
     0
 42
3.5
  3
caeiso
  4

  0
ENDTAB
  0
TABLE
  2
VIEW
 70
     0
  0
ENDTAB
  0
TABLE
  2
UCS
 70
     0
  0
ENDTAB
  0
TABLE
  2
APPID
 70
     2
  0
APPID
  2
ACAD
 70
     0
  0
APPID
  2
DCO15
 70
     0
  0
ENDTAB
  0
TABLE
  2
DIMSTYLE
 70
     1
  0
DIMSTYLE
  2
STANDARD
 70
     0
  3

  4

  5

  6

  7

 40
1.0
 41
0.18
 42
0.0625
 43
0.38
 44
0.18
 45
0.0
 46
0.0
 47
0.0
 48
0.0
140
0.18
141
0.09
142
0.0
143
25.399999999999999
144
1.0
145
0.0
146
1.0
147
0.09
 71
     0
 72
     0
 73
     1
 74
     1
 75
     0
 76
     0
 77
     0
 78
     0
170
     0
171
     2
172
     0
173
     0
174
     0
175
     0
176
     0
177
     0
178
     0
  0
ENDTAB
  0
ENDSEC
  0
SECTION
  2
BLOCKS
  0
BLOCK
  8
0
  2
$MODEL_SPACE
 70
     0
 10
0.0
 20
0.0
 30
0.0
  3
$MODEL_SPACE
  1

  0
ENDBLK
  5
7D
  8
0
  0
BLOCK
 67
     1
  8
0
  2
$PAPER_SPACE
 70
     0
 10
0.0
 20
0.0
 30
0.0
  3
$PAPER_SPACE
  1

  0
ENDBLK
  5
7B
 67
     1
  8
0
  0
ENDSEC
  0
SECTION
  2
ENTITIES
  0
ARC
  5
7E
  8
62
 10
346.6322233863217
 20
28.503116551013591
 30
0.0
 40
5.7818283052311008
 50
270.0
 51
0.0
  0
LINE
  5
7F
  8
62
 10
198.63222338632181
 20
22.721288245782489
 30
0.0
 11
346.6322233863217
 21
22.721288245782489
 31
0.0
  0
ARC
  5
80
  8
62
 10
198.63222338632181
 20
28.503116551013591
 30
0.0
 40
5.7818283052311008
 50
180.0
 51
270.0
  0
LINE
  5
81
  8
62
 10
192.85039508109071
 20
96.503116551013534
 30
0.0
 11
192.85039508109071
 21
28.503116551013591
 31
0.0
  0
ARC
  5
82
  8
62
 10
198.63222338632181
 20
96.503116551013534
 30
0.0
 40
5.7818283052311008
 50
90.0
 51
180.0
  0
LINE
  5
83
  8
62
 10
198.63222338632181
 20
102.28494485624461
 30
0.0
 11
346.63222338632158
 21
102.28494485624461
 31
0.0
  0
ARC
  5
84
  8
62
 10
346.6322233863217
 20
96.503116551013534
 30
0.0
 40
5.7818283052311008
 50
0.0000000000000254
 51
90.0
  0
LINE
  5
85
  8
62
 10
352.41405169155269
 20
96.503116551013534
 30
0.0
 11
352.4140516915528
 21
28.503116551013591
 31
0.0
  0
ARC
  5
86
  8
61
 10
346.6322233863217
 20
96.503116551013534
 30
0.0
 40
4.7818283052311008
 50
0.0000000000000254
 51
90.0
  0
LINE
  5
87
  8
61
 10
198.63222338632181
 20
101.28494485624461
 30
0.0
 11
346.63222338632158
 21
101.28494485624461
 31
0.0
  0
ARC
  5
88
  8
61
 10
198.63222338632181
 20
96.503116551013534
 30
0.0
 40
4.7818283052311008
 50
90.0
 51
180.0
  0
LINE
  5
89
  8
61
 10
193.85039508109071
 20
96.503116551013534
 30
0.0
 11
193.85039508109071
 21
28.503116551013591
 31
0.0
  0
ARC
  5
8A
  8
61
 10
198.63222338632181
 20
28.503116551013591
 30
0.0
 40
4.7818283052311008
 50
180.0
 51
270.0
  0
LINE
  5
8B
  8
61
 10
198.63222338632181
 20
23.721288245782478
 30
0.0
 11
346.6322233863217
 21
23.721288245782478
 31
0.0
  0
ARC
  5
8C
  8
61
 10
346.6322233863217
 20
28.503116551013591
 30
0.0
 40
4.7818283052311008
 50
270.0
 51
0.0
  0
LINE
  5
8D
  8
61
 10
351.41405169155269
 20
96.503116551013534
 30
0.0
 11
351.4140516915528
 21
28.503116551013591
 31
0.0
  0
LINE
  5
8E
  8
21
 10
192.8416685455922
 20
180.71658171069839
 30
0.0
 11
193.8503950810906
 21
181.7165436337626
 31
0.0
  0
LINE
  5
8F
  8
21
 10
352.4227782270512
 20
180.71658171069839
 30
0.0
 11
351.4140516915528
 21
181.7165436337626
 31
0.0
  0
ARC
  5
90
  8
52
 10
-48.988635204155628
 20
83.819658837837906
 30
0.0
 40
0.3
 50
180.0
 51
309.63771439067312
  0
ARC
  5
91
  8
52
 10
-45.288635204155639
 20
79.3531165510135
 30
0.0
 40
5.5
 50
90.000000000000028
 51
129.63771439067369
  0
LINE
  5
92
  8
52
 10
-43.138635204155662
 20
84.8531165510135
 30
0.0
 11
-45.288635204155639
 21
84.8531165510135
 31
0.0
  0
ARC
  5
93
  8
52
 10
-43.138635204155719
 20
85.853116551013485
 30
0.0
 40
1.0
 50
270.0
 51
359.99999999999972
  0
ARC
  5
94
  8
51
 10
-45.288635204155639
 20
79.3531165510135
 30
0.0
 40
1.000000000000056
 50
90.000000000000028
 51
180.0
  0
ARC
  5
95
  8
51
 10
-43.138635204155719
 20
85.853116551013485
 30
0.0
 40
5.4999999999999432
 50
270.0
 51
359.99999999999972
  0
ARC
  5
96
  8
51
 10
-36.638635204155662
 20
97.003116551013591
 30
0.0
 40
1.000000000000056
 50
90.000000000000057
 51
180.0
  0
ARC
  5
97
  8
52
 10
-45.288635204155639
 20
79.3531165510135
 30
0.0
 40
1.98300000000006
 50
90.000000000000028
 51
180.0
  0
ARC
  5
98
  8
52
 10
-43.138635204155719
 20
85.853116551013485
 30
0.0
 40
4.5169999999999391
 50
270.0
 51
359.99999999999972
  0
ARC
  5
99
  8
52
 10
-36.638635204155662
 20
97.003116551013591
 30
0.0
 40
1.98300000000006
 50
90.000000000000057
 51
180.0
  0
ARC
  5
9A
  8
52
 10
-45.288635204155639
 20
79.3531165510135
 30
0.0
 40
4.5000000000001128
 50
90.000000000000028
 51
180.0
  0
ARC
  5
9B
  8
52
 10
-43.138635204155719
 20
85.853116551013485
 30
0.0
 40
1.9999999999998861
 50
270.0
 51
359.99999999999972
  0
ARC
  5
9C
  8
52
 10
-36.638635204155662
 20
97.003116551013591
 30
0.0
 40
4.5000000000001128
 50
90.000000000000057
 51
180.0
  0
LINE
  5
9D
  8
51
 10
-37.638635204155719
 20
97.003116551013591
 30
0.0
 11
-37.638635204155719
 21
85.853116551013485
 31
0.0
  0
LINE
  5
9E
  8
52
 10
-38.621635204155723
 20
97.003116551013591
 30
0.0
 11
-38.621635204155723
 21
85.853116551013485
 31
0.0
  0
LINE
  5
9F
  8
52
 10
-41.138635204155769
 20
97.003116551013591
 30
0.0
 11
-41.138635204155769
 21
85.853116551013485
 31
0.0
  0
ARC
  5
A0
  8
51
 10
-44.788635204155639
 20
96.503116551013605
 30
0.0
 40
6.0
 50
90.000000000000028
 51
180.0
  0
LINE
  5
A1
  8
52
 10
-43.138635204155662
 20
83.8531165510135
 30
0.0
 11
-45.288635204155639
 21
83.8531165510135
 31
0.0
  0
LINE
  5
A2
  8
52
 10
-43.138635204155719
 20
81.336116551013561
 30
0.0
 11
-45.288635204155639
 21
81.336116551013561
 31
0.0
  0
LINE
  5
A3
  8
51
 10
-43.138635204155719
 20
80.353116551013514
 30
0.0
 11
-45.288635204155639
 21
80.353116551013514
 31
0.0
  0
ARC
  5
A4
  8
52
 10
-44.788635204155639
 20
96.503116551013605
 30
0.0
 40
2.0
 50
135.57299599946271
 51
164.427004000539
  0
LINE
  5
A5
  8
52
 10
-46.216920889873961
 20
97.903116551010044
 30
0.0
 11
-43.36034951843726
 21
97.903116551010044
 31
0.0
  0
LINE
  5
A6
  8
52
 10
-42.862056796001411
 20
97.040048238709005
 30
0.0
 11
-44.038635204155412
 21
95.002154656697769
 31
0.0
  0
LINE
  5
A7
  8
52
 10
-45.53863520415544
 20
95.002154656697144
 30
0.0
 11
-46.715213612309917
 21
97.040048238709247
 31
0.0
  0
ARC
  5
A8
  8
52
 10
-44.788635204155639
 20
96.503116551013605
 30
0.0
 40
2.0
 50
15.57299599945409
 51
44.42700400053613
  0
ARC
  5
A9
  8
52
 10
-44.788635204155639
 20
96.503116551013605
 30
0.0
 40
5.5
 50
223.60281897269931
 51
293.90193192596172
  0
ARC
  5
AA
  8
52
 10
-48.988635204155678
 20
92.503116551014159
 30
0.0
 40
0.3
 50
43.602818972699758
 51
180.0
  0
ARC
  5
AB
  8
52
 10
-42.438635204155673
 20
91.200522846043114
 30
0.0
 40
0.3
 50
0.0000000000000127
 51
113.9019319259623
  0
ARC
  5
AC
  8
52
 10
-42.438635204155673
 20
33.805710255984081
 30
0.0
 40
0.3
 50
246.09806807403771
 51
359.99999999999989
  0
ARC
  5
AD
  8
52
 10
-48.988635204155678
 20
32.503116551013022
 30
0.0
 40
0.3
 50
180.0
 51
316.39718102730018
  0
ARC
  5
AE
  8
52
 10
-44.788635204155639
 20
28.503116551013591
 30
0.0
 40
5.5
 50
66.098068074038181
 51
136.3971810273006
  0
ARC
  5
AF
  8
52
 10
-44.788635204155639
 20
28.503116551013591
 30
0.0
 40
2.0
 50
135.5729959994639
 51
164.42700400054591
  0
LINE
  5
B0
  8
52
 10
-44.038635204155412
 20
27.002154656697819
 30
0.0
 11
-42.862056796001347
 21
29.040048238709229
 31
0.0
  0
LINE
  5
B1
  8
52
 10
-46.71521361230986
 20
29.040048238709002
 30
0.0
 11
-45.53863520415544
 21
27.00215465669703
 31
0.0
  0
LINE
  5
B2
  8
52
 10
-43.36034951843731
 20
29.90311655101004
 30
0.0
 11
-46.216920889874011
 21
29.90311655101004
 31
0.0
  0
ARC
  5
B3
  8
52
 10
-44.788635204155639
 20
28.503116551013591
 30
0.0
 40
2.0
 50
15.572995999460931
 51
44.427004000537281
  0
LINE
  5
B4
  8
51
 10
-43.138635204155719
 20
44.653116551013682
 30
0.0
 11
-45.288635204155639
 21
44.653116551013682
 31
0.0
  0
LINE
  5
B5
  8
52
 10
-43.138635204155719
 20
43.670116551013621
 30
0.0
 11
-45.288635204155639
 21
43.670116551013621
 31
0.0
  0
LINE
  5
B6
  8
52
 10
-43.138635204155662
 20
41.153116551013667
 30
0.0
 11
-45.288635204155639
 21
41.153116551013667
 31
0.0
  0
ARC
  5
B7
  8
51
 10
-44.788635204155639
 20
28.503116551013591
 30
0.0
 40
6.0
 50
180.0
 51
270.0
  0
LINE
  5
B8
  8
52
 10
-41.138635204155769
 20
28.003116551013591
 30
0.0
 11
-41.138635204155769
 21
39.153116551013682
 31
0.0
  0
LINE
  5
B9
  8
52
 10
-38.621635204155723
 20
28.003116551013591
 30
0.0
 11
-38.621635204155723
 21
39.153116551013682
 31
0.0
  0
LINE
  5
BA
  8
51
 10
-37.638635204155719
 20
28.003116551013591
 30
0.0
 11
-37.638635204155719
 21
39.153116551013682
 31
0.0
  0
ARC
  5
BB
  8
52
 10
-36.638635204155662
 20
28.003116551013591
 30
0.0
 40
4.5000000000001128
 50
180.0
 51
270.0
  0
ARC
  5
BC
  8
52
 10
-43.138635204155719
 20
39.153116551013682
 30
0.0
 40
1.9999999999998861
 50
0.0000000000002672
 51
90.000000000000028
  0
ARC
  5
BD
  8
52
 10
-45.288635204155639
 20
45.653116551013682
 30
0.0
 40
4.5000000000001128
 50
180.0
 51
270.0
  0
ARC
  5
BE
  8
52
 10
-36.638635204155662
 20
28.003116551013591
 30
0.0
 40
1.98300000000006
 50
180.0
 51
270.0
  0
ARC
  5
BF
  8
52
 10
-43.138635204155719
 20
39.153116551013682
 30
0.0
 40
4.5169999999999391
 50
0.0000000000002672
 51
90.000000000000028
  0
ARC
  5
C0
  8
52
 10
-45.288635204155639
 20
45.653116551013682
 30
0.0
 40
1.98300000000006
 50
180.0
 51
270.0
  0
ARC
  5
C1
  8
51
 10
-36.638635204155662
 20
28.003116551013591
 30
0.0
 40
1.000000000000056
 50
180.0
 51
270.0
  0
ARC
  5
C2
  8
51
 10
-43.138635204155719
 20
39.153116551013682
 30
0.0
 40
5.4999999999999432
 50
0.0000000000002672
 51
90.000000000000028
  0
ARC
  5
C3
  8
51
 10
-45.288635204155639
 20
45.653116551013682
 30
0.0
 40
1.000000000000056
 50
180.0
 51
270.0
  0
ARC
  5
C4
  8
52
 10
-43.138635204155719
 20
39.153116551013682
 30
0.0
 40
1.0
 50
0.0000000000002672
 51
90.000000000000028
  0
LINE
  5
C5
  8
52
 10
-43.138635204155662
 20
40.153116551013682
 30
0.0
 11
-45.288635204155639
 21
40.153116551013682
 31
0.0
  0
ARC
  5
C6
  8
52
 10
-45.288635204155639
 20
45.653116551013682
 30
0.0
 40
5.5
 50
230.36228560932631
 51
270.0
  0
ARC
  5
C7
  8
52
 10
-48.988635204155628
 20
41.186574264189289
 30
0.0
 40
0.3
 50
50.362285609326818
 51
180.0
  0
ARC
  5
C8
  8
52
 10
107.41136479584441
 20
41.186574264189289
 30
0.0
 40
0.3
 50
0.0
 51
129.63771439067321
  0
ARC
  5
C9
  8
52
 10
103.7113647958444
 20
45.653116551013682
 30
0.0
 40
5.5
 50
270.0
 51
309.63771439067369
  0
LINE
  5
CA
  8
52
 10
101.5613647958444
 20
40.153116551013682
 30
0.0
 11
103.7113647958444
 21
40.153116551013682
 31
0.0
  0
ARC
  5
CB
  8
52
 10
101.5613647958444
 20
39.153116551013682
 30
0.0
 40
1.0
 50
90.0
 51
179.99999999999969
  0
ARC
  5
CC
  8
51
 10
103.7113647958444
 20
45.653116551013682
 30
0.0
 40
1.000000000000056
 50
270.0
 51
0.0
  0
ARC
  5
CD
  8
51
 10
101.5613647958444
 20
39.153116551013682
 30
0.0
 40
5.4999999999999432
 50
90.0
 51
179.99999999999969
  0
ARC
  5
CE
  8
51
 10
95.06136479584444
 20
28.003116551013591
 30
0.0
 40
1.000000000000056
 50
270.0
 51
0.0
  0
ARC
  5
CF
  8
52
 10
103.7113647958444
 20
45.653116551013682
 30
0.0
 40
1.98300000000006
 50
270.0
 51
0.0
  0
ARC
  5
D0
  8
52
 10
101.5613647958444
 20
39.153116551013682
 30
0.0
 40
4.5169999999999391
 50
90.0
 51
179.99999999999969
  0
ARC
  5
D1
  8
52
 10
95.06136479584444
 20
28.003116551013591
 30
0.0
 40
1.98300000000006
 50
270.0
 51
0.0
  0
ARC
  5
D2
  8
52
 10
103.7113647958444
 20
45.653116551013682
 30
0.0
 40
4.5000000000001128
 50
270.0
 51
0.0
  0
ARC
  5
D3
  8
52
 10
101.5613647958444
 20
39.153116551013682
 30
0.0
 40
1.9999999999998861
 50
90.0
 51
179.99999999999969
  0
ARC
  5
D4
  8
52
 10
95.06136479584444
 20
28.003116551013591
 30
0.0
 40
4.5000000000001128
 50
270.0
 51
0.0
  0
LINE
  5
D5
  8
51
 10
96.061364795844483
 20
28.003116551013591
 30
0.0
 11
96.061364795844483
 21
39.153116551013682
 31
0.0
  0
LINE
  5
D6
  8
52
 10
97.044364795844515
 20
28.003116551013591
 30
0.0
 11
97.044364795844515
 21
39.153116551013682
 31
0.0
  0
LINE
  5
D7
  8
52
 10
99.561364795844554
 20
28.003116551013591
 30
0.0
 11
99.561364795844554
 21
39.153116551013682
 31
0.0
  0
ARC
  5
D8
  8
51
 10
103.2113647958444
 20
28.503116551013591
 30
0.0
 40
6.0
 50
270.0
 51
0.0
  0
LINE
  5
D9
  8
52
 10
101.5613647958444
 20
41.153116551013667
 30
0.0
 11
103.7113647958444
 21
41.153116551013667
 31
0.0
  0
LINE
  5
DA
  8
52
 10
101.5613647958444
 20
43.670116551013621
 30
0.0
 11
103.7113647958444
 21
43.670116551013621
 31
0.0
  0
LINE
  5
DB
  8
51
 10
101.5613647958444
 20
44.653116551013682
 30
0.0
 11
103.7113647958444
 21
44.653116551013682
 31
0.0
  0
ARC
  5
DC
  8
52
 10
103.2113647958444
 20
28.503116551013591
 30
0.0
 40
2.0
 50
315.57299599946259
 51
344.427004000539
  0
LINE
  5
DD
  8
52
 10
104.6396504815627
 20
27.103116551017141
 30
0.0
 11
101.783079110126
 21
27.103116551017141
 31
0.0
  0
LINE
  5
DE
  8
52
 10
101.2847863876901
 20
27.966184863318169
 30
0.0
 11
102.4613647958443
 21
30.004078445329519
 31
0.0
  0
LINE
  5
DF
  8
52
 10
103.9613647958443
 20
30.00407844532992
 30
0.0
 11
105.1379432039986
 21
27.966184863317942
 31
0.0
  0
ARC
  5
E0
  8
52
 10
103.2113647958444
 20
28.503116551013591
 30
0.0
 40
2.0
 50
195.57299599945401
 51
224.4270040005361
  0
ARC
  5
E1
  8
52
 10
103.2113647958444
 20
28.503116551013591
 30
0.0
 40
5.5
 50
43.602818972699318
 51
113.9019319259618
  0
ARC
  5
E2
  8
52
 10
107.41136479584441
 20
32.503116551013022
 30
0.0
 40
0.3
 50
223.60281897269971
 51
0.0
  0
ARC
  5
E3
  8
52
 10
100.86136479584439
 20
33.805710255984081
 30
0.0
 40
0.3
 50
180.0
 51
293.90193192596229
  0
ARC
  5
E4
  8
52
 10
100.86136479584439
 20
91.200522846043114
 30
0.0
 40
0.3
 50
66.098068074037698
 51
180.0
  0
LINE
  5
E5
  8
61
 10
345.88222338632193
 20
95.002154656697087
 30
0.0
 11
344.70564497816741
 21
97.040048238709176
 31
0.0
  0
LINE
  5
E6
  8
61
 10
348.55880179447593
 20
97.040048238708962
 30
0.0
 11
347.38222338632193
 21
95.002154656697655
 31
0.0
  0
LINE
  5
E7
  8
61
 10
345.20393770060338
 20
97.903116551010001
 30
0.0
 11
348.06050907204008
 21
97.903116551010001
 31
0.0
  0
ARC
  5
E8
  8
61
 10
346.6322233863217
 20
96.503116551013534
 30
0.0
 40
2.1000000000000001
 50
290.92483242767509
 51
249.0751675723364
  0
CIRCLE
  5
E9
  8
62
 10
346.6322233863217
 20
96.503116551013534
 30
0.0
 40
4.0
  0
CIRCLE
  5
EA
  8
61
 10
346.6322233863217
 20
96.503116551013534
 30
0.0
 40
4.3665284472104977
  0
CIRCLE
  5
EB
  8
61
 10
346.6322233863217
 20
28.503116551013591
 30
0.0
 40
4.3665284472104977
  0
CIRCLE
  5
EC
  8
62
 10
346.6322233863217
 20
28.503116551013591
 30
0.0
 40
4.0
  0
ARC
  5
ED
  8
61
 10
346.6322233863217
 20
28.503116551013591
 30
0.0
 40
2.1000000000000001
 50
290.92483242762921
 51
249.0751675723823
  0
CIRCLE
  5
EE
  8
61
 10
198.63222338632181
 20
28.503116551013591
 30
0.0
 40
4.3665284472104977
  0
CIRCLE
  5
EF
  8
62
 10
198.63222338632181
 20
28.503116551013591
 30
0.0
 40
4.0
  0
ARC
  5
F0
  8
61
 10
198.63222338632181
 20
28.503116551013591
 30
0.0
 40
2.1000000000000001
 50
110.9248324276285
 51
69.075167572381631
  0
ARC
  5
F1
  8
61
 10
198.63222338632181
 20
96.503116551013534
 30
0.0
 40
2.1000000000000001
 50
110.9248324277464
 51
69.075167572262927
  0
CIRCLE
  5
F2
  8
62
 10
198.63222338632181
 20
96.503116551013534
 30
0.0
 40
4.0
  0
CIRCLE
  5
F3
  8
61
 10
198.63222338632181
 20
96.503116551013534
 30
0.0
 40
4.3665284472104977
  0
LINE
  5
F4
  8
61
 10
352.63222338632158
 20
96.503116551013534
 30
0.0
 11
352.6322233863217
 21
28.503116551013591
 31
0.0
  0
LINE
  5
F5
  8
61
 10
192.63222338632181
 20
96.503116551013534
 30
0.0
 11
192.63222338632181
 21
28.503116551013591
 31
0.0
  0
LINE
  5
F6
  8
61
 10
198.63222338632181
 20
22.503116551013591
 30
0.0
 11
346.6322233863217
 21
22.503116551013591
 31
0.0
  0
LINE
  5
F7
  8
61
 10
198.63222338632181
 20
102.50311655101351
 30
0.0
 11
346.63222338632158
 21
102.50311655101351
 31
0.0
  0
ARC
  5
F8
  8
61
 10
346.6322233863217
 20
28.503116551013591
 30
0.0
 40
6.0
 50
270.0
 51
0.0
  0
ARC
  5
F9
  8
61
 10
346.6322233863217
 20
96.503116551013534
 30
0.0
 40
6.0
 50
0.0000000000000254
 51
90.0
  0
ARC
  5
FA
  8
61
 10
198.63222338632181
 20
96.503116551013534
 30
0.0
 40
6.0
 50
90.0
 51
180.0
  0
ARC
  5
FB
  8
61
 10
198.63222338632181
 20
28.503116551013591
 30
0.0
 40
6.0
 50
180.0
 51
270.0
  0
ARC
  5
FC
  8
52
 10
107.41136479584441
 20
92.503116551014159
 30
0.0
 40
0.3
 50
0.0
 51
136.39718102730021
  0
LINE
  5
FD
  8
52
 10
100.5613647958444
 20
97.003116551013591
 30
0.0
 11
100.5613647958444
 21
85.853116551013485
 31
0.0
  0
ARC
  5
FE
  8
52
 10
103.2113647958444
 20
96.503116551013605
 30
0.0
 40
5.5
 50
246.0980680740382
 51
316.39718102730058
  0
LINE
  5
FF
  8
52
 10
107.7113647958444
 20
96.503116551013605
 30
0.0
 11
107.7113647958444
 21
83.819658837837906
 31
0.0
  0
ARC
  5
100
  8
52
 10
103.2113647958444
 20
96.503116551013605
 30
0.0
 40
2.0
 50
315.57299599946379
 51
344.42700400054582
  0
LINE
  5
101
  8
52
 10
102.4613647958441
 20
98.004078445329355
 30
0.0
 11
101.2847863876901
 21
95.966184863317949
 31
0.0
  0
LINE
  5
102
  8
52
 10
105.1379432039986
 20
95.966184863318176
 30
0.0
 11
103.9613647958441
 21
98.004078445330265
 31
0.0
  0
LINE
  5
103
  8
52
 10
101.783079110126
 20
95.103116551017138
 30
0.0
 11
104.6396504815628
 21
95.103116551017138
 31
0.0
  0
ARC
  5
104
  8
52
 10
103.2113647958444
 20
96.503116551013605
 30
0.0
 40
2.0
 50
195.57299599946089
 51
224.42700400053721
  0
LINE
  5
105
  8
51
 10
-36.638635204155662
 20
27.003116551013822
 30
0.0
 11
95.06136479584444
 21
27.003116551013591
 31
0.0
  0
LINE
  5
106
  8
52
 10
-36.638635204155662
 20
26.02011655101364
 30
0.0
 11
95.06136479584444
 21
26.02011655101364
 31
0.0
  0
LINE
  5
107
  8
52
 10
-36.638635204155662
 20
23.50311655101358
 30
0.0
 11
95.06136479584444
 21
23.50311655101358
 31
0.0
  0
LINE
  5
108
  8
52
 10
-36.638635204155662
 20
101.5031165510137
 30
0.0
 11
95.06136479584444
 21
101.50311655101351
 31
0.0
  0
LINE
  5
109
  8
52
 10
-36.638635204155662
 20
98.986116551013652
 30
0.0
 11
95.06136479584444
 21
98.986116551013552
 31
0.0
  0
LINE
  5
10A
  8
51
 10
-36.638635204155662
 20
98.003116551013605
 30
0.0
 11
95.06136479584444
 21
98.003116551013605
 31
0.0
  0
LINE
  5
10B
  8
51
 10
101.5613647958444
 20
80.353116551013514
 30
0.0
 11
103.7113647958444
 21
80.353116551013514
 31
0.0
  0
LINE
  5
10C
  8
51
 10
-46.288635204155412
 20
79.3531165510135
 30
0.0
 11
-46.288635204155412
 21
45.653116551013682
 31
0.0
  0
LINE
  5
10D
  8
51
 10
104.7113647958444
 20
79.3531165510135
 30
0.0
 11
104.7113647958444
 21
45.653116551013682
 31
0.0
  0
LINE
  5
10E
  8
21
 10
349.1322233863217
 20
156.7165436337626
 30
0.0
 11
352.6322233863217
 21
156.7165436337626
 31
0.0
  0
LINE
  5
10F
  8
21
 10
193.8503950810906
 20
181.7165436337626
 30
0.0
 11
351.4140516915528
 21
181.7165436337626
 31
0.0
  0
LINE
  5
110
  8
21
 10
352.63222338632158
 20
156.7165436337626
 30
0.0
 11
352.4227782270512
 21
180.71658171069839
 31
0.0
  0
LINE
  5
111
  8
21
 10
272.63222338632158
 20
153.7165436337626
 30
0.0
 11
348.622364559841
 21
153.7165436337626
 31
0.0
  0
LINE
  5
112
  8
21
 10
349.12232782890482
 20
154.21048313979699
 30
0.0
 11
349.15270598954351
 21
156.71654363376251
 31
0.0
  0
ARC
  5
113
  8
21
 10
351.9270325652563
 20
157.0165436337625
 30
0.0
 40
0.3
 50
180.99999999997519
 51
270.0
  0
LINE
  5
114
  8
52
 10
-47.271635204155473
 20
79.3531165510135
 30
0.0
 11
-47.271635204155409
 21
45.653116551013682
 31
0.0
  0
LINE
  5
115
  8
52
 10
101.5613647958444
 20
81.336116551013561
 30
0.0
 11
103.7113647958444
 21
81.336116551013561
 31
0.0
  0
LINE
  5
116
  8
52
 10
105.69436479584439
 20
79.3531165510135
 30
0.0
 11
105.69436479584439
 21
45.653116551013682
 31
0.0
  0
LINE
  5
117
  8
52
 10
-49.788635204155518
 20
79.3531165510135
 30
0.0
 11
-49.788635204155518
 21
45.653116551013682
 31
0.0
  0
LINE
  5
118
  8
52
 10
101.5613647958444
 20
83.8531165510135
 30
0.0
 11
103.7113647958444
 21
83.8531165510135
 31
0.0
  0
LINE
  5
119
  8
52
 10
108.2113647958444
 20
79.3531165510135
 30
0.0
 11
108.2113647958444
 21
45.653116551013682
 31
0.0
  0
ARC
  5
11A
  8
51
 10
103.2113647958444
 20
96.503116551013605
 30
0.0
 40
6.0
 50
0.0000000000000254
 51
90.0
  0
LINE
  5
11B
  8
51
 10
-44.788635204155462
 20
102.50311655101351
 30
0.0
 11
103.2113647958444
 21
102.50311655101351
 31
0.0
  0
LINE
  5
11C
  8
51
 10
-44.788635204155462
 20
22.503116551013591
 30
0.0
 11
103.2113647958444
 21
22.503116551013591
 31
0.0
  0
LINE
  5
11D
  8
51
 10
-50.788635204155469
 20
96.503116551013605
 30
0.0
 11
-50.788635204155469
 21
28.503116551013591
 31
0.0
  0
LINE
  5
11E
  8
51
 10
109.2113647958444
 20
96.503116551013605
 30
0.0
 11
109.2113647958444
 21
28.503116551013591
 31
0.0
  0
LINE
  5
11F
  8
21
 10
192.6322233863217
 20
156.7165436337626
 30
0.0
 11
192.8416685455922
 21
180.71658171069839
 31
0.0
  0
LINE
  5
120
  8
52
 10
99.561364795844554
 20
97.003116551013591
 30
0.0
 11
99.561364795844554
 21
85.853116551013485
 31
0.0
  0
LINE
  5
121
  8
52
 10
97.044364795844515
 20
97.003116551013591
 30
0.0
 11
97.044364795844515
 21
85.853116551013485
 31
0.0
  0
LINE
  5
122
  8
51
 10
96.061364795844483
 20
97.003116551013591
 30
0.0
 11
96.061364795844483
 21
85.853116551013485
 31
0.0
  0
ARC
  5
123
  8
52
 10
95.06136479584444
 20
97.003116551013591
 30
0.0
 40
4.5000000000001128
 50
0.0
 51
89.999999999999986
  0
ARC
  5
124
  8
52
 10
101.5613647958444
 20
85.853116551013485
 30
0.0
 40
1.9999999999998861
 50
180.00000000000031
 51
270.0
  0
ARC
  5
125
  8
52
 10
103.7113647958444
 20
79.3531165510135
 30
0.0
 40
4.5000000000001128
 50
0.0
 51
90.0
  0
ARC
  5
126
  8
52
 10
95.06136479584444
 20
97.003116551013591
 30
0.0
 40
1.98300000000006
 50
0.0
 51
89.999999999999986
  0
ARC
  5
127
  8
52
 10
101.5613647958444
 20
85.853116551013485
 30
0.0
 40
4.5169999999999391
 50
180.00000000000031
 51
270.0
  0
ARC
  5
128
  8
52
 10
103.7113647958444
 20
79.3531165510135
 30
0.0
 40
1.98300000000006
 50
0.0
 51
90.0
  0
ARC
  5
129
  8
51
 10
95.06136479584444
 20
97.003116551013591
 30
0.0
 40
1.000000000000056
 50
0.0
 51
89.999999999999986
  0
ARC
  5
12A
  8
51
 10
101.5613647958444
 20
85.853116551013485
 30
0.0
 40
5.4999999999999432
 50
180.00000000000031
 51
270.0
  0
ARC
  5
12B
  8
51
 10
103.7113647958444
 20
79.3531165510135
 30
0.0
 40
1.000000000000056
 50
0.0
 51
90.0
  0
ARC
  5
12C
  8
52
 10
101.5613647958444
 20
85.853116551013485
 30
0.0
 40
1.0
 50
180.00000000000031
 51
270.0
  0
LINE
  5
12D
  8
52
 10
101.5613647958444
 20
84.8531165510135
 30
0.0
 11
103.7113647958444
 21
84.8531165510135
 31
0.0
  0
ARC
  5
12E
  8
52
 10
103.7113647958444
 20
79.3531165510135
 30
0.0
 40
5.5
 50
50.362285609326307
 51
90.0
  0
ARC
  5
12F
  8
52
 10
107.41136479584441
 20
83.819658837837906
 30
0.0
 40
0.3
 50
230.36228560932679
 51
0.0
  0
LINE
  5
130
  8
23
 10
272.63222338632158
 20
184.17890922516159
 30
0.0
 11
272.63222338632158
 21
152.24342535419251
 31
0.0
  0
LINE
  5
131
  8
63
 10
189.42776105203581
 20
62.503116551013591
 30
0.0
 11
356.7458045262191
 21
62.503116551013591
 31
0.0
  0
LINE
  5
132
  8
63
 10
272.6322233863217
 20
105.2958356252102
 30
0.0
 11
272.6322233863217
 21
19.94099691552935
 31
0.0
  0
ARC
  5
133
  8
52
 10
103.2113647958444
 20
96.503116551013605
 30
0.0
 40
4.5
 50
0.0000000000000254
 51
90.0
  0
ARC
  5
134
  8
52
 10
95.06136479584444
 20
97.003116551013591
 30
0.0
 40
5.5000000000001128
 50
0.0
 51
39.637714390654338
  0
LINE
  5
135
  8
52
 10
103.2113647958444
 20
101.00311655101351
 30
0.0
 11
99.527907082671845
 21
101.00311655101351
 31
0.0
  0
ARC
  5
136
  8
52
 10
99.527907082671845
 20
100.70311655101359
 30
0.0
 40
0.3
 50
90.0
 51
219.63771439065559
  0
ARC
  5
137
  8
52
 10
103.2113647958444
 20
28.503116551013591
 30
0.0
 40
4.5
 50
270.0
 51
0.0
  0
LINE
  5
138
  8
52
 10
103.2113647958444
 20
24.003116551013591
 30
0.0
 11
99.527907082671845
 21
24.003116551013591
 31
0.0
  0
ARC
  5
139
  8
52
 10
99.527907082671845
 20
24.303116551013598
 30
0.0
 40
0.3
 50
140.3622856093443
 51
270.0
  0
ARC
  5
13A
  8
52
 10
95.06136479584444
 20
28.003116551013591
 30
0.0
 40
5.5000000000001128
 50
320.36228560934558
 51
0.0
  0
LINE
  5
13B
  8
52
 10
107.7113647958444
 20
28.503116551013591
 30
0.0
 11
107.7113647958444
 21
41.186574264189289
 31
0.0
  0
LINE
  5
13C
  8
52
 10
100.5613647958444
 20
28.003116551013591
 30
0.0
 11
100.5613647958444
 21
39.153116551013682
 31
0.0
  0
ARC
  5
13D
  8
52
 10
-44.788635204155668
 20
96.503116551013605
 30
0.0
 40
4.5
 50
90.000000000000028
 51
180.0
  0
LINE
  5
13E
  8
52
 10
-44.788635204155668
 20
101.00311655101351
 30
0.0
 11
-41.105177490983088
 21
101.00311655101351
 31
0.0
  0
ARC
  5
13F
  8
52
 10
-41.105177490983088
 20
100.70311655101359
 30
0.0
 40
0.3
 50
320.36228560934433
 51
90.000000000000028
  0
ARC
  5
140
  8
52
 10
-36.63863520415569
 20
97.003116551013591
 30
0.0
 40
5.5000000000001128
 50
140.36228560934561
 51
180.0
  0
LINE
  5
141
  8
52
 10
-49.288635204155668
 20
96.503116551013605
 30
0.0
 11
-49.288635204155668
 21
83.819658837837906
 31
0.0
  0
LINE
  5
142
  8
52
 10
-42.13863520415569
 20
97.003116551013591
 30
0.0
 11
-42.13863520415569
 21
85.853116551013485
 31
0.0
  0
LINE
  5
143
  8
52
 10
-42.13863520415569
 20
28.003116551013591
 30
0.0
 11
-42.13863520415569
 21
39.153116551013682
 31
0.0
  0
LINE
  5
144
  8
52
 10
-49.288635204155668
 20
28.503116551013591
 30
0.0
 11
-49.288635204155668
 21
41.186574264189289
 31
0.0
  0
ARC
  5
145
  8
52
 10
-44.788635204155668
 20
28.503116551013591
 30
0.0
 40
4.5
 50
180.0
 51
270.0
  0
LINE
  5
146
  8
52
 10
-44.788635204155668
 20
24.003116551013591
 30
0.0
 11
-41.105177490983088
 21
24.003116551013591
 31
0.0
  0
ARC
  5
147
  8
52
 10
-36.63863520415569
 20
28.003116551013591
 30
0.0
 40
5.5000000000001128
 50
180.0
 51
219.63771439065431
  0
ARC
  5
148
  8
52
 10
-41.105177490983088
 20
24.303116551013598
 30
0.0
 40
0.3
 50
270.0
 51
39.637714390655667
  0
LINE
  5
149
  8
52
 10
102.4613647958442
 20
100.3557941913047
 30
0.0
 11
102.4613647958442
 21
98.004078445329753
 31
0.0
  0
ARC
  5
14A
  8
52
 10
103.2113647958441
 20
96.503116551013605
 30
0.0
 40
3.9249999999999998
 50
78.984017943781922
 51
101.01598205621811
  0
LINE
  5
14B
  8
52
 10
103.9613647958441
 20
100.3557941913047
 30
0.0
 11
103.9613647958441
 21
98.004078445329824
 31
0.0
  0
LINE
  5
14C
  8
52
 10
103.9613647958442
 20
32.35579419130476
 30
0.0
 11
103.9613647958442
 21
30.00407844532981
 31
0.0
  0
ARC
  5
14D
  8
52
 10
103.2113647958442
 20
28.503116551013591
 30
0.0
 40
3.9249999999999998
 50
78.984017943781922
 51
101.01598205621811
  0
LINE
  5
14E
  8
52
 10
102.4613647958442
 20
32.35579419130476
 30
0.0
 11
102.4613647958442
 21
30.00407844532975
 31
0.0
  0
LINE
  5
14F
  8
52
 10
-45.53863520415544
 20
24.650438910722411
 30
0.0
 11
-45.53863520415544
 21
27.002154656697371
 31
0.0
  0
ARC
  5
150
  8
52
 10
-44.78863520415544
 20
28.503116551013591
 30
0.0
 40
3.9249999999999998
 50
258.98401794378179
 51
281.01598205621809
  0
LINE
  5
151
  8
52
 10
-44.038635204155433
 20
24.650438910722411
 30
0.0
 11
-44.038635204155433
 21
27.002154656697481
 31
0.0
  0
LINE
  5
152
  8
52
 10
-44.038635204155433
 20
92.650438910722414
 30
0.0
 11
-44.038635204155433
 21
95.002154656697485
 31
0.0
  0
LINE
  5
153
  8
52
 10
-45.53863520415544
 20
92.650438910722414
 30
0.0
 11
-45.53863520415544
 21
95.002154656697385
 31
0.0
  0
ARC
  5
154
  8
52
 10
-44.78863520415544
 20
96.503116551013605
 30
0.0
 40
3.9249999999999998
 50
258.98401794378179
 51
281.01598205621809
  0
LINE
  5
155
  8
61
 10
347.38222338632193
 20
92.675911304356475
 30
0.0
 11
347.38222338632193
 21
95.002154656697485
 31
0.0
  0
LINE
  5
156
  8
61
 10
345.88222338632193
 20
92.675911304356475
 30
0.0
 11
345.88222338632193
 21
95.002154656697385
 31
0.0
  0
ARC
  5
157
  8
61
 10
346.6322233863217
 20
96.503116551013605
 30
0.0
 40
3.8999999999999999
 50
258.91251078904651
 51
281.08748921095838
  0
LINE
  5
158
  8
61
 10
348.55880179447593
 20
29.040048238709002
 30
0.0
 11
347.38222338632193
 21
27.002154656697709
 31
0.0
  0
LINE
  5
159
  8
61
 10
345.20393770060338
 20
29.90311655101004
 30
0.0
 11
348.06050907204008
 21
29.90311655101004
 31
0.0
  0
LINE
  5
15A
  8
61
 10
345.88222338632193
 20
27.00215465669703
 30
0.0
 11
344.70564497816741
 21
29.040048238709229
 31
0.0
  0
LINE
  5
15B
  8
61
 10
345.88222338632193
 20
24.675911304356529
 30
0.0
 11
345.88222338632193
 21
27.002154656697371
 31
0.0
  0
LINE
  5
15C
  8
61
 10
347.38222338632193
 20
24.675911304356529
 30
0.0
 11
347.38222338632193
 21
27.002154656697481
 31
0.0
  0
ARC
  5
15D
  8
61
 10
346.6322233863217
 20
28.503116551013591
 30
0.0
 40
3.8999999999999999
 50
258.91251078904651
 51
281.08748921095838
  0
LINE
  5
15E
  8
61
 10
196.7056449781675
 20
95.966184863318233
 30
0.0
 11
197.88222338632161
 21
98.004078445329526
 31
0.0
  0
LINE
  5
15F
  8
61
 10
200.06050907204019
 20
95.103116551017195
 30
0.0
 11
197.2039377006034
 21
95.103116551017195
 31
0.0
  0
LINE
  5
160
  8
61
 10
199.38222338632161
 20
98.004078445330094
 30
0.0
 11
200.5588017944761
 21
95.966184863318006
 31
0.0
  0
LINE
  5
161
  8
61
 10
199.38222338632161
 20
100.33032179767071
 30
0.0
 11
199.38222338632161
 21
98.004078445329824
 31
0.0
  0
LINE
  5
162
  8
61
 10
197.88222338632161
 20
100.33032179767071
 30
0.0
 11
197.88222338632161
 21
98.004078445329696
 31
0.0
  0
ARC
  5
163
  8
61
 10
198.63222338632181
 20
96.503116551013605
 30
0.0
 40
3.8999999999999999
 50
78.912510789046465
 51
101.0874892109584
  0
LINE
  5
164
  8
61
 10
200.06050907204019
 20
27.103116551017141
 30
0.0
 11
197.2039377006034
 21
27.103116551017141
 31
0.0
  0
LINE
  5
165
  8
61
 10
196.7056449781675
 20
27.966184863318169
 30
0.0
 11
197.88222338632161
 21
30.004078445329469
 31
0.0
  0
LINE
  5
166
  8
61
 10
197.88222338632161
 20
32.330321797670642
 30
0.0
 11
197.88222338632161
 21
30.004078445329689
 31
0.0
  0
LINE
  5
167
  8
61
 10
199.38222338632161
 20
32.330321797670642
 30
0.0
 11
199.38222338632161
 21
30.00407844532981
 31
0.0
  0
LINE
  5
168
  8
61
 10
199.38222338632161
 20
30.004078445330151
 30
0.0
 11
200.5588017944761
 21
27.966184863317942
 31
0.0
  0
ARC
  5
169
  8
61
 10
198.63222338632181
 20
28.503116551013591
 30
0.0
 40
3.8999999999999999
 50
78.912510789046465
 51
101.0874892109584
  0
ARC
  5
16A
  8
21
 10
348.622364559841
 20
154.2165436337626
 30
0.0
 40
0.5
 50
270.0
 51
359.30550154154508
  0
LINE
  5
16B
  8
21
 10
349.15270598954351
 20
156.71654363376251
 30
0.0
 11
272.6322233863217
 21
156.71654363376251
 31
0.0
  0
LINE
  5
16C
  8
21
 10
352.42277822705108
 20
180.71658171069839
 30
0.0
 11
272.63222338632158
 21
180.71658171069839
 31
0.0
  0
LINE
  5
16D
  8
21
 10
192.84166854559231
 20
180.71658171069839
 30
0.0
 11
272.6322233863217
 21
180.71658171069839
 31
0.0
  0
LINE
  5
16E
  8
21
 10
196.1117407830998
 20
156.71654363376251
 30
0.0
 11
272.63222338632158
 21
156.71654363376251
 31
0.0
  0
ARC
  5
16F
  8
21
 10
196.64208221280231
 20
154.2165436337626
 30
0.0
 40
0.5
 50
180.6944984584548
 51
270.0
  0
LINE
  5
170
  8
21
 10
196.14211894373861
 20
154.21048313979699
 30
0.0
 11
196.1117407830998
 21
156.71654363376251
 31
0.0
  0
LINE
  5
171
  8
21
 10
272.6322233863217
 20
153.7165436337626
 30
0.0
 11
196.64208221280231
 21
153.7165436337626
 31
0.0
  0
LINE
  5
172
  8
21
 10
196.13222338632161
 20
156.7165436337626
 30
0.0
 11
192.6322233863217
 21
156.7165436337626
 31
0.0
  0
ARC
  5
186
  8
23
  6
DASHED
 10
206.47859695080589
 20
178.21654363376251
 30
0.0
 40
0.5
 50
90.000000000000057
 51
179.50000000000171
  0
LINE
  5
187
  8
23
  6
DASHED
 10
205.78481860006241
 20
156.01392567311319
 30
0.0
 11
205.97861598927381
 21
178.22090690151171
 31
0.0
  0
LINE
  5
188
  8
23
  6
DASHED
 10
206.47859695080589
 20
178.71654363376251
 30
0.0
 11
338.78584982183747
 21
178.7165436337626
 31
0.0
  0
ARC
  5
189
  8
23
  6
DASHED
 10
338.78584982183747
 20
178.2165436337626
 30
0.0
 40
0.5
 50
0.4999999999980861
 51
90.000000000000057
  0
LINE
  5
18A
  8
23
  6
DASHED
 10
339.47962817258099
 20
156.01392567311319
 30
0.0
 11
339.28583078336959
 21
178.2209069015118
 31
0.0
  0
LINE
  5
190
  8
13
  6
DASHED
 10
339.47962817258099
 20
-23.435093758292989
 30
0.0
 11
339.28583078336959
 21
-45.64207498669154
 31
0.0
  0
ARC
  5
191
  8
13
  6
DASHED
 10
338.78584982183747
 20
-45.63771171894237
 30
0.0
 40
0.5
 50
269.99999999999989
 51
359.50000000000188
  0
LINE
  5
192
  8
13
  6
DASHED
 10
206.47859695080589
 20
-46.137711718942249
 30
0.0
 11
338.78584982183747
 21
-46.13771171894237
 31
0.0
  0
LINE
  5
193
  8
13
  6
DASHED
 10
205.78481860006241
 20
-23.435093758292989
 30
0.0
 11
205.97861598927381
 21
-45.642074986691419
 31
0.0
  0
ARC
  5
194
  8
13
  6
DASHED
 10
206.47859695080589
 20
-45.637711718942249
 30
0.0
 40
0.5
 50
180.49999999999821
 51
269.99999999999989
  0
LINE
  5
195
  8
11
 10
196.13222338632161
 20
-24.137711718942342
 30
0.0
 11
192.6322233863217
 21
-24.137711718942342
 31
0.0
  0
LINE
  5
196
  8
11
 10
272.6322233863217
 20
-21.137711718942398
 30
0.0
 11
196.64208221280231
 21
-21.137711718942398
 31
0.0
  0
LINE
  5
197
  8
11
 10
196.14211894373861
 20
-21.631651224976789
 30
0.0
 11
196.1117407830998
 21
-24.137711718942281
 31
0.0
  0
ARC
  5
198
  8
11
 10
196.64208221280231
 20
-21.637711718942391
 30
0.0
 40
0.5
 50
90.0
 51
179.30550154154511
  0
LINE
  5
199
  8
11
 10
196.1117407830998
 20
-24.137711718942281
 30
0.0
 11
272.63222338632158
 21
-24.137711718942281
 31
0.0
  0
LINE
  5
19A
  8
11
 10
192.84166854559231
 20
-48.137749795878157
 30
0.0
 11
272.6322233863217
 21
-48.137749795878157
 31
0.0
  0
LINE
  5
19B
  8
11
 10
352.42277822705108
 20
-48.137749795878157
 30
0.0
 11
272.63222338632158
 21
-48.137749795878157
 31
0.0
  0
LINE
  5
19C
  8
11
 10
349.15270598954351
 20
-24.137711718942281
 30
0.0
 11
272.6322233863217
 21
-24.137711718942281
 31
0.0
  0
ARC
  5
19D
  8
11
 10
348.622364559841
 20
-21.637711718942391
 30
0.0
 40
0.5
 50
0.6944984584548536
 51
90.0
  0
LINE
  5
19E
  8
13
 10
272.63222338632158
 20
-51.600077310341312
 30
0.0
 11
272.63222338632158
 21
-19.664593439372311
 31
0.0
  0
LINE
  5
19F
  8
11
 10
192.6322233863217
 20
-24.137711718942342
 30
0.0
 11
192.8416685455922
 21
-48.137749795878157
 31
0.0
  0
ARC
  5
1A0
  8
11
 10
351.9270325652563
 20
-24.437711718942289
 30
0.0
 40
0.3
 50
90.0
 51
179.0000000000247
  0
LINE
  5
1A1
  8
11
 10
349.12232782890482
 20
-21.631651224976789
 30
0.0
 11
349.15270598954351
 21
-24.137711718942281
 31
0.0
  0
LINE
  5
1A2
  8
11
 10
272.63222338632158
 20
-21.137711718942398
 30
0.0
 11
348.622364559841
 21
-21.137711718942398
 31
0.0
  0
LINE
  5
1A3
  8
11
 10
352.63222338632158
 20
-24.137711718942342
 30
0.0
 11
352.4227782270512
 21
-48.137749795878157
 31
0.0
  0
LINE
  5
1A4
  8
11
 10
193.8503950810906
 20
-49.137711718942342
 30
0.0
 11
351.4140516915528
 21
-49.137711718942342
 31
0.0
  0
LINE
  5
1A5
  8
11
 10
349.1322233863217
 20
-24.137711718942342
 30
0.0
 11
352.6322233863217
 21
-24.137711718942342
 31
0.0
  0
LINE
  5
1A6
  8
11
 10
352.4227782270512
 20
-48.137749795878157
 30
0.0
 11
351.4140516915528
 21
-49.137711718942342
 31
0.0
  0
LINE
  5
1A7
  8
11
 10
192.8416685455922
 20
-48.137749795878157
 30
0.0
 11
193.8503950810906
 21
-49.137711718942342
 31
0.0
  0
LINE
  5
1A8
  8
43
  6
DASHED
 10
167.95687263886111
 20
43.655711746789457
 30
0.0
 11
143.74988935188469
 21
43.849509153965712
 31
0.0
  0
ARC
  5
1A9
  8
43
  6
DASHED
 10
143.75425261963389
 20
44.349490115497801
 30
0.0
 40
0.5
 50
180.00000000000011
 51
269.50000000000188
  0
LINE
  5
1AA
  8
43
  6
DASHED
 10
167.95687263886111
 20
81.350521355237845
 30
0.0
 11
143.7498893518846
 21
81.156723948061611
 31
0.0
  0
LINE
  5
1AB
  8
43
  6
DASHED
 10
143.2542526196338
 20
97.309338182305254
 30
0.0
 11
143.2542526196338
 21
27.69689491972192
 31
0.0
  0
ARC
  5
1AC
  8
43
  6
DASHED
 10
143.7542526196338
 20
80.656742986529522
 30
0.0
 40
0.5
 50
90.499999999997982
 51
180.0
  0
LINE
  5
1AD
  8
41
 10
165.25425261963389
 20
99.003116551013605
 30
0.0
 11
165.25425261963389
 21
102.50311655101351
 31
0.0
  0
LINE
  5
1AE
  8
41
 10
168.25425261963389
 20
62.503116551013477
 30
0.0
 11
168.25425261963389
 21
98.493257724532896
 31
0.0
  0
LINE
  5
1AF
  8
41
 10
167.76031311359949
 20
98.993220993596651
 30
0.0
 11
165.254252619634
 21
99.023599154235399
 31
0.0
  0
ARC
  5
1B0
  8
41
 10
167.75425261963389
 20
98.493257724532896
 30
0.0
 40
0.5
 50
0.0
 51
89.305501541545155
  0
LINE
  5
1B1
  8
41
 10
165.254252619634
 20
99.023599154235399
 30
0.0
 11
165.254252619634
 21
62.503116551013591
 31
0.0
  0
LINE
  5
1B2
  8
41
 10
141.25421454269809
 20
102.2936713917429
 30
0.0
 11
141.25421454269809
 21
62.503116551013477
 31
0.0
  0
LINE
  5
1B3
  8
41
 10
141.25421454269809
 20
22.712561710284149
 30
0.0
 11
141.25421454269809
 21
62.503116551013591
 31
0.0
  0
LINE
  5
1B4
  8
41
 10
165.254252619634
 20
25.982633947791658
 30
0.0
 11
165.254252619634
 21
62.503116551013477
 31
0.0
  0
ARC
  5
1B5
  8
41
 10
167.75425261963389
 20
26.512975377494168
 30
0.0
 40
0.5
 50
270.6944984584548
 51
0.0
  0
LINE
  5
1B6
  8
43
 10
137.79188702823501
 20
62.503116551013591
 30
0.0
 11
169.727370899204
 21
62.503116551013591
 31
0.0
  0
LINE
  5
1B7
  8
41
 10
165.25425261963389
 20
102.50311655101351
 30
0.0
 11
141.25421454269809
 21
102.293671391743
 31
0.0
  0
LINE
  5
1B8
  8
41
 10
167.76031311359949
 20
26.013012108430409
 30
0.0
 11
165.254252619634
 21
25.982633947791658
 31
0.0
  0
LINE
  5
1B9
  8
41
 10
168.25425261963389
 20
62.503116551013591
 30
0.0
 11
168.25425261963389
 21
26.512975377494168
 31
0.0
  0
LINE
  5
1BA
  8
41
 10
165.25425261963389
 20
22.503116551013701
 30
0.0
 11
141.25421454269809
 21
22.712561710284149
 31
0.0
  0
LINE
  5
1BB
  8
41
 10
140.25425261963389
 20
101.28494485624461
 30
0.0
 11
140.25425261963389
 21
23.721288245782372
 31
0.0
  0
LINE
  5
1BC
  8
41
 10
165.25425261963389
 20
26.00311655101347
 30
0.0
 11
165.25425261963389
 21
22.50311655101347
 31
0.0
  0
LINE
  5
1BD
  8
41
 10
141.25421454269809
 20
22.712561710284149
 30
0.0
 11
140.25425261963389
 21
23.721288245782372
 31
0.0
  0
LINE
  5
1BE
  8
41
 10
141.25421454269809
 20
102.293671391743
 30
0.0
 11
140.25425261963389
 21
101.28494485624461
 31
0.0
  0
TEXT
  5
1BF
  8
L20
 10
-33.416128083643173
 20
157.93919988266799
 30
0.0
 40
7.7268720527575852
  1
FIBOX EURONORM II 
  7
ISO
  0
LINE
  5
1C1
  8
53
 10
29.211364795844471
 20
105.50311655101351
 30
0.0
 11
29.21136479584446
 21
19.503116551013591
 31
0.0
  0
LINE
  5
1C2
  8
53
 10
112.2113647958444
 20
62.503116551013591
 30
0.0
 11
-53.788635204155469
 21
62.503116551013598
 31
0.0
  0
TEXT
  5
1C5
  8
L20
 10
-33.416128083643173
 20
141.68978155910591
 30
0.0
 40
7.7268720527575852
  1
80x160x25 COVER
  7
ISO
  0
LINE
  5
1C6
  8
43
  6
DASHED
 10
167.95687263886111
 20
98.003116551013605
 30
0.0
 11
143.7498893518846
 21
97.809319143837357
 31
0.0
  0
ARC
  5
1C7
  8
43
  6
DASHED
 10
143.7542526196338
 20
97.309338182305254
 30
0.0
 40
0.5
 50
90.499999999997982
 51
180.0
  0
LINE
  5
1C8
  8
43
  6
DASHED
 10
167.95687263886111
 20
27.003116551013591
 30
0.0
 11
143.7498893518846
 21
27.196913958189828
 31
0.0
  0
ARC
  5
1C9
  8
43
  6
DASHED
 10
143.7542526196338
 20
27.69689491972192
 30
0.0
 40
0.5
 50
179.99999999999989
 51
269.50000000000188
  0
LINE
  5
1CA
  8
43
  6
DASHED
 10
402.01019415300959
 20
97.309338182305254
 30
0.0
 11
402.01019415300959
 21
27.69689491972192
 31
0.0
  0
LINE
  5
1CB
  8
41
 10
405.01019415300948
 20
101.28494485624461
 30
0.0
 11
405.01019415300948
 21
23.721288245782372
 31
0.0
  0
LINE
  5
1CC
  8
41
 10
377.01019415300959
 20
62.503116551013591
 30
0.0
 11
377.01019415300959
 21
26.512975377494168
 31
0.0
  0
LINE
  5
1CD
  8
41
 10
380.01019415300942
 20
25.982633947791658
 30
0.0
 11
380.01019415300942
 21
62.503116551013477
 31
0.0
  0
LINE
  5
1CE
  8
41
 10
404.0102322299453
 20
22.712561710284149
 30
0.0
 11
404.0102322299453
 21
62.503116551013591
 31
0.0
  0
LINE
  5
1CF
  8
43
  6
DASHED
 10
377.30757413378228
 20
27.003116551013591
 30
0.0
 11
401.51455742075882
 21
27.196913958189828
 31
0.0
  0
LINE
  5
1D0
  8
41
 10
380.01019415300948
 20
22.503116551013701
 30
0.0
 11
404.0102322299453
 21
22.712561710284149
 31
0.0
  0
ARC
  5
1D1
  8
43
  6
DASHED
 10
401.51019415300959
 20
27.69689491972192
 30
0.0
 40
0.5
 50
270.49999999999801
 51
0.0000000000000579
  0
LINE
  5
1D2
  8
41
 10
404.0102322299453
 20
22.712561710284149
 30
0.0
 11
405.01019415300948
 21
23.721288245782372
 31
0.0
  0
LINE
  5
1D3
  8
41
 10
380.01019415300948
 20
26.00311655101347
 30
0.0
 11
380.01019415300948
 21
22.50311655101347
 31
0.0
  0
LINE
  5
1D4
  8
41
 10
377.50413365904387
 20
26.013012108430409
 30
0.0
 11
380.01019415300942
 21
25.982633947791658
 31
0.0
  0
ARC
  5
1D5
  8
41
 10
377.51019415300948
 20
26.512975377494168
 30
0.0
 40
0.5
 50
180.0
 51
269.30550154154508
  0
LINE
  5
1D6
  8
43
  6
DASHED
 10
377.30757413378228
 20
98.003116551013605
 30
0.0
 11
401.51455742075882
 21
97.809319143837357
 31
0.0
  0
LINE
  5
1D7
  8
41
 10
380.01019415300948
 20
102.50311655101351
 30
0.0
 11
404.0102322299453
 21
102.293671391743
 31
0.0
  0
LINE
  5
1D8
  8
43
 10
407.4725597444085
 20
62.503116551013591
 30
0.0
 11
375.53707587343939
 21
62.503116551013591
 31
0.0
  0
LINE
  5
1D9
  8
43
  6
DASHED
 10
377.30757413378228
 20
81.350521355237845
 30
0.0
 11
401.51455742075882
 21
81.156723948061611
 31
0.0
  0
LINE
  5
1DA
  8
43
  6
DASHED
 10
377.30757413378228
 20
43.655711746789457
 30
0.0
 11
401.51455742075871
 21
43.849509153965712
 31
0.0
  0
LINE
  5
1DB
  8
41
 10
404.0102322299453
 20
102.2936713917429
 30
0.0
 11
404.0102322299453
 21
62.503116551013477
 31
0.0
  0
ARC
  5
1DC
  8
43
  6
DASHED
 10
401.51019415300959
 20
44.349490115497801
 30
0.0
 40
0.5
 50
270.49999999999801
 51
359.99999999999977
  0
ARC
  5
1DD
  8
43
  6
DASHED
 10
401.51019415300959
 20
80.656742986529522
 30
0.0
 40
0.5
 50
359.99999999999989
 51
89.500000000002032
  0
LINE
  5
1DE
  8
41
 10
404.0102322299453
 20
102.293671391743
 30
0.0
 11
405.01019415300948
 21
101.28494485624461
 31
0.0
  0
ARC
  5
1DF
  8
43
  6
DASHED
 10
401.51019415300959
 20
97.309338182305254
 30
0.0
 40
0.5
 50
359.99999999999989
 51
89.500000000002032
  0
LINE
  5
1E0
  8
41
 10
380.01019415300942
 20
99.023599154235399
 30
0.0
 11
380.01019415300942
 21
62.503116551013591
 31
0.0
  0
LINE
  5
1E1
  8
41
 10
377.01019415300959
 20
62.503116551013477
 30
0.0
 11
377.01019415300959
 21
98.493257724532896
 31
0.0
  0
LINE
  5
1E2
  8
41
 10
380.01019415300948
 20
99.003116551013605
 30
0.0
 11
380.01019415300948
 21
102.50311655101351
 31
0.0
  0
ARC
  5
1E3
  8
41
 10
377.51019415300948
 20
98.493257724532896
 30
0.0
 40
0.5
 50
90.694498458454859
 51
180.0
  0
LINE
  5
1E4
  8
41
 10
377.50413365904387
 20
98.993220993596651
 30
0.0
 11
380.01019415300942
 21
99.023599154235399
 31
0.0
  0
ENDSEC
  0
EOF
