  0
SECTION
  2
HEADER
  9
$ACADVER
  1
AC1009
  9
$INSBASE
 10
0.0
 20
0.0
 30
0.0
  9
$EXTMIN
 10
-53.788635204155469
 20
-39.171646483852889
 30
0.0
  9
$EXTMAX
 10
407.4725597444085
 20
165.66607193542561
 30
0.0
  9
$LIMMIN
 10
0.0
 20
0.0
  9
$LIMMAX
 10
594.0
 20
420.0
  9
$ORTHOMODE
 70
     1
  9
$REGENMODE
 70
     1
  9
$FILLMODE
 70
     1
  9
$QTEXTMODE
 70
     0
  9
$MIRRTEXT
 70
     1
  9
$DRAGMODE
 70
     2
  9
$LTSCALE
 40
7.0
  9
$OSMODE
 70
    37
  9
$ATTMODE
 70
     1
  9
$TEXTSIZE
 40
3.5
  9
$TRACEWID
 40
0.05
  9
$TEXTSTYLE
  7
TKKISO
  9
$CLAYER
  8
1
  9
$CELTYPE
  6
BYLAYER
  9
$CECOLOR
 62
   256
  9
$DIMSCALE
 40
1.0
  9
$DIMASZ
 40
3.5
  9
$DIMEXO
 40
1.0
  9
$DIMDLI
 40
7.0
  9
$DIMRND
 40
0.0
  9
$DIMDLE
 40
0.0
  9
$DIMEXE
 40
1.5
  9
$DIMTP
 40
0.0
  9
$DIMTM
 40
0.0
  9
$DIMTXT
 40
3.5
  9
$DIMCEN
 40
0.0
  9
$DIMTSZ
 40
0.0
  9
$DIMTOL
 70
     0
  9
$DIMLIM
 70
     0
  9
$DIMTIH
 70
     0
  9
$DIMTOH
 70
     0
  9
$DIMSE1
 70
     0
  9
$DIMSE2
 70
     0
  9
$DIMTAD
 70
     1
  9
$DIMZIN
 70
     8
  9
$DIMBLK
  1

  9
$DIMASO
 70
     1
  9
$DIMSHO
 70
     1
  9
$DIMPOST
  1

  9
$DIMAPOST
  1

  9
$DIMALT
 70
     0
  9
$DIMALTD
 70
     2
  9
$DIMALTF
 40
25.399999999999999
  9
$DIMLFAC
 40
1.0
  9
$DIMTOFL
 70
     1
  9
$DIMTVP
 40
0.0
  9
$DIMTIX
 70
     0
  9
$DIMSOXD
 70
     0
  9
$DIMSAH
 70
     0
  9
$DIMBLK1
  1

  9
$DIMBLK2
  1

  9
$DIMSTYLE
  2
STANDARD
  9
$DIMCLRD
 70
     1
  9
$DIMCLRE
 70
     1
  9
$DIMCLRT
 70
     3
  9
$DIMTFAC
 40
1.0
  9
$DIMGAP
 40
0.09
  9
$LUNITS
 70
     2
  9
$LUPREC
 70
     3
  9
$SKETCHINC
 40
1.0
  9
$FILLETRAD
 40
1.0
  9
$AUNITS
 70
     0
  9
$AUPREC
 70
     1
  9
$MENU
  1
caesar
  9
$ELEVATION
 40
0.0
  9
$PELEVATION
 40
0.0
  9
$THICKNESS
 40
0.0
  9
$LIMCHECK
 70
     0
  9
$BLIPMODE
 70
     0
  9
$CHAMFERA
 40
5.0
  9
$CHAMFERB
 40
5.0
  9
$SKPOLY
 70
     1
  9
$TDCREATE
 40
2448769.4888120368
  9
$TDUPDATE
 40
2453620.4656104161
  9
$TDINDWG
 40
0.3774411111
  9
$TDUSRTIMER
 40
0.3774411111
  9
$USRTIMER
 70
     1
  9
$ANGBASE
 50
0.0
  9
$ANGDIR
 70
     0
  9
$PDMODE
 70
     0
  9
$PDSIZE
 40
2.0
  9
$PLINEWID
 40
0.0
  9
$COORDS
 70
     2
  9
$SPLFRAME
 70
     0
  9
$SPLINETYPE
 70
     6
  9
$SPLINESEGS
 70
     8
  9
$ATTDIA
 70
     0
  9
$ATTREQ
 70
     1
  9
$HANDLING
 70
-16383
  9
$HANDSEED
  5
3C6
  9
$SURFTAB1
 70
     6
  9
$SURFTAB2
 70
     6
  9
$SURFTYPE
 70
     6
  9
$SURFU
 70
     6
  9
$SURFV
 70
     6
  9
$UCSNAME
  2

  9
$UCSORG
 10
0.0
 20
0.0
 30
0.0
  9
$UCSXDIR
 10
1.0
 20
0.0
 30
0.0
  9
$UCSYDIR
 10
0.0
 20
1.0
 30
0.0
  9
$PUCSNAME
  2

  9
$PUCSORG
 10
0.0
 20
0.0
 30
0.0
  9
$PUCSXDIR
 10
1.0
 20
0.0
 30
0.0
  9
$PUCSYDIR
 10
0.0
 20
1.0
 30
0.0
  9
$USERI1
 70
     2
  9
$USERI2
 70
     0
  9
$USERI3
 70
     0
  9
$USERI4
 70
     0
  9
$USERI5
 70
     0
  9
$USERR1
 40
1.0
  9
$USERR2
 40
0.0
  9
$USERR3
 40
3.5
  9
$USERR4
 40
0.0
  9
$USERR5
 40
0.0
  9
$WORLDVIEW
 70
     1
  9
$SHADEDGE
 70
     3
  9
$SHADEDIF
 70
    70
  9
$TILEMODE
 70
     1
  9
$MAXACTVP
 70
    16
  9
$PLIMCHECK
 70
     0
  9
$PEXTMIN
 10
1.0000000000000000E+020
 20
1.0000000000000000E+020
 30
1.0000000000000000E+020
  9
$PEXTMAX
 10
-1.0000000000000000E+020
 20
-1.0000000000000000E+020
 30
-1.0000000000000000E+020
  9
$PLIMMIN
 10
0.0
 20
0.0
  9
$PLIMMAX
 10
12.0
 20
9.0
  9
$UNITMODE
 70
     0
  9
$VISRETAIN
 70
     0
  9
$PLINEGEN
 70
     0
  9
$PSLTSCALE
 70
     0
  0
ENDSEC
  0
SECTION
  2
TABLES
  0
TABLE
  2
VPORT
 70
     2
  0
VPORT
  2
*ACTIVE
 70
     0
 10
0.0
 20
0.0
 11
1.0
 21
1.0
 12
176.8461038098531
 22
63.234427335196131
 13
0.0
 23
0.0
 14
6.0
 24
6.0
 15
0.0
 25
0.0
 16
0.0
 26
0.0
 36
1.0
 17
0.0
 27
0.0
 37
0.0
 40
297.8537388150487
 41
1.5552208835341359
 42
50.0
 43
0.0
 44
0.0
 50
0.0
 51
0.0
 71
     0
 72
   500
 73
     1
 74
     0
 75
     0
 76
     0
 77
     0
 78
     0
  0
ENDTAB
  0
TABLE
  2
LTYPE
 70
     3
  0
LTYPE
  2
CONTINUOUS
 70
     0
  3
Solid line
 72
    65
 73
     0
 40
0.0
  0
LTYPE
  2
CENTER
 70
     0
  3
------  -  -----  -  -----  -  -----  -  ------
 72
    65
 73
     4
 40
1.8
 49
1.25
 49
-0.25
 49
0.05
 49
-0.25
  0
LTYPE
  2
DASHED
 70
     0
  3
__ __ __ __ __ __ __ __ __ __ __ __ __ __ __
 72
    65
 73
     2
 40
0.75
 49
0.5
 49
-0.25
  0
ENDTAB
  0
TABLE
  2
LAYER
 70
    14
  0
LAYER
  2
0
 70
     0
 62
     7
  6
CONTINUOUS
  0
LAYER
  2
DEFPOINTS
 70
     0
 62
    -7
  6
CONTINUOUS
  0
LAYER
  2
L20
 70
     0
 62
     3
  6
CONTINUOUS
  0
LAYER
  2
1
 70
     0
 62
     7
  6
CONTINUOUS
  0
LAYER
  2
21
 70
     0
 62
     7
  6
CONTINUOUS
  0
LAYER
  2
23
 70
     0
 62
     1
  6
CENTER
  0
LAYER
  2
41
 70
     0
 62
     7
  6
CONTINUOUS
  0
LAYER
  2
43
 70
     0
 62
     1
  6
CENTER
  0
LAYER
  2
51
 70
     0
 62
     7
  6
CONTINUOUS
  0
LAYER
  2
52
 70
     0
 62
     1
  6
CONTINUOUS
  0
LAYER
  2
53
 70
     0
 62
     1
  6
CENTER
  0
LAYER
  2
61
 70
     0
 62
     7
  6
CONTINUOUS
  0
LAYER
  2
62
 70
     0
 62
     1
  6
CONTINUOUS
  0
LAYER
  2
63
 70
     0
 62
     1
  6
CENTER
  0
ENDTAB
  0
TABLE
  2
STYLE
 70
     3
  0
STYLE
  2
STANDARD
 70
     0
 40
0.0
 41
1.0
 50
0.0
 71
     0
 42
0.2
  3
caeiso
  4

  0
STYLE
  2
ISO
 70
     0
 40
0.0
 41
1.0
 50
0.0
 71
     0
 42
3.5
  3
SIMPLEX
  4

  0
STYLE
  2
TKKISO
 70
     0
 40
0.0
 41
1.0
 50
0.0
 71
     0
 42
3.5
  3
caeiso
  4

  0
ENDTAB
  0
TABLE
  2
VIEW
 70
     0
  0
ENDTAB
  0
TABLE
  2
UCS
 70
     0
  0
ENDTAB
  0
TABLE
  2
APPID
 70
     2
  0
APPID
  2
ACAD
 70
     0
  0
APPID
  2
DCO15
 70
     0
  0
ENDTAB
  0
TABLE
  2
DIMSTYLE
 70
     1
  0
DIMSTYLE
  2
STANDARD
 70
     0
  3

  4

  5

  6

  7

 40
1.0
 41
0.18
 42
0.0625
 43
0.38
 44
0.18
 45
0.0
 46
0.0
 47
0.0
 48
0.0
140
0.18
141
0.09
142
0.0
143
25.399999999999999
144
1.0
145
0.0
146
1.0
147
0.09
 71
     0
 72
     0
 73
     1
 74
     1
 75
     0
 76
     0
 77
     0
 78
     0
170
     0
171
     2
172
     0
173
     0
174
     0
175
     0
176
     0
177
     0
178
     0
  0
ENDTAB
  0
ENDSEC
  0
SECTION
  2
BLOCKS
  0
BLOCK
  8
0
  2
$MODEL_SPACE
 70
     0
 10
0.0
 20
0.0
 30
0.0
  3
$MODEL_SPACE
  1

  0
ENDBLK
  5
7D
  8
0
  0
BLOCK
 67
     1
  8
0
  2
$PAPER_SPACE
 70
     0
 10
0.0
 20
0.0
 30
0.0
  3
$PAPER_SPACE
  1

  0
ENDBLK
  5
7B
 67
     1
  8
0
  0
ENDSEC
  0
SECTION
  2
ENTITIES
  0
ARC
  5
7E
  8
62
 10
346.6322233863217
 20
28.503116551013591
 30
0.0
 40
5.7818283052311008
 50
270.0
 51
0.0
  0
LINE
  5
7F
  8
62
 10
198.63222338632181
 20
22.721288245782489
 30
0.0
 11
346.6322233863217
 21
22.721288245782489
 31
0.0
  0
ARC
  5
80
  8
62
 10
198.63222338632181
 20
28.503116551013591
 30
0.0
 40
5.7818283052311008
 50
180.0
 51
270.0
  0
LINE
  5
81
  8
62
 10
192.85039508109071
 20
96.503116551013534
 30
0.0
 11
192.85039508109071
 21
28.503116551013591
 31
0.0
  0
ARC
  5
82
  8
62
 10
198.63222338632181
 20
96.503116551013534
 30
0.0
 40
5.7818283052311008
 50
90.0
 51
180.0
  0
LINE
  5
83
  8
62
 10
198.63222338632181
 20
102.28494485624461
 30
0.0
 11
346.63222338632158
 21
102.28494485624461
 31
0.0
  0
ARC
  5
84
  8
62
 10
346.6322233863217
 20
96.503116551013534
 30
0.0
 40
5.7818283052311008
 50
0.0000000000000254
 51
90.0
  0
LINE
  5
85
  8
62
 10
352.41405169155269
 20
96.503116551013534
 30
0.0
 11
352.4140516915528
 21
28.503116551013591
 31
0.0
  0
ARC
  5
86
  8
61
 10
346.6322233863217
 20
96.503116551013534
 30
0.0
 40
4.7818283052311008
 50
0.0000000000000254
 51
90.0
  0
LINE
  5
87
  8
61
 10
198.63222338632181
 20
101.28494485624461
 30
0.0
 11
346.63222338632158
 21
101.28494485624461
 31
0.0
  0
ARC
  5
88
  8
61
 10
198.63222338632181
 20
96.503116551013534
 30
0.0
 40
4.7818283052311008
 50
90.0
 51
180.0
  0
LINE
  5
89
  8
61
 10
193.85039508109071
 20
96.503116551013534
 30
0.0
 11
193.85039508109071
 21
28.503116551013591
 31
0.0
  0
ARC
  5
8A
  8
61
 10
198.63222338632181
 20
28.503116551013591
 30
0.0
 40
4.7818283052311008
 50
180.0
 51
270.0
  0
LINE
  5
8B
  8
61
 10
198.63222338632181
 20
23.721288245782478
 30
0.0
 11
346.6322233863217
 21
23.721288245782478
 31
0.0
  0
ARC
  5
8C
  8
61
 10
346.6322233863217
 20
28.503116551013591
 30
0.0
 40
4.7818283052311008
 50
270.0
 51
0.0
  0
LINE
  5
8D
  8
61
 10
351.41405169155269
 20
96.503116551013534
 30
0.0
 11
351.4140516915528
 21
28.503116551013591
 31
0.0
  0
LINE
  5
8E
  8
21
 10
192.7543998676847
 20
150.71555207141691
 30
0.0
 11
193.76312640318309
 21
151.71551399448111
 31
0.0
  0
LINE
  5
8F
  8
21
 10
352.5100469049587
 20
150.71555207141691
 30
0.0
 11
351.50132036946042
 21
151.71551399448111
 31
0.0
  0
ARC
  5
90
  8
52
 10
-48.988635204155628
 20
83.819658837837906
 30
0.0
 40
0.3
 50
180.0
 51
309.63771439067312
  0
ARC
  5
91
  8
52
 10
-45.288635204155639
 20
79.3531165510135
 30
0.0
 40
5.5
 50
90.000000000000028
 51
129.63771439067369
  0
LINE
  5
92
  8
52
 10
-43.138635204155662
 20
84.8531165510135
 30
0.0
 11
-45.288635204155639
 21
84.8531165510135
 31
0.0
  0
ARC
  5
93
  8
52
 10
-43.138635204155719
 20
85.853116551013485
 30
0.0
 40
1.0
 50
270.0
 51
359.99999999999972
  0
ARC
  5
94
  8
51
 10
-45.288635204155639
 20
79.3531165510135
 30
0.0
 40
1.000000000000056
 50
90.000000000000028
 51
180.0
  0
ARC
  5
95
  8
51
 10
-43.138635204155719
 20
85.853116551013485
 30
0.0
 40
5.4999999999999432
 50
270.0
 51
359.99999999999972
  0
ARC
  5
96
  8
51
 10
-36.638635204155662
 20
97.003116551013591
 30
0.0
 40
1.000000000000056
 50
90.000000000000057
 51
180.0
  0
ARC
  5
97
  8
52
 10
-45.288635204155639
 20
79.3531165510135
 30
0.0
 40
1.98300000000006
 50
90.000000000000028
 51
180.0
  0
ARC
  5
98
  8
52
 10
-43.138635204155719
 20
85.853116551013485
 30
0.0
 40
4.5169999999999391
 50
270.0
 51
359.99999999999972
  0
ARC
  5
99
  8
52
 10
-36.638635204155662
 20
97.003116551013591
 30
0.0
 40
1.98300000000006
 50
90.000000000000057
 51
180.0
  0
ARC
  5
9A
  8
52
 10
-45.288635204155639
 20
79.3531165510135
 30
0.0
 40
4.5000000000001128
 50
90.000000000000028
 51
180.0
  0
ARC
  5
9B
  8
52
 10
-43.138635204155719
 20
85.853116551013485
 30
0.0
 40
1.9999999999998861
 50
270.0
 51
359.99999999999972
  0
ARC
  5
9C
  8
52
 10
-36.638635204155662
 20
97.003116551013591
 30
0.0
 40
4.5000000000001128
 50
90.000000000000057
 51
180.0
  0
LINE
  5
9D
  8
51
 10
-37.638635204155719
 20
97.003116551013591
 30
0.0
 11
-37.638635204155719
 21
85.853116551013485
 31
0.0
  0
LINE
  5
9E
  8
52
 10
-38.621635204155723
 20
97.003116551013591
 30
0.0
 11
-38.621635204155723
 21
85.853116551013485
 31
0.0
  0
LINE
  5
9F
  8
52
 10
-41.138635204155769
 20
97.003116551013591
 30
0.0
 11
-41.138635204155769
 21
85.853116551013485
 31
0.0
  0
ARC
  5
A0
  8
51
 10
-44.788635204155639
 20
96.503116551013605
 30
0.0
 40
6.0
 50
90.000000000000028
 51
180.0
  0
LINE
  5
A1
  8
52
 10
-43.138635204155662
 20
83.8531165510135
 30
0.0
 11
-45.288635204155639
 21
83.8531165510135
 31
0.0
  0
LINE
  5
A2
  8
52
 10
-43.138635204155719
 20
81.336116551013561
 30
0.0
 11
-45.288635204155639
 21
81.336116551013561
 31
0.0
  0
LINE
  5
A3
  8
51
 10
-43.138635204155719
 20
80.353116551013514
 30
0.0
 11
-45.288635204155639
 21
80.353116551013514
 31
0.0
  0
ARC
  5
A9
  8
52
 10
-44.788635204155639
 20
96.503116551013605
 30
0.0
 40
5.5
 50
223.60281897269931
 51
293.90193192596172
  0
ARC
  5
AA
  8
52
 10
-48.988635204155678
 20
92.503116551014159
 30
0.0
 40
0.3
 50
43.602818972699758
 51
180.0
  0
ARC
  5
AB
  8
52
 10
-42.438635204155673
 20
91.200522846043114
 30
0.0
 40
0.3
 50
0.0000000000000127
 51
113.9019319259623
  0
ARC
  5
AC
  8
52
 10
-42.438635204155673
 20
33.805710255984081
 30
0.0
 40
0.3
 50
246.09806807403771
 51
359.99999999999989
  0
ARC
  5
AD
  8
52
 10
-48.988635204155678
 20
32.503116551013022
 30
0.0
 40
0.3
 50
180.0
 51
316.39718102730018
  0
ARC
  5
AE
  8
52
 10
-44.788635204155639
 20
28.503116551013591
 30
0.0
 40
5.5
 50
66.098068074038181
 51
136.3971810273006
  0
LINE
  5
B4
  8
51
 10
-43.138635204155719
 20
44.653116551013682
 30
0.0
 11
-45.288635204155639
 21
44.653116551013682
 31
0.0
  0
LINE
  5
B5
  8
52
 10
-43.138635204155719
 20
43.670116551013621
 30
0.0
 11
-45.288635204155639
 21
43.670116551013621
 31
0.0
  0
LINE
  5
B6
  8
52
 10
-43.138635204155662
 20
41.153116551013667
 30
0.0
 11
-45.288635204155639
 21
41.153116551013667
 31
0.0
  0
ARC
  5
B7
  8
51
 10
-44.788635204155639
 20
28.503116551013591
 30
0.0
 40
6.0
 50
180.0
 51
270.0
  0
LINE
  5
B8
  8
52
 10
-41.138635204155769
 20
28.003116551013591
 30
0.0
 11
-41.138635204155769
 21
39.153116551013682
 31
0.0
  0
LINE
  5
B9
  8
52
 10
-38.621635204155723
 20
28.003116551013591
 30
0.0
 11
-38.621635204155723
 21
39.153116551013682
 31
0.0
  0
LINE
  5
BA
  8
51
 10
-37.638635204155719
 20
28.003116551013591
 30
0.0
 11
-37.638635204155719
 21
39.153116551013682
 31
0.0
  0
ARC
  5
BB
  8
52
 10
-36.638635204155662
 20
28.003116551013591
 30
0.0
 40
4.5000000000001128
 50
180.0
 51
270.0
  0
ARC
  5
BC
  8
52
 10
-43.138635204155719
 20
39.153116551013682
 30
0.0
 40
1.9999999999998861
 50
0.0000000000002672
 51
90.000000000000028
  0
ARC
  5
BD
  8
52
 10
-45.288635204155639
 20
45.653116551013682
 30
0.0
 40
4.5000000000001128
 50
180.0
 51
270.0
  0
ARC
  5
BE
  8
52
 10
-36.638635204155662
 20
28.003116551013591
 30
0.0
 40
1.98300000000006
 50
180.0
 51
270.0
  0
ARC
  5
BF
  8
52
 10
-43.138635204155719
 20
39.153116551013682
 30
0.0
 40
4.5169999999999391
 50
0.0000000000002672
 51
90.000000000000028
  0
ARC
  5
C0
  8
52
 10
-45.288635204155639
 20
45.653116551013682
 30
0.0
 40
1.98300000000006
 50
180.0
 51
270.0
  0
ARC
  5
C1
  8
51
 10
-36.638635204155662
 20
28.003116551013591
 30
0.0
 40
1.000000000000056
 50
180.0
 51
270.0
  0
ARC
  5
C2
  8
51
 10
-43.138635204155719
 20
39.153116551013682
 30
0.0
 40
5.4999999999999432
 50
0.0000000000002672
 51
90.000000000000028
  0
ARC
  5
C3
  8
51
 10
-45.288635204155639
 20
45.653116551013682
 30
0.0
 40
1.000000000000056
 50
180.0
 51
270.0
  0
ARC
  5
C4
  8
52
 10
-43.138635204155719
 20
39.153116551013682
 30
0.0
 40
1.0
 50
0.0000000000002672
 51
90.000000000000028
  0
LINE
  5
C5
  8
52
 10
-43.138635204155662
 20
40.153116551013682
 30
0.0
 11
-45.288635204155639
 21
40.153116551013682
 31
0.0
  0
ARC
  5
C6
  8
52
 10
-45.288635204155639
 20
45.653116551013682
 30
0.0
 40
5.5
 50
230.36228560932631
 51
270.0
  0
ARC
  5
C7
  8
52
 10
-48.988635204155628
 20
41.186574264189289
 30
0.0
 40
0.3
 50
50.362285609326818
 51
180.0
  0
ARC
  5
C8
  8
52
 10
107.41136479584441
 20
41.186574264189289
 30
0.0
 40
0.3
 50
0.0
 51
129.63771439067321
  0
ARC
  5
C9
  8
52
 10
103.7113647958444
 20
45.653116551013682
 30
0.0
 40
5.5
 50
270.0
 51
309.63771439067369
  0
LINE
  5
CA
  8
52
 10
101.5613647958444
 20
40.153116551013682
 30
0.0
 11
103.7113647958444
 21
40.153116551013682
 31
0.0
  0
ARC
  5
CB
  8
52
 10
101.5613647958444
 20
39.153116551013682
 30
0.0
 40
1.0
 50
90.0
 51
179.99999999999969
  0
ARC
  5
CC
  8
51
 10
103.7113647958444
 20
45.653116551013682
 30
0.0
 40
1.000000000000056
 50
270.0
 51
0.0
  0
ARC
  5
CD
  8
51
 10
101.5613647958444
 20
39.153116551013682
 30
0.0
 40
5.4999999999999432
 50
90.0
 51
179.99999999999969
  0
ARC
  5
CE
  8
51
 10
95.06136479584444
 20
28.003116551013591
 30
0.0
 40
1.000000000000056
 50
270.0
 51
0.0
  0
ARC
  5
CF
  8
52
 10
103.7113647958444
 20
45.653116551013682
 30
0.0
 40
1.98300000000006
 50
270.0
 51
0.0
  0
ARC
  5
D0
  8
52
 10
101.5613647958444
 20
39.153116551013682
 30
0.0
 40
4.5169999999999391
 50
90.0
 51
179.99999999999969
  0
ARC
  5
D1
  8
52
 10
95.06136479584444
 20
28.003116551013591
 30
0.0
 40
1.98300000000006
 50
270.0
 51
0.0
  0
ARC
  5
D2
  8
52
 10
103.7113647958444
 20
45.653116551013682
 30
0.0
 40
4.5000000000001128
 50
270.0
 51
0.0
  0
ARC
  5
D3
  8
52
 10
101.5613647958444
 20
39.153116551013682
 30
0.0
 40
1.9999999999998861
 50
90.0
 51
179.99999999999969
  0
ARC
  5
D4
  8
52
 10
95.06136479584444
 20
28.003116551013591
 30
0.0
 40
4.5000000000001128
 50
270.0
 51
0.0
  0
LINE
  5
D5
  8
51
 10
96.061364795844483
 20
28.003116551013591
 30
0.0
 11
96.061364795844483
 21
39.153116551013682
 31
0.0
  0
LINE
  5
D6
  8
52
 10
97.044364795844515
 20
28.003116551013591
 30
0.0
 11
97.044364795844515
 21
39.153116551013682
 31
0.0
  0
LINE
  5
D7
  8
52
 10
99.561364795844554
 20
28.003116551013591
 30
0.0
 11
99.561364795844554
 21
39.153116551013682
 31
0.0
  0
ARC
  5
D8
  8
51
 10
103.2113647958444
 20
28.503116551013591
 30
0.0
 40
6.0
 50
270.0
 51
0.0
  0
LINE
  5
D9
  8
52
 10
101.5613647958444
 20
41.153116551013667
 30
0.0
 11
103.7113647958444
 21
41.153116551013667
 31
0.0
  0
LINE
  5
DA
  8
52
 10
101.5613647958444
 20
43.670116551013621
 30
0.0
 11
103.7113647958444
 21
43.670116551013621
 31
0.0
  0
LINE
  5
DB
  8
51
 10
101.5613647958444
 20
44.653116551013682
 30
0.0
 11
103.7113647958444
 21
44.653116551013682
 31
0.0
  0
ARC
  5
E1
  8
52
 10
103.2113647958444
 20
28.503116551013591
 30
0.0
 40
5.5
 50
43.602818972699318
 51
113.9019319259618
  0
ARC
  5
E2
  8
52
 10
107.41136479584441
 20
32.503116551013022
 30
0.0
 40
0.3
 50
223.60281897269971
 51
0.0
  0
ARC
  5
E3
  8
52
 10
100.86136479584439
 20
33.805710255984081
 30
0.0
 40
0.3
 50
180.0
 51
293.90193192596229
  0
ARC
  5
E4
  8
52
 10
100.86136479584439
 20
91.200522846043114
 30
0.0
 40
0.3
 50
66.098068074037698
 51
180.0
  0
CIRCLE
  5
F2
  8
62
 10
198.63222338632181
 20
96.503116551013534
 30
0.0
 40
4.0
  0
LINE
  5
F4
  8
61
 10
352.63222338632158
 20
96.503116551013534
 30
0.0
 11
352.6322233863217
 21
28.503116551013591
 31
0.0
  0
LINE
  5
F5
  8
61
 10
192.63222338632181
 20
96.503116551013534
 30
0.0
 11
192.63222338632181
 21
28.503116551013591
 31
0.0
  0
LINE
  5
F6
  8
61
 10
198.63222338632181
 20
22.503116551013591
 30
0.0
 11
346.6322233863217
 21
22.503116551013591
 31
0.0
  0
LINE
  5
F7
  8
61
 10
198.63222338632181
 20
102.50311655101351
 30
0.0
 11
346.63222338632158
 21
102.50311655101351
 31
0.0
  0
ARC
  5
F8
  8
61
 10
346.6322233863217
 20
28.503116551013591
 30
0.0
 40
6.0
 50
270.0
 51
0.0
  0
ARC
  5
F9
  8
61
 10
346.6322233863217
 20
96.503116551013534
 30
0.0
 40
6.0
 50
0.0000000000000254
 51
90.0
  0
ARC
  5
FA
  8
61
 10
198.63222338632181
 20
96.503116551013534
 30
0.0
 40
6.0
 50
90.0
 51
180.0
  0
ARC
  5
FB
  8
61
 10
198.63222338632181
 20
28.503116551013591
 30
0.0
 40
6.0
 50
180.0
 51
270.0
  0
ARC
  5
FC
  8
52
 10
107.41136479584441
 20
92.503116551014159
 30
0.0
 40
0.3
 50
0.0
 51
136.39718102730021
  0
LINE
  5
FD
  8
52
 10
100.5613647958444
 20
97.003116551013591
 30
0.0
 11
100.5613647958444
 21
85.853116551013485
 31
0.0
  0
ARC
  5
FE
  8
52
 10
103.2113647958444
 20
96.503116551013605
 30
0.0
 40
5.5
 50
246.0980680740382
 51
316.39718102730058
  0
LINE
  5
FF
  8
52
 10
107.7113647958444
 20
96.503116551013605
 30
0.0
 11
107.7113647958444
 21
83.819658837837906
 31
0.0
  0
LINE
  5
105
  8
51
 10
-36.638635204155662
 20
27.003116551013822
 30
0.0
 11
95.06136479584444
 21
27.003116551013591
 31
0.0
  0
LINE
  5
106
  8
52
 10
-36.638635204155662
 20
26.02011655101364
 30
0.0
 11
95.06136479584444
 21
26.02011655101364
 31
0.0
  0
LINE
  5
107
  8
52
 10
-36.638635204155662
 20
23.50311655101358
 30
0.0
 11
95.06136479584444
 21
23.50311655101358
 31
0.0
  0
LINE
  5
108
  8
52
 10
-36.638635204155662
 20
101.5031165510137
 30
0.0
 11
95.06136479584444
 21
101.50311655101351
 31
0.0
  0
LINE
  5
109
  8
52
 10
-36.638635204155662
 20
98.986116551013652
 30
0.0
 11
95.06136479584444
 21
98.986116551013552
 31
0.0
  0
LINE
  5
10A
  8
51
 10
-36.638635204155662
 20
98.003116551013605
 30
0.0
 11
95.06136479584444
 21
98.003116551013605
 31
0.0
  0
LINE
  5
10B
  8
51
 10
101.5613647958444
 20
80.353116551013514
 30
0.0
 11
103.7113647958444
 21
80.353116551013514
 31
0.0
  0
LINE
  5
10C
  8
51
 10
-46.288635204155412
 20
79.3531165510135
 30
0.0
 11
-46.288635204155412
 21
45.653116551013682
 31
0.0
  0
LINE
  5
10D
  8
51
 10
104.7113647958444
 20
79.3531165510135
 30
0.0
 11
104.7113647958444
 21
45.653116551013682
 31
0.0
  0
LINE
  5
10E
  8
21
 10
349.13222338632181
 20
136.71551399448111
 30
0.0
 11
352.63222338632181
 21
136.71551399448111
 31
0.0
  0
LINE
  5
10F
  8
21
 10
193.76312640318309
 20
151.71551399448111
 30
0.0
 11
351.50132036946042
 21
151.71551399448111
 31
0.0
  0
LINE
  5
110
  8
21
 10
352.6322233863217
 20
136.71551399448111
 30
0.0
 11
352.5100469049587
 21
150.71555207141691
 31
0.0
  0
LINE
  5
111
  8
21
 10
272.6322233863217
 20
133.71551399448111
 30
0.0
 11
348.62236455984112
 21
133.71551399448111
 31
0.0
  0
LINE
  5
112
  8
21
 10
349.12232782890482
 20
134.20945350051551
 30
0.0
 11
349.15270598954362
 21
136.715513994481
 31
0.0
  0
LINE
  5
114
  8
52
 10
-47.271635204155473
 20
79.3531165510135
 30
0.0
 11
-47.271635204155409
 21
45.653116551013682
 31
0.0
  0
LINE
  5
115
  8
52
 10
101.5613647958444
 20
81.336116551013561
 30
0.0
 11
103.7113647958444
 21
81.336116551013561
 31
0.0
  0
LINE
  5
116
  8
52
 10
105.69436479584439
 20
79.3531165510135
 30
0.0
 11
105.69436479584439
 21
45.653116551013682
 31
0.0
  0
LINE
  5
117
  8
52
 10
-49.788635204155518
 20
79.3531165510135
 30
0.0
 11
-49.788635204155518
 21
45.653116551013682
 31
0.0
  0
LINE
  5
118
  8
52
 10
101.5613647958444
 20
83.8531165510135
 30
0.0
 11
103.7113647958444
 21
83.8531165510135
 31
0.0
  0
LINE
  5
119
  8
52
 10
108.2113647958444
 20
79.3531165510135
 30
0.0
 11
108.2113647958444
 21
45.653116551013682
 31
0.0
  0
ARC
  5
11A
  8
51
 10
103.2113647958444
 20
96.503116551013605
 30
0.0
 40
6.0
 50
0.0000000000000254
 51
90.0
  0
LINE
  5
11B
  8
51
 10
-44.788635204155462
 20
102.50311655101351
 30
0.0
 11
103.2113647958444
 21
102.50311655101351
 31
0.0
  0
LINE
  5
11C
  8
51
 10
-44.788635204155462
 20
22.503116551013591
 30
0.0
 11
103.2113647958444
 21
22.503116551013591
 31
0.0
  0
LINE
  5
11D
  8
51
 10
-50.788635204155469
 20
96.503116551013605
 30
0.0
 11
-50.788635204155469
 21
28.503116551013591
 31
0.0
  0
LINE
  5
11E
  8
51
 10
109.2113647958444
 20
96.503116551013605
 30
0.0
 11
109.2113647958444
 21
28.503116551013591
 31
0.0
  0
LINE
  5
11F
  8
21
 10
192.63222338632181
 20
136.71551399448111
 30
0.0
 11
192.7543998676847
 21
150.71555207141691
 31
0.0
  0
LINE
  5
120
  8
52
 10
99.561364795844554
 20
97.003116551013591
 30
0.0
 11
99.561364795844554
 21
85.853116551013485
 31
0.0
  0
LINE
  5
121
  8
52
 10
97.044364795844515
 20
97.003116551013591
 30
0.0
 11
97.044364795844515
 21
85.853116551013485
 31
0.0
  0
LINE
  5
122
  8
51
 10
96.061364795844483
 20
97.003116551013591
 30
0.0
 11
96.061364795844483
 21
85.853116551013485
 31
0.0
  0
ARC
  5
123
  8
52
 10
95.06136479584444
 20
97.003116551013591
 30
0.0
 40
4.5000000000001128
 50
0.0
 51
89.999999999999986
  0
ARC
  5
124
  8
52
 10
101.5613647958444
 20
85.853116551013485
 30
0.0
 40
1.9999999999998861
 50
180.00000000000031
 51
270.0
  0
ARC
  5
125
  8
52
 10
103.7113647958444
 20
79.3531165510135
 30
0.0
 40
4.5000000000001128
 50
0.0
 51
90.0
  0
ARC
  5
126
  8
52
 10
95.06136479584444
 20
97.003116551013591
 30
0.0
 40
1.98300000000006
 50
0.0
 51
89.999999999999986
  0
ARC
  5
127
  8
52
 10
101.5613647958444
 20
85.853116551013485
 30
0.0
 40
4.5169999999999391
 50
180.00000000000031
 51
270.0
  0
ARC
  5
128
  8
52
 10
103.7113647958444
 20
79.3531165510135
 30
0.0
 40
1.98300000000006
 50
0.0
 51
90.0
  0
ARC
  5
129
  8
51
 10
95.06136479584444
 20
97.003116551013591
 30
0.0
 40
1.000000000000056
 50
0.0
 51
89.999999999999986
  0
ARC
  5
12A
  8
51
 10
101.5613647958444
 20
85.853116551013485
 30
0.0
 40
5.4999999999999432
 50
180.00000000000031
 51
270.0
  0
ARC
  5
12B
  8
51
 10
103.7113647958444
 20
79.3531165510135
 30
0.0
 40
1.000000000000056
 50
0.0
 51
90.0
  0
ARC
  5
12C
  8
52
 10
101.5613647958444
 20
85.853116551013485
 30
0.0
 40
1.0
 50
180.00000000000031
 51
270.0
  0
LINE
  5
12D
  8
52
 10
101.5613647958444
 20
84.8531165510135
 30
0.0
 11
103.7113647958444
 21
84.8531165510135
 31
0.0
  0
ARC
  5
12E
  8
52
 10
103.7113647958444
 20
79.3531165510135
 30
0.0
 40
5.5
 50
50.362285609326307
 51
90.0
  0
ARC
  5
12F
  8
52
 10
107.41136479584441
 20
83.819658837837906
 30
0.0
 40
0.3
 50
230.36228560932679
 51
0.0
  0
LINE
  5
130
  8
23
 10
272.6322233863217
 20
164.17787958587999
 30
0.0
 11
272.6322233863217
 21
132.242395714911
 31
0.0
  0
LINE
  5
131
  8
63
 10
189.42776105203581
 20
62.503116551013591
 30
0.0
 11
356.7458045262191
 21
62.503116551013591
 31
0.0
  0
LINE
  5
132
  8
63
 10
272.6322233863217
 20
105.2958356252102
 30
0.0
 11
272.6322233863217
 21
19.94099691552935
 31
0.0
  0
ARC
  5
133
  8
52
 10
103.2113647958444
 20
96.503116551013605
 30
0.0
 40
4.5
 50
0.0000000000000254
 51
90.0
  0
ARC
  5
134
  8
52
 10
95.06136479584444
 20
97.003116551013591
 30
0.0
 40
5.5000000000001128
 50
0.0
 51
39.637714390654338
  0
LINE
  5
135
  8
52
 10
103.2113647958444
 20
101.00311655101351
 30
0.0
 11
99.527907082671845
 21
101.00311655101351
 31
0.0
  0
ARC
  5
136
  8
52
 10
99.527907082671845
 20
100.70311655101359
 30
0.0
 40
0.3
 50
90.0
 51
219.63771439065559
  0
ARC
  5
137
  8
52
 10
103.2113647958444
 20
28.503116551013591
 30
0.0
 40
4.5
 50
270.0
 51
0.0
  0
LINE
  5
138
  8
52
 10
103.2113647958444
 20
24.003116551013591
 30
0.0
 11
99.527907082671845
 21
24.003116551013591
 31
0.0
  0
ARC
  5
139
  8
52
 10
99.527907082671845
 20
24.303116551013598
 30
0.0
 40
0.3
 50
140.3622856093443
 51
270.0
  0
ARC
  5
13A
  8
52
 10
95.06136479584444
 20
28.003116551013591
 30
0.0
 40
5.5000000000001128
 50
320.36228560934558
 51
0.0
  0
LINE
  5
13B
  8
52
 10
107.7113647958444
 20
28.503116551013591
 30
0.0
 11
107.7113647958444
 21
41.186574264189289
 31
0.0
  0
LINE
  5
13C
  8
52
 10
100.5613647958444
 20
28.003116551013591
 30
0.0
 11
100.5613647958444
 21
39.153116551013682
 31
0.0
  0
ARC
  5
13D
  8
52
 10
-44.788635204155668
 20
96.503116551013605
 30
0.0
 40
4.5
 50
90.000000000000028
 51
180.0
  0
LINE
  5
13E
  8
52
 10
-44.788635204155668
 20
101.00311655101351
 30
0.0
 11
-41.105177490983088
 21
101.00311655101351
 31
0.0
  0
ARC
  5
13F
  8
52
 10
-41.105177490983088
 20
100.70311655101359
 30
0.0
 40
0.3
 50
320.36228560934433
 51
90.000000000000028
  0
ARC
  5
140
  8
52
 10
-36.63863520415569
 20
97.003116551013591
 30
0.0
 40
5.5000000000001128
 50
140.36228560934561
 51
180.0
  0
LINE
  5
141
  8
52
 10
-49.288635204155668
 20
96.503116551013605
 30
0.0
 11
-49.288635204155668
 21
83.819658837837906
 31
0.0
  0
LINE
  5
142
  8
52
 10
-42.13863520415569
 20
97.003116551013591
 30
0.0
 11
-42.13863520415569
 21
85.853116551013485
 31
0.0
  0
LINE
  5
143
  8
52
 10
-42.13863520415569
 20
28.003116551013591
 30
0.0
 11
-42.13863520415569
 21
39.153116551013682
 31
0.0
  0
LINE
  5
144
  8
52
 10
-49.288635204155668
 20
28.503116551013591
 30
0.0
 11
-49.288635204155668
 21
41.186574264189289
 31
0.0
  0
ARC
  5
145
  8
52
 10
-44.788635204155668
 20
28.503116551013591
 30
0.0
 40
4.5
 50
180.0
 51
270.0
  0
LINE
  5
146
  8
52
 10
-44.788635204155668
 20
24.003116551013591
 30
0.0
 11
-41.105177490983088
 21
24.003116551013591
 31
0.0
  0
ARC
  5
147
  8
52
 10
-36.63863520415569
 20
28.003116551013591
 30
0.0
 40
5.5000000000001128
 50
180.0
 51
219.63771439065431
  0
ARC
  5
148
  8
52
 10
-41.105177490983088
 20
24.303116551013598
 30
0.0
 40
0.3
 50
270.0
 51
39.637714390655667
  0
ARC
  5
16A
  8
21
 10
348.62236455984112
 20
134.21551399448111
 30
0.0
 40
0.5
 50
270.0
 51
359.30550154154508
  0
LINE
  5
16B
  8
21
 10
349.15270598954362
 20
136.715513994481
 30
0.0
 11
272.63222338632181
 21
136.715513994481
 31
0.0
  0
LINE
  5
16C
  8
21
 10
352.5100469049587
 20
150.71555207141691
 30
0.0
 11
272.6322233863217
 21
150.71555207141691
 31
0.0
  0
LINE
  5
16D
  8
21
 10
192.7543998676847
 20
150.71555207141691
 30
0.0
 11
272.63222338632181
 21
150.71555207141691
 31
0.0
  0
LINE
  5
16E
  8
21
 10
196.11174078309989
 20
136.715513994481
 30
0.0
 11
272.6322233863217
 21
136.715513994481
 31
0.0
  0
ARC
  5
16F
  8
21
 10
196.64208221280239
 20
134.21551399448111
 30
0.0
 40
0.5
 50
180.6944984584548
 51
270.0
  0
LINE
  5
170
  8
21
 10
196.14211894373869
 20
134.20945350051551
 30
0.0
 11
196.11174078309989
 21
136.715513994481
 31
0.0
  0
LINE
  5
171
  8
21
 10
272.63222338632181
 20
133.71551399448111
 30
0.0
 11
196.64208221280239
 21
133.71551399448111
 31
0.0
  0
LINE
  5
172
  8
21
 10
196.1322233863217
 20
136.71551399448111
 30
0.0
 11
192.6322233863217
 21
136.71551399448111
 31
0.0
  0
LINE
  5
187
  8
23
  6
DASHED
 10
205.78481860006249
 20
136.01289603383171
 30
0.0
 11
205.88702195513201
 21
147.72424052997931
 31
0.0
  0
LINE
  5
188
  8
23
  6
DASHED
 10
198.23438866445551
 20
148.71551399448111
 30
0.0
 11
347.03005810818792
 21
148.71551399448111
 31
0.0
  0
LINE
  5
18A
  8
23
  6
DASHED
 10
339.4796281725811
 20
136.01289603383171
 30
0.0
 11
339.3774248175115
 21
147.7242405299794
 31
0.0
  0
LINE
  5
1A8
  8
43
  6
DASHED
 10
167.95687263886111
 20
43.655711746789457
 30
0.0
 11
154.2462470290738
 21
43.765476919196168
 31
0.0
  0
LINE
  5
1AA
  8
43
  6
DASHED
 10
167.95687263886111
 20
81.350521355237845
 30
0.0
 11
154.2462470290738
 21
81.240756182831134
 31
0.0
  0
LINE
  5
1AB
  8
43
  6
DASHED
 10
153.2542526196338
 20
96.893383423860442
 30
0.0
 11
153.25425261963389
 21
28.112849678166729
 31
0.0
  0
LINE
  5
1AD
  8
41
 10
165.25425261963389
 20
99.003116551013605
 30
0.0
 11
165.25425261963389
 21
102.50311655101351
 31
0.0
  0
LINE
  5
1AE
  8
41
 10
168.25425261963389
 20
62.503116551013477
 30
0.0
 11
168.25425261963389
 21
98.493257724532896
 31
0.0
  0
LINE
  5
1AF
  8
41
 10
167.76031311359949
 20
98.993220993596651
 30
0.0
 11
165.254252619634
 21
99.023599154235399
 31
0.0
  0
ARC
  5
1B0
  8
41
 10
167.75425261963389
 20
98.493257724532896
 30
0.0
 40
0.5
 50
0.0
 51
89.305501541545155
  0
LINE
  5
1B1
  8
41
 10
165.254252619634
 20
99.023599154235399
 30
0.0
 11
165.254252619634
 21
62.503116551013591
 31
0.0
  0
LINE
  5
1B2
  8
41
 10
151.25421454269809
 20
102.38094006965051
 30
0.0
 11
151.25421454269809
 21
62.503116551013477
 31
0.0
  0
LINE
  5
1B3
  8
41
 10
151.25421454269809
 20
22.625293032376621
 30
0.0
 11
151.25421454269809
 21
62.503116551013591
 31
0.0
  0
LINE
  5
1B4
  8
41
 10
165.254252619634
 20
25.982633947791658
 30
0.0
 11
165.254252619634
 21
62.503116551013477
 31
0.0
  0
ARC
  5
1B5
  8
41
 10
167.75425261963389
 20
26.512975377494168
 30
0.0
 40
0.5
 50
270.6944984584548
 51
0.0
  0
LINE
  5
1B6
  8
43
 10
137.79188702823501
 20
62.503116551013591
 30
0.0
 11
169.727370899204
 21
62.503116551013591
 31
0.0
  0
LINE
  5
1B7
  8
41
 10
165.25425261963389
 20
102.50311655101351
 30
0.0
 11
151.25421454269809
 21
102.38094006965051
 31
0.0
  0
LINE
  5
1B8
  8
41
 10
167.76031311359949
 20
26.013012108430409
 30
0.0
 11
165.254252619634
 21
25.982633947791658
 31
0.0
  0
LINE
  5
1B9
  8
41
 10
168.25425261963389
 20
62.503116551013591
 30
0.0
 11
168.25425261963389
 21
26.512975377494168
 31
0.0
  0
LINE
  5
1BA
  8
41
 10
165.25425261963389
 20
22.503116551013701
 30
0.0
 11
151.25421454269809
 21
22.625293032376621
 31
0.0
  0
LINE
  5
1BB
  8
41
 10
150.25425261963389
 20
101.3722135341521
 30
0.0
 11
150.25425261963389
 21
23.634019567874851
 31
0.0
  0
LINE
  5
1BC
  8
41
 10
165.25425261963389
 20
26.00311655101347
 30
0.0
 11
165.25425261963389
 21
22.50311655101347
 31
0.0
  0
LINE
  5
1BD
  8
41
 10
151.25421454269809
 20
22.625293032376621
 30
0.0
 11
150.25425261963389
 21
23.634019567874851
 31
0.0
  0
LINE
  5
1BE
  8
41
 10
151.25421454269809
 20
102.38094006965051
 30
0.0
 11
150.25425261963389
 21
101.3722135341521
 31
0.0
  0
TEXT
  5
1BF
  8
L20
 10
-33.416128083643173
 20
157.93919988266799
 30
0.0
 40
7.7268720527575852
  1
FIBOX EURONORM II 
  7
ISO
  0
LINE
  5
1C1
  8
53
 10
29.211364795844471
 20
105.50311655101351
 30
0.0
 11
29.21136479584446
 21
19.503116551013591
 31
0.0
  0
LINE
  5
1C2
  8
53
 10
112.2113647958444
 20
62.503116551013591
 30
0.0
 11
-53.788635204155469
 21
62.503116551013598
 31
0.0
  0
TEXT
  5
1C5
  8
L20
 10
-33.416128083643173
 20
141.68978155910591
 30
0.0
 40
7.7268720527575852
  1
80x160x15 COVER
  7
ISO
  0
LINE
  5
1C6
  8
43
  6
DASHED
 10
167.95687263886111
 20
98.003116551013605
 30
0.0
 11
154.2462470290738
 21
97.893351378606894
 31
0.0
  0
LINE
  5
1C8
  8
43
  6
DASHED
 10
167.95687263886111
 20
27.003116551013591
 30
0.0
 11
154.2462470290738
 21
27.112881723420291
 31
0.0
  0
ARC
  5
27D
  8
0
  6
CONTINUOUS
 62
     7
 10
198.63222338632181
 20
96.503116551013633
 30
0.0
 40
4.0974499545946284
 50
259.15976885781407
 51
40.840231142185338
  0
ARC
  5
27E
  8
0
  6
CONTINUOUS
 62
     7
 10
198.63222338632181
 20
96.503116551013534
 30
0.0
 40
4.16945596273235
 50
226.25381741382711
 51
253.7461825861734
  0
LINE
  5
27F
  8
0
  6
CONTINUOUS
 62
     7
 10
199.08219763517019
 20
94.843582886652044
 30
0.0
 11
197.80898436444849
 21
92.638312812891002
 31
0.0
  0
ARC
  5
280
  8
0
  6
CONTINUOUS
 62
     7
 10
198.63222338632181
 20
96.503116551013534
 30
0.0
 40
2.9500000000000042
 50
265.07022794934142
 51
34.929772050657348
  0
ARC
  5
281
  8
0
  6
CONTINUOUS
 62
     7
 10
197.54918810284889
 20
92.788303447471861
 30
0.0
 40
0.2999854796546085
 50
253.74571829138739
 51
330.00046429427169
  0
ARC
  5
282
  8
0
  6
CONTINUOUS
 62
     7
 10
195.95661851009251
 20
93.707773930564485
 30
0.0
 40
0.2999854796664052
 50
149.99953570610339
 51
226.2542817073992
  0
ARC
  5
283
  8
0
  6
CONTINUOUS
 62
     7
 10
198.63222338632181
 20
96.503116551013534
 30
0.0
 40
2.9500000000000171
 50
85.070227949341415
 51
214.92977205065731
  0
ARC
  5
284
  8
0
  6
CONTINUOUS
 62
     7
 10
198.63222338632181
 20
96.503116551013477
 30
0.0
 40
4.0974499545946284
 50
79.159768857814171
 51
220.8402311421853
  0
ARC
  5
285
  8
0
  6
CONTINUOUS
 62
     7
 10
198.63222338632181
 20
96.503116551013534
 30
0.0
 40
1.719455962732344
 50
181.28385651974941
 51
194.8292966104261
  0
LINE
  5
286
  8
0
  6
CONTINUOUS
 62
     7
 10
196.9131990724583
 20
96.46459102542056
 30
0.0
 11
197.8060753132477
 21
98.011098039338862
 31
0.0
  0
LINE
  5
287
  8
0
  6
CONTINUOUS
 62
     7
 10
195.69682467940319
 20
93.857768775623356
 30
0.0
 11
196.97003795012489
 21
96.063038849384384
 31
0.0
  0
ARC
  5
288
  8
0
  6
CONTINUOUS
 62
     7
 10
201.30782826253281
 20
99.298459171461673
 30
0.0
 40
0.29998547967963
 50
329.99953570866489
 51
46.25428170501047
  0
ARC
  5
289
  8
0
  6
CONTINUOUS
 62
     7
 10
198.63222338632181
 20
96.503116551013534
 30
0.0
 40
1.7194559627323469
 50
1.283856519775455
 51
14.829296610424979
  0
LINE
  5
28A
  8
0
  6
CONTINUOUS
 62
     7
 10
198.18224913747329
 20
98.162650215375024
 30
0.0
 11
199.45546240819499
 21
100.36792028913599
 31
0.0
  0
ARC
  5
28B
  8
0
  6
CONTINUOUS
 62
     7
 10
199.71525866980011
 20
100.2179296545394
 30
0.0
 40
0.2999854796682246
 50
73.745718293229444
 51
150.0004642918494
  0
ARC
  5
28C
  8
0
  6
CONTINUOUS
 62
     7
 10
198.63222338632181
 20
96.503116551013534
 30
0.0
 40
1.719455962732352
 50
105.17070338957519
 51
118.71614348025599
  0
ARC
  5
28D
  8
0
  6
CONTINUOUS
 62
     7
 10
198.63222338632181
 20
96.503116551013534
 30
0.0
 40
1.719455962732354
 50
285.17070338957518
 51
298.71614348025957
  0
LINE
  5
28E
  8
0
  6
CONTINUOUS
 62
     7
 10
200.3512477001851
 20
96.541642076606536
 30
0.0
 11
199.45837145939581
 21
94.995135062688206
 31
0.0
  0
LINE
  5
28F
  8
0
  6
CONTINUOUS
 62
     7
 10
201.56762209324029
 20
99.148464326403726
 30
0.0
 11
200.29440882251851
 21
96.943194252642684
 31
0.0
  0
ARC
  5
290
  8
0
  6
CONTINUOUS
 62
     7
 10
198.63222338632181
 20
96.503116551013534
 30
0.0
 40
4.16945596273235
 50
46.253817413827157
 51
73.746182586173475
  0
ARC
  5
291
  8
0
  6
CONTINUOUS
 62
     7
 10
346.63222338632158
 20
96.503116551013633
 30
0.0
 40
4.0974499545946284
 50
139.15976885781461
 51
280.84023114218581
  0
ARC
  5
292
  8
0
  6
CONTINUOUS
 62
     7
 10
346.6322233863217
 20
96.503116551013477
 30
0.0
 40
4.0974499545946284
 50
319.1597688578147
 51
100.8402311421858
  0
LINE
  5
293
  8
0
  6
CONTINUOUS
 62
     7
 10
347.08219763517019
 20
98.162650215375024
 30
0.0
 11
345.80898436444841
 21
100.36792028913599
 31
0.0
  0
ARC
  5
294
  8
0
  6
CONTINUOUS
 62
     7
 10
346.6322233863217
 20
96.503116551013534
 30
0.0
 40
2.9500000000000171
 50
325.07022794934261
 51
94.92977205065857
  0
ARC
  5
295
  8
0
  6
CONTINUOUS
 62
     7
 10
346.6322233863217
 20
96.503116551013534
 30
0.0
 40
2.9500000000000042
 50
145.07022794934261
 51
274.92977205065853
  0
LINE
  5
296
  8
0
  6
CONTINUOUS
 62
     7
 10
346.18224913747321
 20
94.843582886652044
 30
0.0
 11
347.45546240819499
 21
92.638312812891002
 31
0.0
  0
CIRCLE
  5
297
  8
62
 10
346.6322233863217
 20
96.503116551013534
 30
0.0
 40
4.0
  0
ARC
  5
298
  8
0
  6
CONTINUOUS
 62
     7
 10
346.6322233863217
 20
96.503116551013534
 30
0.0
 40
1.719455962732352
 50
61.283856519743964
 51
74.829296610424763
  0
LINE
  5
299
  8
0
  6
CONTINUOUS
 62
     7
 10
348.35124770018513
 20
96.46459102542056
 30
0.0
 11
347.45837145939572
 21
98.011098039338862
 31
0.0
  0
ARC
  5
29A
  8
0
  6
CONTINUOUS
 62
     7
 10
347.71525866979448
 20
92.788303447471861
 30
0.0
 40
0.2999854796546085
 50
209.99953570572831
 51
286.25428170861261
  0
ARC
  5
29B
  8
0
  6
CONTINUOUS
 62
     7
 10
346.6322233863217
 20
96.503116551013534
 30
0.0
 40
4.16945596273235
 50
286.25381741382648
 51
313.74618258617278
  0
ARC
  5
29C
  8
0
  6
CONTINUOUS
 62
     7
 10
346.6322233863217
 20
96.503116551013534
 30
0.0
 40
4.16945596273235
 50
106.2538174138265
 51
133.74618258617281
  0
LINE
  5
29D
  8
0
  6
CONTINUOUS
 62
     7
 10
343.69682467940311
 20
99.148464326403726
 30
0.0
 11
344.97003795012489
 21
96.943194252642684
 31
0.0
  0
LINE
  5
29E
  8
0
  6
CONTINUOUS
 62
     7
 10
344.91319907245833
 20
96.541642076606536
 30
0.0
 11
345.80607531324762
 21
94.995135062688206
 31
0.0
  0
ARC
  5
29F
  8
0
  6
CONTINUOUS
 62
     7
 10
346.6322233863217
 20
96.503116551013534
 30
0.0
 40
1.719455962732354
 50
241.28385651974031
 51
254.82929661042471
  0
ARC
  5
2A0
  8
0
  6
CONTINUOUS
 62
     7
 10
345.5491881028434
 20
100.2179296545394
 30
0.0
 40
0.2999854796682246
 50
29.999535708150511
 51
106.2542817067705
  0
ARC
  5
2A1
  8
0
  6
CONTINUOUS
 62
     7
 10
346.6322233863217
 20
96.503116551013534
 30
0.0
 40
1.7194559627323469
 50
165.17070338957501
 51
178.7161434802245
  0
ARC
  5
2A2
  8
0
  6
CONTINUOUS
 62
     7
 10
343.95661851011067
 20
99.298459171461673
 30
0.0
 40
0.29998547967963
 50
133.7457182949895
 51
210.00046429133499
  0
LINE
  5
2A3
  8
0
  6
CONTINUOUS
 62
     7
 10
349.56762209324017
 20
93.857768775623356
 30
0.0
 11
348.29440882251851
 21
96.063038849384384
 31
0.0
  0
ARC
  5
2A4
  8
0
  6
CONTINUOUS
 62
     7
 10
346.6322233863217
 20
96.503116551013534
 30
0.0
 40
1.719455962732344
 50
345.17070338957382
 51
358.71614348025059
  0
ARC
  5
2A5
  8
0
  6
CONTINUOUS
 62
     7
 10
349.30782826255091
 20
93.707773930564485
 30
0.0
 40
0.2999854796664052
 50
313.74571829260071
 51
30.00046429389656
  0
ARC
  5
2A6
  8
0
  6
CONTINUOUS
 62
     7
 10
198.63222338632181
 20
28.503116551013541
 30
0.0
 40
4.0974499545946284
 50
319.1597688578147
 51
100.8402311421858
  0
ARC
  5
2A7
  8
0
  6
CONTINUOUS
 62
     7
 10
198.63222338632181
 20
28.503116551013701
 30
0.0
 40
4.0974499545946284
 50
139.15976885781461
 51
280.84023114218581
  0
LINE
  5
2A8
  8
0
  6
CONTINUOUS
 62
     7
 10
198.18224913747329
 20
26.84358288665214
 30
0.0
 11
199.45546240819499
 21
24.638312812891112
 31
0.0
  0
ARC
  5
2A9
  8
0
  6
CONTINUOUS
 62
     7
 10
198.63222338632181
 20
28.50311655101364
 30
0.0
 40
2.9500000000000171
 50
145.07022794934261
 51
274.92977205065858
  0
ARC
  5
2AA
  8
0
  6
CONTINUOUS
 62
     7
 10
198.63222338632181
 20
28.50311655101364
 30
0.0
 40
2.9500000000000042
 50
325.07022794934261
 51
94.92977205065857
  0
LINE
  5
2AB
  8
0
  6
CONTINUOUS
 62
     7
 10
199.08219763517019
 20
30.162650215375152
 30
0.0
 11
197.80898436444849
 21
32.36792028913618
 31
0.0
  0
CIRCLE
  5
2AC
  8
62
 10
198.63222338632181
 20
28.50311655101364
 30
0.0
 40
4.0
  0
ARC
  5
2AD
  8
0
  6
CONTINUOUS
 62
     7
 10
198.63222338632181
 20
28.50311655101364
 30
0.0
 40
1.719455962732352
 50
241.28385651974389
 51
254.82929661042471
  0
LINE
  5
2AE
  8
0
  6
CONTINUOUS
 62
     7
 10
195.69682467940319
 20
31.148464326403818
 30
0.0
 11
196.97003795012489
 21
28.943194252642801
 31
0.0
  0
LINE
  5
2AF
  8
0
  6
CONTINUOUS
 62
     7
 10
196.9131990724583
 20
28.541642076606621
 30
0.0
 11
197.8060753132477
 21
26.99513506268832
 31
0.0
  0
ARC
  5
2B0
  8
0
  6
CONTINUOUS
 62
     7
 10
198.63222338632181
 20
28.50311655101364
 30
0.0
 40
1.719455962732344
 50
165.17070338957379
 51
178.71614348025051
  0
ARC
  5
2B1
  8
0
  6
CONTINUOUS
 62
     7
 10
195.95661851009251
 20
31.298459171462689
 30
0.0
 40
0.2999854796664052
 50
133.74571829260071
 51
210.0004642938965
  0
ARC
  5
2B2
  8
0
  6
CONTINUOUS
 62
     7
 10
197.54918810284889
 20
32.21792965455532
 30
0.0
 40
0.2999854796546085
 50
29.999535705728331
 51
106.2542817086126
  0
ARC
  5
2B3
  8
0
  6
CONTINUOUS
 62
     7
 10
198.63222338632181
 20
28.50311655101364
 30
0.0
 40
4.16945596273235
 50
106.2538174138265
 51
133.74618258617281
  0
ARC
  5
2B4
  8
0
  6
CONTINUOUS
 62
     7
 10
198.63222338632181
 20
28.50311655101364
 30
0.0
 40
4.16945596273235
 50
286.25381741382648
 51
313.74618258617278
  0
LINE
  5
2B5
  8
0
  6
CONTINUOUS
 62
     7
 10
201.56762209324029
 20
25.85776877562347
 30
0.0
 11
200.29440882251851
 21
28.06303884938449
 31
0.0
  0
LINE
  5
2B6
  8
0
  6
CONTINUOUS
 62
     7
 10
200.3512477001851
 20
28.464591025420638
 30
0.0
 11
199.45837145939581
 21
30.011098039338972
 31
0.0
  0
ARC
  5
2B7
  8
0
  6
CONTINUOUS
 62
     7
 10
198.63222338632181
 20
28.50311655101364
 30
0.0
 40
1.719455962732354
 50
61.28385651974034
 51
74.829296610424777
  0
ARC
  5
2B8
  8
0
  6
CONTINUOUS
 62
     7
 10
199.71525866980011
 20
24.788303447487749
 30
0.0
 40
0.2999854796682246
 50
209.99953570815049
 51
286.25428170677048
  0
ARC
  5
2B9
  8
0
  6
CONTINUOUS
 62
     7
 10
198.63222338632181
 20
28.50311655101364
 30
0.0
 40
1.7194559627323469
 50
345.17070338957501
 51
358.7161434802245
  0
ARC
  5
2BA
  8
0
  6
CONTINUOUS
 62
     7
 10
201.30782826253281
 20
25.707773930565502
 30
0.0
 40
0.29998547967963
 50
313.7457182949895
 51
30.000464291335071
  0
ARC
  5
2BB
  8
0
  6
CONTINUOUS
 62
     7
 10
346.63222338632158
 20
28.503116551013541
 30
0.0
 40
4.0974499545946284
 50
79.1597688578142
 51
220.8402311421853
  0
ARC
  5
2BC
  8
0
  6
CONTINUOUS
 62
     7
 10
346.6322233863217
 20
28.503116551013701
 30
0.0
 40
4.0974499545946284
 50
259.15976885781407
 51
40.840231142185338
  0
LINE
  5
2BD
  8
0
  6
CONTINUOUS
 62
     7
 10
343.69682467940311
 20
25.85776877562347
 30
0.0
 11
344.97003795012489
 21
28.06303884938449
 31
0.0
  0
CIRCLE
  5
2BE
  8
62
 10
346.6322233863217
 20
28.50311655101364
 30
0.0
 40
4.0
  0
ARC
  5
2BF
  8
0
  6
CONTINUOUS
 62
     7
 10
346.6322233863217
 20
28.50311655101364
 30
0.0
 40
2.9500000000000042
 50
85.070227949341444
 51
214.92977205065731
  0
ARC
  5
2C0
  8
0
  6
CONTINUOUS
 62
     7
 10
349.30782826255091
 20
31.298459171462689
 30
0.0
 40
0.2999854796664052
 50
329.99953570610342
 51
46.254281707399272
  0
ARC
  5
2C1
  8
0
  6
CONTINUOUS
 62
     7
 10
346.6322233863217
 20
28.50311655101364
 30
0.0
 40
1.719455962732344
 50
1.2838565197494169
 51
14.829296610426169
  0
LINE
  5
2C2
  8
0
  6
CONTINUOUS
 62
     7
 10
349.56762209324017
 20
31.148464326403818
 30
0.0
 11
348.29440882251851
 21
28.943194252642801
 31
0.0
  0
ARC
  5
2C3
  8
0
  6
CONTINUOUS
 62
     7
 10
346.6322233863217
 20
28.50311655101364
 30
0.0
 40
1.7194559627323469
 50
181.28385651977541
 51
194.8292966104249
  0
ARC
  5
2C4
  8
0
  6
CONTINUOUS
 62
     7
 10
346.6322233863217
 20
28.50311655101364
 30
0.0
 40
1.719455962732354
 50
105.17070338957519
 51
118.7161434802596
  0
LINE
  5
2C5
  8
0
  6
CONTINUOUS
 62
     7
 10
344.91319907245833
 20
28.464591025420638
 30
0.0
 11
345.80607531324762
 21
30.011098039338972
 31
0.0
  0
ARC
  5
2C6
  8
0
  6
CONTINUOUS
 62
     7
 10
346.6322233863217
 20
28.50311655101364
 30
0.0
 40
4.16945596273235
 50
46.25381741382715
 51
73.746182586173504
  0
ARC
  5
2C7
  8
0
  6
CONTINUOUS
 62
     7
 10
347.71525866979448
 20
32.21792965455532
 30
0.0
 40
0.2999854796546085
 50
73.745718291387433
 51
150.00046429427161
  0
LINE
  5
2C8
  8
0
  6
CONTINUOUS
 62
     7
 10
348.35124770018513
 20
28.541642076606621
 30
0.0
 11
347.45837145939572
 21
26.99513506268832
 31
0.0
  0
ARC
  5
2C9
  8
0
  6
CONTINUOUS
 62
     7
 10
346.6322233863217
 20
28.50311655101364
 30
0.0
 40
1.719455962732352
 50
285.17070338957518
 51
298.71614348025599
  0
LINE
  5
2CA
  8
0
  6
CONTINUOUS
 62
     7
 10
346.18224913747321
 20
30.162650215375152
 30
0.0
 11
347.45546240819499
 21
32.36792028913618
 31
0.0
  0
ARC
  5
2CB
  8
0
  6
CONTINUOUS
 62
     7
 10
346.6322233863217
 20
28.50311655101364
 30
0.0
 40
2.9500000000000171
 50
265.07022794934142
 51
34.92977205065737
  0
LINE
  5
2CC
  8
0
  6
CONTINUOUS
 62
     7
 10
347.08219763517019
 20
26.84358288665214
 30
0.0
 11
345.80898436444841
 21
24.638312812891112
 31
0.0
  0
ARC
  5
2CD
  8
0
  6
CONTINUOUS
 62
     7
 10
346.6322233863217
 20
28.50311655101364
 30
0.0
 40
4.16945596273235
 50
226.25381741382711
 51
253.7461825861734
  0
ARC
  5
2CE
  8
0
  6
CONTINUOUS
 62
     7
 10
343.95661851011067
 20
25.707773930565502
 30
0.0
 40
0.29998547967963
 50
149.99953570866489
 51
226.25428170501041
  0
ARC
  5
2CF
  8
0
  6
CONTINUOUS
 62
     7
 10
345.5491881028434
 20
24.788303447487749
 30
0.0
 40
0.2999854796682246
 50
253.7457182932294
 51
330.00046429184943
  0
ARC
  5
2D0
  8
43
  6
DASHED
 10
154.2542526196338
 20
96.893383423860442
 30
0.0
 40
1.0
 50
90.458691451238337
 51
180.0
  0
ARC
  5
2D1
  8
43
  6
DASHED
 10
154.25425261963389
 20
28.112849678166729
 30
0.0
 40
1.0
 50
180.0
 51
269.54130854876161
  0
ARC
  5
2D2
  8
43
  6
DASHED
 10
154.2542526196338
 20
44.765444873942613
 30
0.0
 40
1.0
 50
180.0
 51
269.54130854876149
  0
ARC
  5
2D3
  8
43
  6
DASHED
 10
154.2542526196338
 20
80.24078822808471
 30
0.0
 40
1.0
 50
90.458691451238337
 51
180.0
  0
LINE
  5
2D4
  8
43
  6
DASHED
 10
392.01019415300971
 20
96.893383423860442
 30
0.0
 11
392.01019415300948
 21
28.112849678166729
 31
0.0
  0
LINE
  5
2D5
  8
41
 10
395.01019415300948
 20
101.3722135341521
 30
0.0
 11
395.01019415300948
 21
23.634019567874851
 31
0.0
  0
LINE
  5
2D6
  8
41
 10
394.0102322299453
 20
22.625293032376621
 30
0.0
 11
394.0102322299453
 21
62.503116551013591
 31
0.0
  0
LINE
  5
2D7
  8
41
 10
377.01019415300959
 20
62.503116551013591
 30
0.0
 11
377.01019415300959
 21
26.512975377494168
 31
0.0
  0
LINE
  5
2D8
  8
41
 10
380.01019415300942
 20
25.982633947791658
 30
0.0
 11
380.01019415300942
 21
62.503116551013477
 31
0.0
  0
LINE
  5
2D9
  8
43
  6
DASHED
 10
377.30757413378228
 20
27.003116551013591
 30
0.0
 11
391.0181997435696
 21
27.112881723420291
 31
0.0
  0
LINE
  5
2DA
  8
41
 10
380.01019415300948
 20
22.503116551013701
 30
0.0
 11
394.0102322299453
 21
22.625293032376621
 31
0.0
  0
ARC
  5
2DB
  8
43
  6
DASHED
 10
391.01019415300959
 20
28.112849678166729
 30
0.0
 40
1.0
 50
270.45869145123828
 51
359.99999999999989
  0
LINE
  5
2DC
  8
41
 10
394.0102322299453
 20
22.625293032376621
 30
0.0
 11
395.01019415300948
 21
23.634019567874851
 31
0.0
  0
LINE
  5
2DD
  8
41
 10
380.01019415300948
 20
26.00311655101347
 30
0.0
 11
380.01019415300948
 21
22.50311655101347
 31
0.0
  0
LINE
  5
2DE
  8
41
 10
377.50413365904387
 20
26.013012108430409
 30
0.0
 11
380.01019415300942
 21
25.982633947791658
 31
0.0
  0
ARC
  5
2DF
  8
41
 10
377.51019415300948
 20
26.512975377494168
 30
0.0
 40
0.5
 50
180.0
 51
269.30550154154508
  0
LINE
  5
2E0
  8
43
  6
DASHED
 10
377.30757413378228
 20
81.350521355237845
 30
0.0
 11
391.0181997435696
 21
81.240756182831134
 31
0.0
  0
LINE
  5
2E1
  8
43
  6
DASHED
 10
377.30757413378228
 20
43.655711746789457
 30
0.0
 11
391.0181997435696
 21
43.765476919196168
 31
0.0
  0
LINE
  5
2E2
  8
43
  6
DASHED
 10
377.30757413378228
 20
98.003116551013605
 30
0.0
 11
391.01819974356971
 21
97.893351378606894
 31
0.0
  0
LINE
  5
2E3
  8
41
 10
380.01019415300948
 20
102.50311655101351
 30
0.0
 11
394.0102322299453
 21
102.38094006965051
 31
0.0
  0
LINE
  5
2E4
  8
43
 10
407.4725597444085
 20
62.503116551013591
 30
0.0
 11
375.53707587343939
 21
62.503116551013591
 31
0.0
  0
LINE
  5
2E5
  8
41
 10
394.0102322299453
 20
102.38094006965051
 30
0.0
 11
394.0102322299453
 21
62.503116551013477
 31
0.0
  0
ARC
  5
2E6
  8
43
  6
DASHED
 10
391.01019415300959
 20
44.765444873942613
 30
0.0
 40
1.0
 50
270.45869145123828
 51
359.99999999999989
  0
ARC
  5
2E7
  8
43
  6
DASHED
 10
391.01019415300959
 20
80.24078822808471
 30
0.0
 40
1.0
 50
359.99999999999989
 51
89.541308548761677
  0
ARC
  5
2E8
  8
43
  6
DASHED
 10
391.01019415300971
 20
96.893383423860442
 30
0.0
 40
1.0
 50
359.99999999999989
 51
89.541308548761677
  0
LINE
  5
2E9
  8
41
 10
394.0102322299453
 20
102.38094006965051
 30
0.0
 11
395.01019415300948
 21
101.3722135341521
 31
0.0
  0
LINE
  5
2EA
  8
41
 10
380.01019415300942
 20
99.023599154235399
 30
0.0
 11
380.01019415300942
 21
62.503116551013591
 31
0.0
  0
LINE
  5
2EB
  8
41
 10
377.01019415300959
 20
62.503116551013477
 30
0.0
 11
377.01019415300959
 21
98.493257724532896
 31
0.0
  0
LINE
  5
2EC
  8
41
 10
380.01019415300948
 20
99.003116551013605
 30
0.0
 11
380.01019415300948
 21
102.50311655101351
 31
0.0
  0
ARC
  5
2ED
  8
41
 10
377.51019415300948
 20
98.493257724532896
 30
0.0
 40
0.5
 50
90.694498458454859
 51
180.0
  0
LINE
  5
2EE
  8
41
 10
377.50413365904387
 20
98.993220993596651
 30
0.0
 11
380.01019415300942
 21
99.023599154235399
 31
0.0
  0
ARC
  5
2EF
  8
23
  6
DASHED
 10
206.88698387819619
 20
147.715513994481
 30
0.0
 40
1.0
 50
90.000000000000057
 51
179.50000000000171
  0
ARC
  5
2F0
  8
23
  6
DASHED
 10
338.37746289444732
 20
147.71551399448111
 30
0.0
 40
1.0
 50
0.4999999999981878
 51
90.000000000000057
  0
LINE
  5
2F1
  8
23
  6
DASHED
 10
348.1322233863217
 20
136.01289603383171
 30
0.0
 11
348.03002003125209
 21
147.7242405299794
 31
0.0
  0
ARC
  5
2F2
  8
23
  6
DASHED
 10
347.03005810818792
 20
147.71551399448111
 30
0.0
 40
1.0
 50
0.4999999999981878
 51
90.000000000000057
  0
ARC
  5
2F3
  8
23
  6
DASHED
 10
198.23438866445551
 20
147.71551399448111
 30
0.0
 40
1.0
 50
89.999999999999943
 51
179.50000000000179
  0
LINE
  5
2F4
  8
23
  6
DASHED
 10
197.13222338632181
 20
136.01289603383171
 30
0.0
 11
197.2344267413913
 21
147.7242405299794
 31
0.0
  0
LINE
  5
2F5
  8
23
  6
DASHED
 10
198.23438866445551
 20
-23.709280892453929
 30
0.0
 11
347.03005810818792
 21
-23.709280892453929
 31
0.0
  0
LINE
  5
2F6
  8
21
 10
193.76312640318309
 20
-26.709280892453929
 30
0.0
 11
351.50132036946042
 21
-26.709280892453929
 31
0.0
  0
LINE
  5
2F7
  8
21
 10
192.7543998676847
 20
-25.709318969389749
 30
0.0
 11
272.63222338632181
 21
-25.709318969389749
 31
0.0
  0
LINE
  5
2F8
  8
21
 10
196.11174078309989
 20
-11.70928089245387
 30
0.0
 11
272.6322233863217
 21
-11.70928089245387
 31
0.0
  0
LINE
  5
2F9
  8
21
 10
272.63222338632181
 20
-8.7092808924539895
 30
0.0
 11
196.64208221280239
 21
-8.7092808924539895
 31
0.0
  0
LINE
  5
2FA
  8
23
  6
DASHED
 10
197.13222338632181
 20
-11.006662931804581
 30
0.0
 11
197.2344267413913
 21
-22.718007427952269
 31
0.0
  0
LINE
  5
2FB
  8
21
 10
192.63222338632181
 20
-11.709280892453929
 30
0.0
 11
192.7543998676847
 21
-25.709318969389749
 31
0.0
  0
LINE
  5
2FC
  8
23
  6
DASHED
 10
205.78481860006249
 20
-11.006662931804581
 30
0.0
 11
205.88702195513201
 21
-22.71800742795218
 31
0.0
  0
LINE
  5
2FD
  8
21
 10
196.1322233863217
 20
-11.709280892453929
 30
0.0
 11
192.6322233863217
 21
-11.709280892453929
 31
0.0
  0
ARC
  5
2FE
  8
21
 10
196.64208221280239
 20
-9.2092808924539895
 30
0.0
 40
0.5
 50
90.000000000000028
 51
179.30550154154511
  0
LINE
  5
2FF
  8
21
 10
196.14211894373869
 20
-9.2032203984883836
 30
0.0
 11
196.11174078309989
 21
-11.70928089245387
 31
0.0
  0
ARC
  5
300
  8
23
  6
DASHED
 10
206.88698387819619
 20
-22.70928089245384
 30
0.0
 40
1.0
 50
180.49999999999821
 51
269.99999999999989
  0
LINE
  5
301
  8
21
 10
192.7543998676847
 20
-25.709318969389749
 30
0.0
 11
193.76312640318309
 21
-26.709280892453929
 31
0.0
  0
ARC
  5
302
  8
23
  6
DASHED
 10
198.23438866445551
 20
-22.709280892453929
 30
0.0
 40
1.0
 50
180.4999999999981
 51
270.0
  0
LINE
  5
303
  8
21
 10
352.5100469049587
 20
-25.709318969389749
 30
0.0
 11
272.6322233863217
 21
-25.709318969389749
 31
0.0
  0
LINE
  5
304
  8
21
 10
272.6322233863217
 20
-8.7092808924539895
 30
0.0
 11
348.62236455984112
 21
-8.7092808924539895
 31
0.0
  0
LINE
  5
305
  8
21
 10
349.15270598954362
 20
-11.70928089245387
 30
0.0
 11
272.63222338632181
 21
-11.70928089245387
 31
0.0
  0
LINE
  5
306
  8
23
 10
272.6322233863217
 20
-39.171646483852889
 30
0.0
 11
272.6322233863217
 21
-7.2361626128839021
 31
0.0
  0
LINE
  5
307
  8
23
  6
DASHED
 10
339.4796281725811
 20
-11.006662931804581
 30
0.0
 11
339.3774248175115
 21
-22.718007427952269
 31
0.0
  0
LINE
  5
308
  8
23
  6
DASHED
 10
348.1322233863217
 20
-11.006662931804581
 30
0.0
 11
348.03002003125209
 21
-22.718007427952269
 31
0.0
  0
LINE
  5
309
  8
21
 10
352.6322233863217
 20
-11.709280892453929
 30
0.0
 11
352.5100469049587
 21
-25.709318969389749
 31
0.0
  0
LINE
  5
30A
  8
21
 10
349.13222338632181
 20
-11.709280892453929
 30
0.0
 11
352.63222338632181
 21
-11.709280892453929
 31
0.0
  0
ARC
  5
30B
  8
21
 10
348.62236455984112
 20
-9.2092808924539895
 30
0.0
 40
0.5
 50
0.6944984584548676
 51
90.000000000000028
  0
LINE
  5
30C
  8
21
 10
349.12232782890482
 20
-9.2032203984883836
 30
0.0
 11
349.15270598954362
 21
-11.70928089245387
 31
0.0
  0
LINE
  5
30D
  8
21
 10
352.5100469049587
 20
-25.709318969389749
 30
0.0
 11
351.50132036946042
 21
-26.709280892453929
 31
0.0
  0
ARC
  5
30E
  8
23
  6
DASHED
 10
338.37746289444732
 20
-22.709280892453929
 30
0.0
 40
1.0
 50
269.99999999999989
 51
359.50000000000182
  0
ARC
  5
30F
  8
23
  6
DASHED
 10
347.03005810818792
 20
-22.709280892453929
 30
0.0
 40
1.0
 50
269.99999999999989
 51
359.50000000000182
  0
ARC
  5
310
  8
52
 10
-44.788635204155462
 20
96.503116551013605
 30
0.0
 40
4.16945596273235
 50
46.253817413827157
 51
73.746182586173475
  0
ARC
  5
311
  8
52
 10
-43.705599920677173
 20
100.2179296545394
 30
0.0
 40
0.2999854796682246
 50
73.745718293229444
 51
150.0004642918494
  0
ARC
  5
312
  8
52
 10
-42.113030327944443
 20
99.298459171461744
 30
0.0
 40
0.29998547967963
 50
329.99953570866489
 51
46.25428170501047
  0
LINE
  5
313
  8
52
 10
-45.23860945300396
 20
98.162650215375095
 30
0.0
 11
-43.965396182282227
 21
100.36792028913609
 31
0.0
  0
ARC
  5
314
  8
52
 10
-44.788635204155462
 20
96.503116551013605
 30
0.0
 40
1.719455962732352
 50
105.17070338957519
 51
118.71614348025599
  0
LINE
  5
315
  8
52
 10
-46.50765951801889
 20
96.464591025420617
 30
0.0
 11
-45.614783277229542
 21
98.011098039338918
 31
0.0
  0
LINE
  5
316
  8
52
 10
-41.853236497236928
 20
99.148464326403769
 30
0.0
 11
-43.126449767958718
 21
96.943194252642755
 31
0.0
  0
LINE
  5
317
  8
52
 10
-43.069610890292097
 20
96.541642076606593
 30
0.0
 11
-43.962487131081438
 21
94.995135062688263
 31
0.0
  0
ARC
  5
318
  8
52
 10
-44.788635204155462
 20
96.503116551013605
 30
0.0
 40
1.7194559627323469
 50
1.283856519775455
 51
14.829296610424979
  0
LINE
  5
319
  8
52
 10
-44.338660955307027
 20
94.843582886652086
 30
0.0
 11
-45.61187422602876
 21
92.638312812891044
 31
0.0
  0
LINE
  5
31A
  8
52
 10
-47.724033911074002
 20
93.857768775623398
 30
0.0
 11
-46.450820640352283
 21
96.063038849384441
 31
0.0
  0
ARC
  5
31B
  8
52
 10
-44.788635204155462
 20
96.503116551013605
 30
0.0
 40
1.719455962732344
 50
181.28385651974941
 51
194.8292966104261
  0
ARC
  5
31C
  8
52
 10
-44.788635204155462
 20
96.503116551013605
 30
0.0
 40
1.719455962732354
 50
285.17070338957518
 51
298.71614348025957
  0
ARC
  5
31D
  8
52
 10
-47.464240080384741
 20
93.707773930564557
 30
0.0
 40
0.2999854796664052
 50
149.99953570610339
 51
226.2542817073992
  0
ARC
  5
31E
  8
52
 10
-45.871670487628307
 20
92.788303447471904
 30
0.0
 40
0.2999854796546085
 50
253.74571829138739
 51
330.00046429427169
  0
ARC
  5
31F
  8
52
 10
-44.788635204155462
 20
96.503116551013605
 30
0.0
 40
4.16945596273235
 50
226.25381741382711
 51
253.7461825861734
  0
ARC
  5
320
  8
52
 10
103.2113647958444
 20
96.503116551013605
 30
0.0
 40
4.16945596273235
 50
106.2538174138265
 51
133.74618258617281
  0
LINE
  5
321
  8
52
 10
103.66133904469289
 20
98.162650215375095
 30
0.0
 11
102.3881257739711
 21
100.36792028913609
 31
0.0
  0
ARC
  5
322
  8
52
 10
102.12832951236609
 20
100.2179296545394
 30
0.0
 40
0.2999854796682246
 50
29.999535708150511
 51
106.2542817067705
  0
ARC
  5
323
  8
52
 10
100.53575991963331
 20
99.298459171461744
 30
0.0
 40
0.29998547967963
 50
133.7457182949895
 51
210.00046429133499
  0
LINE
  5
324
  8
52
 10
100.2759660889258
 20
99.148464326403769
 30
0.0
 11
101.5491793596476
 21
96.943194252642755
 31
0.0
  0
ARC
  5
325
  8
52
 10
103.2113647958444
 20
96.503116551013605
 30
0.0
 40
1.7194559627323469
 50
165.17070338957501
 51
178.7161434802245
  0
LINE
  5
326
  8
52
 10
101.492340481981
 20
96.541642076606593
 30
0.0
 11
102.38521672277029
 21
94.995135062688263
 31
0.0
  0
ARC
  5
327
  8
52
 10
103.2113647958444
 20
96.503116551013605
 30
0.0
 40
1.719455962732354
 50
241.28385651974031
 51
254.82929661042471
  0
LINE
  5
328
  8
52
 10
102.7613905469959
 20
94.843582886652086
 30
0.0
 11
104.0346038177177
 21
92.638312812891044
 31
0.0
  0
ARC
  5
329
  8
52
 10
103.2113647958444
 20
96.503116551013605
 30
0.0
 40
1.719455962732344
 50
345.17070338957382
 51
358.71614348025059
  0
LINE
  5
32A
  8
52
 10
106.14676350276289
 20
93.857768775623398
 30
0.0
 11
104.8735502320412
 21
96.063038849384441
 31
0.0
  0
LINE
  5
32B
  8
52
 10
104.9303891097078
 20
96.464591025420617
 30
0.0
 11
104.0375128689184
 21
98.011098039338918
 31
0.0
  0
ARC
  5
32C
  8
52
 10
103.2113647958444
 20
96.503116551013605
 30
0.0
 40
1.719455962732352
 50
61.283856519743964
 51
74.829296610424763
  0
ARC
  5
32D
  8
52
 10
103.2113647958444
 20
96.503116551013605
 30
0.0
 40
4.16945596273235
 50
286.25381741382648
 51
313.74618258617278
  0
ARC
  5
32E
  8
52
 10
104.2944000793172
 20
92.788303447471904
 30
0.0
 40
0.2999854796546085
 50
209.99953570572831
 51
286.25428170861261
  0
ARC
  5
32F
  8
52
 10
105.8869696720736
 20
93.707773930564557
 30
0.0
 40
0.2999854796664052
 50
313.74571829260071
 51
30.00046429389656
  0
ARC
  5
330
  8
52
 10
103.2113647958444
 20
28.503116551013619
 30
0.0
 40
1.719455962732352
 50
285.17070338957518
 51
298.71614348025599
  0
LINE
  5
331
  8
52
 10
102.7613905469959
 20
30.16265021537512
 30
0.0
 11
104.0346038177177
 21
32.367920289136151
 31
0.0
  0
ARC
  5
332
  8
52
 10
103.2113647958444
 20
28.503116551013619
 30
0.0
 40
1.719455962732354
 50
105.17070338957519
 51
118.7161434802596
  0
LINE
  5
333
  8
52
 10
101.492340481981
 20
28.46459102542061
 30
0.0
 11
102.38521672277029
 21
30.01109803933895
 31
0.0
  0
ARC
  5
334
  8
52
 10
103.2113647958444
 20
28.503116551013619
 30
0.0
 40
1.7194559627323469
 50
181.28385651977541
 51
194.8292966104249
  0
LINE
  5
335
  8
52
 10
100.2759660889258
 20
25.857768775623441
 30
0.0
 11
101.5491793596476
 21
28.063038849384469
 31
0.0
  0
LINE
  5
336
  8
52
 10
103.66133904469289
 20
26.843582886652111
 30
0.0
 11
102.3881257739711
 21
24.63831281289108
 31
0.0
  0
ARC
  5
337
  8
52
 10
105.8869696720736
 20
31.29845917146266
 30
0.0
 40
0.2999854796664052
 50
329.99953570610342
 51
46.254281707399272
  0
ARC
  5
338
  8
52
 10
104.2944000793172
 20
32.217929654555292
 30
0.0
 40
0.2999854796546085
 50
73.745718291387433
 51
150.00046429427161
  0
ARC
  5
339
  8
52
 10
103.2113647958444
 20
28.503116551013619
 30
0.0
 40
4.16945596273235
 50
46.25381741382715
 51
73.746182586173504
  0
LINE
  5
33A
  8
52
 10
104.9303891097078
 20
28.541642076606589
 30
0.0
 11
104.0375128689184
 21
26.995135062688291
 31
0.0
  0
LINE
  5
33B
  8
52
 10
106.14676350276289
 20
31.14846432640379
 30
0.0
 11
104.8735502320412
 21
28.943194252642758
 31
0.0
  0
ARC
  5
33C
  8
52
 10
103.2113647958444
 20
28.503116551013619
 30
0.0
 40
1.719455962732344
 50
1.2838565197494169
 51
14.829296610426169
  0
ARC
  5
33D
  8
52
 10
100.53575991963331
 20
25.70777393056548
 30
0.0
 40
0.29998547967963
 50
149.99953570866489
 51
226.25428170501041
  0
ARC
  5
33E
  8
52
 10
103.2113647958444
 20
28.503116551013619
 30
0.0
 40
4.16945596273235
 50
226.25381741382711
 51
253.7461825861734
  0
ARC
  5
33F
  8
52
 10
102.12832951236609
 20
24.788303447487721
 30
0.0
 40
0.2999854796682246
 50
253.7457182932294
 51
330.00046429184943
  0
LINE
  5
340
  8
52
 10
-41.853236497236928
 20
25.857768775623441
 30
0.0
 11
-43.126449767958718
 21
28.063038849384469
 31
0.0
  0
ARC
  5
341
  8
52
 10
-44.788635204155462
 20
28.503116551013619
 30
0.0
 40
4.16945596273235
 50
286.25381741382648
 51
313.74618258617278
  0
ARC
  5
342
  8
52
 10
-44.788635204155462
 20
28.503116551013619
 30
0.0
 40
4.16945596273235
 50
106.2538174138265
 51
133.74618258617281
  0
ARC
  5
343
  8
52
 10
-45.871670487628307
 20
32.217929654555292
 30
0.0
 40
0.2999854796546085
 50
29.999535705728331
 51
106.2542817086126
  0
ARC
  5
344
  8
52
 10
-47.464240080384741
 20
31.29845917146266
 30
0.0
 40
0.2999854796664052
 50
133.74571829260071
 51
210.0004642938965
  0
ARC
  5
345
  8
52
 10
-44.788635204155462
 20
28.503116551013619
 30
0.0
 40
1.719455962732354
 50
61.28385651974034
 51
74.829296610424777
  0
ARC
  5
346
  8
52
 10
-44.788635204155462
 20
28.503116551013619
 30
0.0
 40
1.719455962732344
 50
165.17070338957379
 51
178.71614348025051
  0
LINE
  5
347
  8
52
 10
-47.724033911074002
 20
31.14846432640379
 30
0.0
 11
-46.450820640352283
 21
28.943194252642758
 31
0.0
  0
LINE
  5
348
  8
52
 10
-44.338660955307027
 20
30.16265021537512
 30
0.0
 11
-45.61187422602876
 21
32.367920289136151
 31
0.0
  0
ARC
  5
349
  8
52
 10
-44.788635204155462
 20
28.503116551013619
 30
0.0
 40
1.7194559627323469
 50
345.17070338957501
 51
358.7161434802245
  0
LINE
  5
34A
  8
52
 10
-43.069610890292097
 20
28.46459102542061
 30
0.0
 11
-43.962487131081438
 21
30.01109803933895
 31
0.0
  0
LINE
  5
34B
  8
52
 10
-46.50765951801889
 20
28.541642076606589
 30
0.0
 11
-45.614783277229542
 21
26.995135062688291
 31
0.0
  0
ARC
  5
34C
  8
52
 10
-44.788635204155462
 20
28.503116551013619
 30
0.0
 40
1.719455962732352
 50
241.28385651974389
 51
254.82929661042471
  0
LINE
  5
34D
  8
52
 10
-45.23860945300396
 20
26.843582886652111
 30
0.0
 11
-43.965396182282227
 21
24.63831281289108
 31
0.0
  0
ARC
  5
34E
  8
52
 10
-43.705599920677173
 20
24.788303447487721
 30
0.0
 40
0.2999854796682246
 50
209.99953570815049
 51
286.25428170677048
  0
ARC
  5
34F
  8
52
 10
-42.113030327944443
 20
25.70777393056548
 30
0.0
 40
0.29998547967963
 50
313.7457182949895
 51
30.000464291335071
  0
ENDSEC
  0
EOF
