  0
SECTION
  2
HEADER
  9
$ACADVER
  1
AC1009
  9
$INSBASE
 10
0.0
 20
0.0
 30
0.0
  9
$EXTMIN
 10
197.4072631608332
 20
742.04813936612481
 30
-0.0015258207003583
  9
$EXTMAX
 10
590.49598259671984
 20
958.05977724005686
 30
0.0000000349246037
  9
$LIMMIN
 10
-456.601528516028
 20
5.0
  9
$LIMMAX
 10
934.40616009549785
 20
1060.276836655748
  9
$ORTHOMODE
 70
     1
  9
$REGENMODE
 70
     1
  9
$FILLMODE
 70
     1
  9
$QTEXTMODE
 70
     0
  9
$MIRRTEXT
 70
     1
  9
$DRAGMODE
 70
     2
  9
$LTSCALE
 40
7.0
  9
$OSMODE
 70
    37
  9
$ATTMODE
 70
     1
  9
$TEXTSIZE
 40
2.5
  9
$TRACEWID
 40
0.05
  9
$TEXTSTYLE
  7
TKKISO
  9
$CLAYER
  8
1
  9
$CELTYPE
  6
BYLAYER
  9
$CECOLOR
 62
   256
  9
$DIMSCALE
 40
1.0
  9
$DIMASZ
 40
2.5
  9
$DIMEXO
 40
0.0625
  9
$DIMDLI
 40
10.0
  9
$DIMRND
 40
0.0
  9
$DIMDLE
 40
0.0
  9
$DIMEXE
 40
1.0
  9
$DIMTP
 40
0.0
  9
$DIMTM
 40
0.0
  9
$DIMTXT
 40
2.5
  9
$DIMCEN
 40
0.09
  9
$DIMTSZ
 40
0.0
  9
$DIMTOL
 70
     0
  9
$DIMLIM
 70
     0
  9
$DIMTIH
 70
     0
  9
$DIMTOH
 70
     0
  9
$DIMSE1
 70
     0
  9
$DIMSE2
 70
     0
  9
$DIMTAD
 70
     1
  9
$DIMZIN
 70
     0
  9
$DIMBLK
  1

  9
$DIMASO
 70
     1
  9
$DIMSHO
 70
     1
  9
$DIMPOST
  1

  9
$DIMAPOST
  1

  9
$DIMALT
 70
     0
  9
$DIMALTD
 70
     2
  9
$DIMALTF
 40
25.399999999999999
  9
$DIMLFAC
 40
1.0
  9
$DIMTOFL
 70
     1
  9
$DIMTVP
 40
0.0
  9
$DIMTIX
 70
     0
  9
$DIMSOXD
 70
     1
  9
$DIMSAH
 70
     1
  9
$DIMBLK1
  1

  9
$DIMBLK2
  1

  9
$DIMSTYLE
  2
STANDARD
  9
$DIMCLRD
 70
     1
  9
$DIMCLRE
 70
     1
  9
$DIMCLRT
 70
     3
  9
$DIMTFAC
 40
1.0
  9
$DIMGAP
 40
0.09
  9
$LUNITS
 70
     2
  9
$LUPREC
 70
     2
  9
$SKETCHINC
 40
0.1
  9
$FILLETRAD
 40
0.0
  9
$AUNITS
 70
     0
  9
$AUPREC
 70
     1
  9
$MENU
  1
caesar
  9
$ELEVATION
 40
0.0
  9
$PELEVATION
 40
0.0
  9
$THICKNESS
 40
0.0
  9
$LIMCHECK
 70
     0
  9
$BLIPMODE
 70
     0
  9
$CHAMFERA
 40
5.0
  9
$CHAMFERB
 40
5.0
  9
$SKPOLY
 70
     0
  9
$TDCREATE
 40
2448716.6085871528
  9
$TDUPDATE
 40
2453620.4535727538
  9
$TDINDWG
 40
0.1981903935
  9
$TDUSRTIMER
 40
0.1981903935
  9
$USRTIMER
 70
     1
  9
$ANGBASE
 50
0.0
  9
$ANGDIR
 70
     0
  9
$PDMODE
 70
     0
  9
$PDSIZE
 40
0.0
  9
$PLINEWID
 40
0.0
  9
$COORDS
 70
     2
  9
$SPLFRAME
 70
     0
  9
$SPLINETYPE
 70
     6
  9
$SPLINESEGS
 70
     8
  9
$ATTDIA
 70
     0
  9
$ATTREQ
 70
     1
  9
$HANDLING
 70
-16383
  9
$HANDSEED
  5
439
  9
$SURFTAB1
 70
     6
  9
$SURFTAB2
 70
     6
  9
$SURFTYPE
 70
     6
  9
$SURFU
 70
     6
  9
$SURFV
 70
     6
  9
$UCSNAME
  2

  9
$UCSORG
 10
0.0
 20
0.0
 30
0.0
  9
$UCSXDIR
 10
1.0
 20
0.0
 30
0.0
  9
$UCSYDIR
 10
0.0
 20
1.0
 30
0.0
  9
$PUCSNAME
  2

  9
$PUCSORG
 10
0.0
 20
0.0
 30
0.0
  9
$PUCSXDIR
 10
1.0
 20
0.0
 30
0.0
  9
$PUCSYDIR
 10
0.0
 20
1.0
 30
0.0
  9
$USERI1
 70
   102
  9
$USERI2
 70
     0
  9
$USERI3
 70
     0
  9
$USERI4
 70
     0
  9
$USERI5
 70
     0
  9
$USERR1
 40
1.0
  9
$USERR2
 40
-10.0
  9
$USERR3
 40
2.5
  9
$USERR4
 40
0.0
  9
$USERR5
 40
0.0
  9
$WORLDVIEW
 70
     1
  9
$SHADEDGE
 70
     3
  9
$SHADEDIF
 70
    70
  9
$TILEMODE
 70
     1
  9
$MAXACTVP
 70
    16
  9
$PLIMCHECK
 70
     0
  9
$PEXTMIN
 10
1.0000000000000000E+020
 20
1.0000000000000000E+020
 30
1.0000000000000000E+020
  9
$PEXTMAX
 10
-1.0000000000000000E+020
 20
-1.0000000000000000E+020
 30
-1.0000000000000000E+020
  9
$PLIMMIN
 10
0.0
 20
0.0
  9
$PLIMMAX
 10
12.0
 20
9.0
  9
$UNITMODE
 70
     0
  9
$VISRETAIN
 70
     0
  9
$PLINEGEN
 70
     0
  9
$PSLTSCALE
 70
     0
  0
ENDSEC
  0
SECTION
  2
TABLES
  0
TABLE
  2
VPORT
 70
     2
  0
VPORT
  2
*ACTIVE
 70
     0
 10
0.0
 20
0.0
 11
1.0
 21
1.0
 12
393.9516228787765
 22
850.05395830309078
 13
0.0
 23
0.0
 14
1.0
 24
1.0
 15
10.0
 25
10.0
 16
0.0
 26
0.0
 36
1.0
 17
0.0
 27
0.0
 37
0.0
 40
253.7323234929155
 41
1.5552208835341359
 42
50.0
 43
0.0
 44
0.0
 50
0.0
 51
0.0
 71
     0
 72
  2000
 73
     1
 74
     0
 75
     0
 76
     0
 77
     0
 78
     0
  0
ENDTAB
  0
TABLE
  2
LTYPE
 70
     3
  0
LTYPE
  2
CONTINUOUS
 70
     0
  3
Solid line
 72
    65
 73
     0
 40
0.0
  0
LTYPE
  2
HIDDEN
 70
     0
  3
_ _ _ _ _ _ _ _ _ _ _ _ _ _ _ _ _ _ _ _ _ _ _
 72
    65
 73
     2
 40
0.375
 49
0.25
 49
-0.125
  0
LTYPE
  2
CENTER
 70
     0
  3
____ _ ____ _ ____ _ ____ _ ____ _ ____ _ ____
 72
    65
 73
     4
 40
2.0
 49
1.25
 49
-0.25
 49
0.25
 49
-0.25
  0
ENDTAB
  0
TABLE
  2
LAYER
 70
     7
  0
LAYER
  2
0
 70
     0
 62
     7
  6
CONTINUOUS
  0
LAYER
  2
L22
 70
     0
 62
     1
  6
CONTINUOUS
  0
LAYER
  2
DEFPOINTS
 70
     1
 62
     7
  6
CONTINUOUS
  0
LAYER
  2
L20
 70
     0
 62
     3
  6
CONTINUOUS
  0
LAYER
  2
1
 70
     0
 62
     7
  6
CONTINUOUS
  0
LAYER
  2
12
 70
     0
 62
     1
  6
HIDDEN
  0
LAYER
  2
23
 70
     0
 62
     1
  6
CENTER
  0
ENDTAB
  0
TABLE
  2
STYLE
 70
     3
  0
STYLE
  2
STANDARD
 70
     0
 40
0.0
 41
1.0
 50
0.0
 71
     0
 42
2.5
  3
caeiso
  4

  0
STYLE
  2
SIMPLEX
 70
     0
 40
0.0
 41
0.8
 50
0.0
 71
     0
 42
2.5
  3
KIRJAIN
  4

  0
STYLE
  2
TKKISO
 70
     0
 40
0.0
 41
1.0
 50
0.0
 71
     0
 42
2.5
  3
caeiso
  4

  0
ENDTAB
  0
TABLE
  2
VIEW
 70
     0
  0
ENDTAB
  0
TABLE
  2
UCS
 70
     0
  0
ENDTAB
  0
TABLE
  2
APPID
 70
     1
  0
APPID
  2
ACAD
 70
     0
  0
ENDTAB
  0
TABLE
  2
DIMSTYLE
 70
     1
  0
DIMSTYLE
  2
STANDARD
 70
     0
  3

  4

  5

  6

  7

 40
1.0
 41
0.18
 42
0.0625
 43
0.38
 44
0.18
 45
0.0
 46
0.0
 47
0.0
 48
0.0
140
0.18
141
0.09
142
0.0
143
25.399999999999999
144
1.0
145
0.0
146
1.0
147
0.09
 71
     0
 72
     0
 73
     1
 74
     1
 75
     0
 76
     0
 77
     0
 78
     0
170
     0
171
     2
172
     0
173
     0
174
     0
175
     0
176
     0
177
     0
178
     0
  0
ENDTAB
  0
ENDSEC
  0
SECTION
  2
BLOCKS
  0
BLOCK
  8
0
  2
$MODEL_SPACE
 70
     0
 10
0.0
 20
0.0
 30
0.0
  3
$MODEL_SPACE
  1

  0
ENDBLK
  5
84
  8
0
  0
BLOCK
 67
     1
  8
0
  2
$PAPER_SPACE
 70
     0
 10
0.0
 20
0.0
 30
0.0
  3
$PAPER_SPACE
  1

  0
ENDBLK
  5
82
 67
     1
  8
0
  0
BLOCK
  8
0
  2
TKK-ACAD
 70
     0
 10
0.0
 20
0.0
 30
0.0
  3
TKK-ACAD
  1

  0
ENDBLK
  5
86
  8
0
  0
ENDSEC
  0
SECTION
  2
ENTITIES
  0
INSERT
  5
87
  8
0
  2
TKK-ACAD
 10
387.69019597505729
 20
522.0663370813196
 30
0.0
  0
ARC
  5
88
  8
1
 10
206.43949704799749
 20
816.07758437784196
 30
0.0
 40
6.0
 50
180.0
 51
270.0
  0
LINE
  5
89
  8
1
 10
200.43949704799749
 20
816.07758437784196
 30
0.0
 11
200.43949704799749
 21
884.07758437784196
 31
0.0
  0
ARC
  5
8A
  8
1
 10
314.43949704799752
 20
816.07758437784196
 30
0.0
 40
6.0
 50
270.0
 51
0.0
  0
ARC
  5
8B
  8
1
 10
314.43949704799752
 20
884.07758437784196
 30
0.0
 40
6.0
 50
0.0
 51
90.0
  0
LINE
  5
8C
  8
1
 10
314.43949704799752
 20
810.07758437784196
 30
0.0
 11
206.43949704799749
 21
810.07758437784196
 31
0.0
  0
ARC
  5
8D
  8
1
 10
206.43949704799749
 20
884.07758437784196
 30
0.0
 40
6.0
 50
90.0
 51
180.0
  0
LINE
  5
8E
  8
1
 10
320.43949704799752
 20
884.07758437784196
 30
0.0
 11
320.43949704799752
 21
816.07758437784196
 31
0.0
  0
ARC
  5
8F
  8
12
 10
314.93949704799752
 20
866.87758437784191
 30
0.0
 40
5.5
 50
50.362286000000033
 51
90.0
  0
ARC
  5
90
  8
12
 10
314.43949704799752
 20
884.07758437784196
 30
0.0
 40
5.5
 50
245.55666500000001
 51
316.39718099999999
  0
LINE
  5
91
  8
12
 10
311.73949704799742
 20
878.79743237784191
 30
0.0
 11
311.73949704799742
 21
875.3775843778418
 31
0.0
  0
ARC
  5
92
  8
12
 10
318.63949704799751
 20
871.34412637784192
 30
0.0
 40
0.3
 50
230.36228600000001
 51
0.0
  0
ARC
  5
93
  8
12
 10
312.03949704799737
 20
878.79743237784191
 30
0.0
 40
0.3
 50
65.556664999999995
 51
180.0
  0
ARC
  5
98
  8
12
 10
318.63949704799751
 20
880.07758437784184
 30
0.0
 40
0.3
 50
0.0
 51
136.39718099999999
  0
ARC
  5
99
  8
12
 10
314.73949704799742
 20
875.3775843778418
 30
0.0
 40
3.0
 50
180.0
 51
270.0
  0
LINE
  5
9A
  8
12
 10
318.93949704799752
 20
880.07758437784184
 30
0.0
 11
318.93949704799752
 21
871.34412637784192
 31
0.0
  0
LINE
  5
9B
  8
12
 10
306.23949704799742
 20
889.07758437784184
 30
0.0
 11
260.43949704799752
 21
889.07758437784184
 31
0.0
  0
ARC
  5
9C
  8
12
 10
306.23949704799742
 20
884.57758437784184
 30
0.0
 40
4.5
 50
0.0
 51
90.0
  0
LINE
  5
9D
  8
12
 10
310.73949704799742
 20
884.57758437784184
 30
0.0
 11
310.73949704799742
 21
875.3775843778418
 31
0.0
  0
ARC
  5
9E
  8
12
 10
314.73949704799742
 20
875.3775843778418
 30
0.0
 40
4.0
 50
180.0
 51
270.0
  0
ARC
  5
9F
  8
12
 10
314.93949704799752
 20
866.87758437784191
 30
0.0
 40
4.5
 50
0.0
 51
90.0
  0
LINE
  5
A0
  8
12
 10
319.43949704799752
 20
866.87758437784191
 30
0.0
 11
319.43949704799752
 21
850.07758437784196
 31
0.0
  0
LINE
  5
A1
  8
12
 10
306.23949704799742
 20
886.57758437784196
 30
0.0
 11
260.43949704799752
 21
886.57758437784196
 31
0.0
  0
ARC
  5
A2
  8
12
 10
306.23949704799742
 20
884.57758437784184
 30
0.0
 40
2.0
 50
0.0
 51
90.0
  0
LINE
  5
A3
  8
12
 10
308.23949704799742
 20
884.57758437784184
 30
0.0
 11
308.23949704799742
 21
875.3775843778418
 31
0.0
  0
ARC
  5
A4
  8
12
 10
314.73949704799742
 20
875.3775843778418
 30
0.0
 40
6.5
 50
180.0
 51
270.0
  0
ARC
  5
A5
  8
12
 10
314.93949704799752
 20
866.87758437784191
 30
0.0
 40
2.0
 50
0.0
 51
90.0
  0
LINE
  5
A6
  8
12
 10
316.93949704799752
 20
866.87758437784191
 30
0.0
 11
316.93949704799752
 21
850.07758437784196
 31
0.0
  0
ARC
  5
A7
  8
1
 10
306.23949704799742
 20
884.57758437784184
 30
0.0
 40
1.0
 50
0.0
 51
90.0
  0
LINE
  5
A8
  8
1
 10
314.93949704799752
 20
867.87758437784191
 30
0.0
 11
314.73949704799742
 21
867.87758437784191
 31
0.0
  0
ARC
  5
A9
  8
1
 10
314.93949704799752
 20
866.87758437784191
 30
0.0
 40
1.0
 50
0.0
 51
90.0
  0
LINE
  5
AA
  8
1
 10
315.93949704799752
 20
866.87758437784191
 30
0.0
 11
315.93949704799752
 21
850.07758437784196
 31
0.0
  0
LINE
  5
AB
  8
1
 10
306.23949704799742
 20
885.57758437784184
 30
0.0
 11
260.43949704799752
 21
885.57758437784184
 31
0.0
  0
LINE
  5
AC
  8
1
 10
307.23949704799742
 20
884.57758437784184
 30
0.0
 11
307.23949704799742
 21
875.3775843778418
 31
0.0
  0
ARC
  5
AD
  8
1
 10
314.73949704799742
 20
875.3775843778418
 30
0.0
 40
7.5
 50
180.0
 51
270.0
  0
ARC
  5
AE
  8
12
 10
205.93949704799749
 20
866.87758437784191
 30
0.0
 40
5.5
 50
90.0
 51
129.6377139999999
  0
ARC
  5
AF
  8
12
 10
206.43949704799749
 20
884.07758437784196
 30
0.0
 40
5.5
 50
223.6028189999999
 51
294.44333499999999
  0
LINE
  5
B0
  8
12
 10
209.13949704799751
 20
878.79743237784191
 30
0.0
 11
209.13949704799751
 21
875.3775843778418
 31
0.0
  0
ARC
  5
B1
  8
12
 10
202.23949704799739
 20
871.34412637784192
 30
0.0
 40
0.3
 50
180.0
 51
309.63771400000002
  0
ARC
  5
B2
  8
12
 10
208.8394970479975
 20
878.79743237784191
 30
0.0
 40
0.3
 50
0.0
 51
114.44333499999991
  0
ARC
  5
B7
  8
12
 10
202.23949704799739
 20
880.07758437784184
 30
0.0
 40
0.3
 50
43.602819000000011
 51
180.0
  0
ARC
  5
B8
  8
12
 10
206.13949704799751
 20
875.3775843778418
 30
0.0
 40
3.0
 50
270.0
 51
0.0
  0
LINE
  5
B9
  8
12
 10
201.93949704799749
 20
880.07758437784184
 30
0.0
 11
201.93949704799749
 21
871.34412637784192
 31
0.0
  0
LINE
  5
BA
  8
12
 10
214.63949704799751
 20
889.07758437784184
 30
0.0
 11
260.43949704799752
 21
889.07758437784184
 31
0.0
  0
ARC
  5
BB
  8
12
 10
214.63949704799751
 20
884.57758437784184
 30
0.0
 40
4.5
 50
90.0
 51
180.0
  0
LINE
  5
BC
  8
12
 10
210.13949704799751
 20
884.57758437784184
 30
0.0
 11
210.13949704799751
 21
875.3775843778418
 31
0.0
  0
ARC
  5
BD
  8
12
 10
206.13949704799751
 20
875.3775843778418
 30
0.0
 40
4.0
 50
270.0
 51
0.0
  0
ARC
  5
BE
  8
12
 10
205.93949704799749
 20
866.87758437784191
 30
0.0
 40
4.5
 50
90.0
 51
180.0
  0
LINE
  5
BF
  8
12
 10
201.43949704799749
 20
866.87758437784191
 30
0.0
 11
201.43949704799749
 21
850.07758437784196
 31
0.0
  0
LINE
  5
C0
  8
12
 10
214.63949704799751
 20
886.57758437784196
 30
0.0
 11
260.43949704799752
 21
886.57758437784196
 31
0.0
  0
ARC
  5
C1
  8
12
 10
214.63949704799751
 20
884.57758437784184
 30
0.0
 40
2.0
 50
90.0
 51
180.0
  0
LINE
  5
C2
  8
12
 10
212.63949704799751
 20
884.57758437784184
 30
0.0
 11
212.63949704799751
 21
875.3775843778418
 31
0.0
  0
ARC
  5
C3
  8
12
 10
206.13949704799751
 20
875.3775843778418
 30
0.0
 40
6.5
 50
270.0
 51
0.0
  0
ARC
  5
C4
  8
12
 10
205.93949704799749
 20
866.87758437784191
 30
0.0
 40
2.0
 50
90.0
 51
180.0
  0
LINE
  5
C5
  8
12
 10
203.93949704799749
 20
866.87758437784191
 30
0.0
 11
203.93949704799749
 21
850.07758437784196
 31
0.0
  0
ARC
  5
C6
  8
1
 10
214.63949704799751
 20
884.57758437784184
 30
0.0
 40
1.0
 50
90.0
 51
180.0
  0
LINE
  5
C7
  8
1
 10
205.93949704799749
 20
867.87758437784191
 30
0.0
 11
206.13949704799751
 21
867.87758437784191
 31
0.0
  0
ARC
  5
C8
  8
1
 10
205.93949704799749
 20
866.87758437784191
 30
0.0
 40
1.0
 50
90.0
 51
180.0
  0
LINE
  5
C9
  8
1
 10
204.93949704799749
 20
866.87758437784191
 30
0.0
 11
204.93949704799749
 21
850.07758437784196
 31
0.0
  0
LINE
  5
CA
  8
1
 10
214.63949704799751
 20
885.57758437784184
 30
0.0
 11
260.43949704799752
 21
885.57758437784184
 31
0.0
  0
LINE
  5
CB
  8
1
 10
213.63949704799751
 20
884.57758437784184
 30
0.0
 11
213.63949704799751
 21
875.3775843778418
 31
0.0
  0
ARC
  5
CC
  8
1
 10
206.13949704799751
 20
875.3775843778418
 30
0.0
 40
7.5
 50
270.0
 51
0.0
  0
ARC
  5
CD
  8
12
 10
314.93949704799752
 20
833.27758437784189
 30
0.0
 40
5.5
 50
270.0
 51
309.63771400000002
  0
ARC
  5
CE
  8
12
 10
314.43949704799752
 20
816.07758437784196
 30
0.0
 40
5.5
 50
43.602819000000011
 51
114.44333499999991
  0
LINE
  5
CF
  8
12
 10
311.73949704799742
 20
821.35773637784189
 30
0.0
 11
311.73949704799742
 21
824.777584377842
 31
0.0
  0
ARC
  5
D0
  8
12
 10
318.63949704799751
 20
828.81104237784177
 30
0.0
 40
0.3
 50
0.0
 51
129.6377139999999
  0
ARC
  5
D1
  8
12
 10
312.03949704799737
 20
821.35773637784189
 30
0.0
 40
0.3
 50
180.0
 51
294.44333499999999
  0
ARC
  5
D6
  8
12
 10
318.63949704799751
 20
820.07758437784184
 30
0.0
 40
0.3
 50
223.6028189999999
 51
0.0
  0
ARC
  5
D7
  8
12
 10
314.73949704799742
 20
824.777584377842
 30
0.0
 40
3.0
 50
90.0
 51
180.0
  0
LINE
  5
D8
  8
12
 10
318.93949704799752
 20
820.07758437784184
 30
0.0
 11
318.93949704799752
 21
828.81104237784177
 31
0.0
  0
LINE
  5
D9
  8
12
 10
306.23949704799742
 20
811.07758437784184
 30
0.0
 11
260.43949704799752
 21
811.07758437784184
 31
0.0
  0
ARC
  5
DA
  8
12
 10
306.23949704799742
 20
815.57758437784184
 30
0.0
 40
4.5
 50
270.0
 51
0.0
  0
LINE
  5
DB
  8
12
 10
310.73949704799742
 20
815.57758437784184
 30
0.0
 11
310.73949704799742
 21
824.777584377842
 31
0.0
  0
ARC
  5
DC
  8
12
 10
314.73949704799742
 20
824.777584377842
 30
0.0
 40
4.0
 50
90.0
 51
180.0
  0
ARC
  5
DD
  8
12
 10
314.93949704799752
 20
833.27758437784189
 30
0.0
 40
4.5
 50
270.0
 51
0.0
  0
LINE
  5
DE
  8
12
 10
319.43949704799752
 20
833.27758437784189
 30
0.0
 11
319.43949704799752
 21
850.07758437784196
 31
0.0
  0
LINE
  5
DF
  8
12
 10
306.23949704799742
 20
813.57758437784196
 30
0.0
 11
260.43949704799752
 21
813.57758437784196
 31
0.0
  0
ARC
  5
E0
  8
12
 10
306.23949704799742
 20
815.57758437784184
 30
0.0
 40
2.0
 50
270.0
 51
0.0
  0
LINE
  5
E1
  8
12
 10
308.23949704799742
 20
815.57758437784184
 30
0.0
 11
308.23949704799742
 21
824.777584377842
 31
0.0
  0
ARC
  5
E2
  8
12
 10
314.73949704799742
 20
824.777584377842
 30
0.0
 40
6.5
 50
90.0
 51
180.0
  0
ARC
  5
E3
  8
12
 10
314.93949704799752
 20
833.27758437784189
 30
0.0
 40
2.0
 50
270.0
 51
0.0
  0
LINE
  5
E4
  8
12
 10
316.93949704799752
 20
833.27758437784189
 30
0.0
 11
316.93949704799752
 21
850.07758437784196
 31
0.0
  0
ARC
  5
E5
  8
1
 10
306.23949704799742
 20
815.57758437784184
 30
0.0
 40
1.0
 50
270.0
 51
0.0
  0
LINE
  5
E6
  8
1
 10
314.93949704799752
 20
832.27758437784189
 30
0.0
 11
314.73949704799742
 21
832.27758437784189
 31
0.0
  0
ARC
  5
E7
  8
1
 10
314.93949704799752
 20
833.27758437784189
 30
0.0
 40
1.0
 50
270.0
 51
0.0
  0
ARC
  5
E8
  8
12
 10
205.93949704799749
 20
833.27758437784189
 30
0.0
 40
5.5
 50
230.36228600000001
 51
270.0
  0
ARC
  5
E9
  8
12
 10
206.43949704799749
 20
816.07758437784196
 30
0.0
 40
5.5
 50
65.556664999999995
 51
136.39718099999999
  0
LINE
  5
EA
  8
12
 10
209.13949704799751
 20
821.35773637784189
 30
0.0
 11
209.13949704799751
 21
824.777584377842
 31
0.0
  0
ARC
  5
EB
  8
12
 10
202.23949704799739
 20
828.81104237784177
 30
0.0
 40
0.3
 50
50.362286000000033
 51
180.0
  0
LINE
  5
EC
  8
1
 10
315.93949704799752
 20
833.27758437784189
 30
0.0
 11
315.93949704799752
 21
850.07758437784196
 31
0.0
  0
ARC
  5
ED
  8
12
 10
208.8394970479975
 20
821.35773637784189
 30
0.0
 40
0.3
 50
245.55666500000001
 51
0.0
  0
LINE
  5
F1
  8
1
 10
306.23949704799742
 20
814.57758437784196
 30
0.0
 11
260.43949704799752
 21
814.57758437784196
 31
0.0
  0
ARC
  5
F3
  8
12
 10
202.23949704799739
 20
820.07758437784184
 30
0.0
 40
0.3
 50
180.0
 51
316.39718099999999
  0
ARC
  5
F4
  8
12
 10
206.13949704799751
 20
824.777584377842
 30
0.0
 40
3.0
 50
0.0
 51
90.0
  0
LINE
  5
F5
  8
12
 10
201.93949704799749
 20
820.07758437784184
 30
0.0
 11
201.93949704799749
 21
828.81104237784177
 31
0.0
  0
LINE
  5
F6
  8
12
 10
214.63949704799751
 20
811.07758437784184
 30
0.0
 11
260.43949704799752
 21
811.07758437784184
 31
0.0
  0
ARC
  5
F7
  8
12
 10
214.63949704799751
 20
815.57758437784184
 30
0.0
 40
4.5
 50
180.0
 51
270.0
  0
LINE
  5
F8
  8
12
 10
210.13949704799751
 20
815.57758437784184
 30
0.0
 11
210.13949704799751
 21
824.777584377842
 31
0.0
  0
ARC
  5
F9
  8
12
 10
206.13949704799751
 20
824.777584377842
 30
0.0
 40
4.0
 50
0.0
 51
90.0
  0
ARC
  5
FA
  8
12
 10
205.93949704799749
 20
833.27758437784189
 30
0.0
 40
4.5
 50
180.0
 51
270.0
  0
LINE
  5
FB
  8
12
 10
201.43949704799749
 20
833.27758437784189
 30
0.0
 11
201.43949704799749
 21
850.07758437784196
 31
0.0
  0
LINE
  5
FC
  8
12
 10
214.63949704799751
 20
813.57758437784196
 30
0.0
 11
260.43949704799752
 21
813.57758437784196
 31
0.0
  0
ARC
  5
FD
  8
12
 10
214.63949704799751
 20
815.57758437784184
 30
0.0
 40
2.0
 50
180.0
 51
270.0
  0
LINE
  5
FE
  8
12
 10
212.63949704799751
 20
815.57758437784184
 30
0.0
 11
212.63949704799751
 21
824.777584377842
 31
0.0
  0
ARC
  5
FF
  8
12
 10
206.13949704799751
 20
824.777584377842
 30
0.0
 40
6.5
 50
0.0
 51
90.0
  0
ARC
  5
100
  8
12
 10
205.93949704799749
 20
833.27758437784189
 30
0.0
 40
2.0
 50
180.0
 51
270.0
  0
LINE
  5
101
  8
12
 10
203.93949704799749
 20
833.27758437784189
 30
0.0
 11
203.93949704799749
 21
850.07758437784196
 31
0.0
  0
ARC
  5
102
  8
1
 10
214.63949704799751
 20
815.57758437784184
 30
0.0
 40
1.0
 50
180.0
 51
270.0
  0
LINE
  5
103
  8
1
 10
307.23949704799742
 20
815.57758437784184
 30
0.0
 11
307.23949704799742
 21
824.777584377842
 31
0.0
  0
ARC
  5
104
  8
1
 10
314.73949704799742
 20
824.777584377842
 30
0.0
 40
7.5
 50
90.0
 51
180.0
  0
LINE
  5
105
  8
1
 10
205.93949704799749
 20
832.27758437784189
 30
0.0
 11
206.13949704799751
 21
832.27758437784189
 31
0.0
  0
ARC
  5
106
  8
1
 10
205.93949704799749
 20
833.27758437784189
 30
0.0
 40
1.0
 50
180.0
 51
270.0
  0
LINE
  5
107
  8
1
 10
204.93949704799749
 20
833.27758437784189
 30
0.0
 11
204.93949704799749
 21
850.07758437784196
 31
0.0
  0
LINE
  5
108
  8
1
 10
214.63949704799751
 20
814.57758437784196
 30
0.0
 11
260.43949704799752
 21
814.57758437784196
 31
0.0
  0
LINE
  5
109
  8
1
 10
213.63949704799751
 20
815.57758437784184
 30
0.0
 11
213.63949704799751
 21
824.777584377842
 31
0.0
  0
ARC
  5
10A
  8
1
 10
206.13949704799751
 20
824.777584377842
 30
0.0
 40
7.5
 50
0.0
 51
90.0
  0
ARC
  5
10C
  8
1
 10
419.6671541938199
 20
884.07758437784196
 30
0.0
 40
4.4000000000000004
 50
90.0
 51
180.0
  0
LINE
  5
10D
  8
1
 10
415.26715419381981
 20
884.07758437784196
 30
0.0
 11
415.26715419381981
 21
816.07758437784196
 31
0.0
  0
LINE
  5
10E
  8
1
 10
419.6671541938199
 20
811.67758437784175
 30
0.0
 11
527.66715419381978
 21
811.67758437784175
 31
0.0
  0
LINE
  5
10F
  8
1
 10
532.06715419381987
 20
884.07758437784196
 30
0.0
 11
532.06715419381987
 21
816.07758437784196
 31
0.0
  0
LINE
  5
110
  8
1
 10
419.6671541938199
 20
888.47758437784205
 30
0.0
 11
527.66715419381978
 21
888.47758437784205
 31
0.0
  0
ARC
  5
11B
  8
1
 10
419.6671541938199
 20
884.07758437784196
 30
0.0
 40
6.0
 50
90.0
 51
180.0
  0
LINE
  5
11F
  8
1
 10
533.6671541938199
 20
816.07758437784196
 30
0.0
 11
533.6671541938199
 21
884.07758437784196
 31
0.0
  0
LINE
  5
120
  8
1
 10
527.66715419381978
 20
890.07758437784184
 30
0.0
 11
419.6671541938199
 21
890.07758437784184
 31
0.0
  0
LINE
  5
121
  8
1
 10
413.66715419381978
 20
816.07758437784196
 30
0.0
 11
413.66715419381978
 21
884.07758437784196
 31
0.0
  0
LINE
  5
122
  8
1
 10
527.66715419381978
 20
810.07758437784196
 30
0.0
 11
419.6671541938199
 21
810.07758437784196
 31
0.0
  0
INSERT
  5
123
  8
L22
  2
TKK-ACAD
 10
0.0
 20
0.0
 30
0.0
  0
LINE
  5
135
  8
1
 10
359.53315304784172
 20
889.9162532124501
 30
0.0
 11
359.53315304784172
 21
810.2389155432337
 31
0.0
  0
LINE
  5
136
  8
1
 10
379.01994704784158
 20
886.57758437784196
 30
0.0
 11
378.0199470478417
 21
886.57758437784196
 31
0.0
  0
LINE
  5
137
  8
1
 10
378.0199470478417
 20
811.07758437784184
 30
0.0
 11
378.0199470478417
 21
830.07758437784207
 31
0.0
  0
LINE
  5
138
  8
1
 10
379.01994704784158
 20
814.57758437784196
 30
0.0
 11
379.01994704784158
 21
830.07758437784184
 31
0.0
  0
LINE
  5
139
  8
1
 10
379.01994704784158
 20
885.57758437784184
 30
0.0
 11
379.01994704784158
 21
830.07758437784184
 31
0.0
  0
LINE
  5
13A
  8
1
 10
378.0199470478417
 20
889.07758437784184
 30
0.0
 11
378.0199470478417
 21
830.07758437784207
 31
0.0
  0
LINE
  5
13B
  8
1
 10
358.01994704784158
 20
811.75212154323378
 30
0.0
 11
359.53315304784172
 21
810.2389155432337
 31
0.0
  0
LINE
  5
13C
  8
1
 10
378.0199470478417
 20
810.07758437784196
 30
0.0
 11
378.0199470478417
 21
811.07758437784184
 31
0.0
  0
LINE
  5
13D
  8
1
 10
379.01994704784158
 20
813.57758437784196
 30
0.0
 11
378.0199470478417
 21
813.57758437784196
 31
0.0
  0
LINE
  5
13E
  8
1
 10
358.0199470478417
 20
888.40304721245025
 30
0.0
 11
359.53315304784172
 21
889.9162532124501
 31
0.0
  0
LINE
  5
13F
  8
1
 10
358.01994704784158
 20
811.75212154323378
 30
0.0
 11
358.0199470478417
 21
830.07758437784184
 31
0.0
  0
LINE
  5
140
  8
1
 10
379.01994704784158
 20
886.57758437784196
 30
0.0
 11
379.01994704784158
 21
885.57758437784184
 31
0.0
  0
LINE
  5
141
  8
1
 10
379.01994704784158
 20
813.57758437784196
 30
0.0
 11
379.01994704784158
 21
814.57758437784196
 31
0.0
  0
LINE
  5
142
  8
1
 10
358.0199470478417
 20
888.40304721245025
 30
0.0
 11
358.0199470478417
 21
830.07758437784184
 31
0.0
  0
LINE
  5
143
  8
1
 10
378.0199470478417
 20
890.07758437784184
 30
0.0
 11
359.53315304784172
 21
889.9162532124501
 31
0.0
  0
LINE
  5
144
  8
1
 10
378.0199470478417
 20
810.07758437784196
 30
0.0
 11
359.53315304784172
 21
810.2389155432337
 31
0.0
  0
LINE
  5
145
  8
1
 10
378.0199470478417
 20
890.07758437784184
 30
0.0
 11
378.0199470478417
 21
889.07758437784184
 31
0.0
  0
LINE
  5
146
  8
12
 10
361.01994704784158
 20
867.87758437784214
 30
0.0
 11
379.01994704784158
 21
867.87758437784214
 31
0.0
  0
LINE
  5
147
  8
23
 10
356.91994704784162
 20
850.07758437784196
 30
0.0
 11
385.71994704784169
 21
850.07758437784196
 31
0.0
  0
LINE
  5
148
  8
12
 10
361.01994704784158
 20
832.27758437784189
 30
0.0
 11
379.01994704784158
 21
832.27758437784189
 31
0.0
  0
LINE
  5
149
  8
12
 10
361.01994704784158
 20
850.07758437784196
 30
0.0
 11
361.01994704784158
 21
885.57758437784184
 31
0.0
  0
LINE
  5
14A
  8
12
 10
361.01994704784158
 20
850.07758437784196
 30
0.0
 11
361.01994704784158
 21
814.57758437784196
 31
0.0
  0
TEXT
  5
152
  8
L20
 10
208.83260164021689
 20
928.14090170553038
 30
0.0
 40
7.0710678118654746
  1
FIBOX EURONORD II
 41
0.8
  7
SIMPLEX
  0
LINE
  5
154
  8
23
 10
410.66715419381978
 20
850.07758437784196
 30
0.0
 11
536.6671541938199
 21
850.07758437784196
 31
0.0
  0
LINE
  5
155
  8
23
 10
473.6671541938199
 20
893.07758437784196
 30
0.0
 11
473.6671541938199
 21
807.07758437784184
 31
0.0
  0
LINE
  5
16C
  8
12
 10
418.32423792531432
 20
952.13522170784211
 30
0.0
 11
473.6671541938199
 21
952.13522170784233
 31
0.0
  0
LINE
  5
16D
  8
1
 10
415.3416913592115
 20
955.13522170784245
 30
0.0
 11
473.6671541938199
 21
955.13522170784245
 31
0.0
  0
LINE
  5
16E
  8
1
 10
414.66715419381978
 20
935.13522170784233
 30
0.0
 11
473.66715419381973
 21
935.13522170784233
 31
0.0
  0
LINE
  5
16F
  8
1
 10
418.16715419381978
 20
934.13522170784233
 30
0.0
 11
473.6671541938199
 21
934.13522170784233
 31
0.0
  0
LINE
  5
170
  8
1
 10
413.78485119381992
 20
953.62201570784225
 30
0.0
 11
533.54945719381976
 21
953.62201570784225
 31
0.0
  0
LINE
  5
171
  8
12
 10
426.758030155352
 20
934.13522170784233
 30
0.0
 11
426.91511388684648
 21
952.13522170784233
 31
0.0
  0
LINE
  5
172
  8
1
 10
413.66715419381978
 20
935.13522170784233
 30
0.0
 11
413.82848535921153
 21
953.62201570784225
 31
0.0
  0
LINE
  5
173
  8
1
 10
415.3416913592115
 20
955.13522170784245
 30
0.0
 11
413.82848535921153
 21
953.62201570784225
 31
0.0
  0
LINE
  5
175
  8
1
 10
413.66715419381978
 20
935.13522170784233
 30
0.0
 11
414.66715419381978
 21
935.13522170784233
 31
0.0
  0
LINE
  5
176
  8
1
 10
417.1671541938199
 20
934.13522170784233
 30
0.0
 11
418.16715419381978
 21
934.13522170784233
 31
0.0
  0
LINE
  5
177
  8
1
 10
417.1671541938199
 20
934.13522170784233
 30
0.0
 11
417.1671541938199
 21
935.13522170784233
 31
0.0
  0
LINE
  5
178
  8
12
 10
529.01007046232519
 20
952.13522170784233
 30
0.0
 11
473.6671541938199
 21
952.13522170784233
 31
0.0
  0
LINE
  5
179
  8
1
 10
532.03625119381979
 20
955.13522170784245
 30
0.0
 11
473.6671541938199
 21
955.13522170784245
 31
0.0
  0
LINE
  5
17A
  8
1
 10
529.1671541938199
 20
934.13522170784233
 30
0.0
 11
473.6671541938199
 21
934.13522170784233
 31
0.0
  0
LINE
  5
17B
  8
1
 10
532.6671541938199
 20
935.13522170784233
 30
0.0
 11
473.66715419381973
 21
935.13522170784233
 31
0.0
  0
LINE
  5
17C
  8
23
 10
473.6671541938199
 20
958.03522170784242
 30
0.0
 11
473.6671541938199
 21
928.83522170784215
 31
0.0
  0
LINE
  5
17D
  8
12
 10
520.57627823228768
 20
934.13522170784233
 30
0.0
 11
520.41919450079331
 21
952.13522170784233
 31
0.0
  0
LINE
  5
17E
  8
1
 10
533.6671541938199
 20
935.13522170784233
 30
0.0
 11
533.50582302842815
 21
953.62201570784225
 31
0.0
  0
LINE
  5
180
  8
1
 10
532.03625119381979
 20
955.13522170784245
 30
0.0
 11
533.54945719381976
 21
953.62201570784225
 31
0.0
  0
LINE
  5
181
  8
1
 10
530.1671541938199
 20
934.13522170784233
 30
0.0
 11
529.1671541938199
 21
934.13522170784233
 31
0.0
  0
LINE
  5
182
  8
1
 10
530.1671541938199
 20
934.13522170784233
 30
0.0
 11
530.1671541938199
 21
935.13522170784233
 31
0.0
  0
LINE
  5
183
  8
1
 10
533.6671541938199
 20
935.13522170784233
 30
0.0
 11
532.6671541938199
 21
935.13522170784233
 31
0.0
  0
LINE
  5
184
  8
23
 10
323.43949704799752
 20
850.07758437784196
 30
0.0
 11
197.43949704799749
 21
850.07758437784196
 31
0.0
  0
LINE
  5
185
  8
1
 10
314.43949704799752
 20
890.07758437784184
 30
0.0
 11
206.43949704799749
 21
890.07758437784184
 31
0.0
  0
LINE
  5
186
  8
23
 10
260.43949704799752
 20
893.07758437784196
 30
0.0
 11
260.43949704799752
 21
807.07758437784184
 31
0.0
  0
TEXT
  5
1C2
  8
L20
 10
208.83260164021689
 20
912.14090170553038
 30
0.0
 40
7.0710678118654746
  1
80x120x15 COVER
 41
0.8
  7
SIMPLEX
  0
LINE
  5
1C3
  8
12
 10
361.01994704784158
 20
885.57758437784184
 30
0.0
 11
379.01994704784158
 21
885.57758437784184
 31
0.0
  0
LINE
  5
1C4
  8
12
 10
361.01994704784158
 20
814.57758437784196
 30
0.0
 11
379.01994704784158
 21
814.57758437784196
 31
0.0
  0
LINE
  5
1DD
  8
12
 10
418.16715419381978
 20
934.13522170784233
 30
0.0
 11
418.32423792531432
 21
952.13522170784211
 31
0.0
  0
LINE
  5
1E0
  8
12
 10
529.1671541938199
 20
934.13522170784233
 30
0.0
 11
529.01007046232519
 21
952.13522170784233
 31
0.0
  0
LINE
  5
25F
  8
0
  6
CONTINUOUS
 62
     7
 10
417.9481298799563
 20
884.03905885224879
 30
0.0
 11
418.8410061207457
 21
885.58556586616714
 31
0.0
  0
ARC
  5
260
  8
0
  6
CONTINUOUS
 62
     7
 10
419.66715419381978
 20
884.07758437784184
 30
0.0
 40
2.9500000000000171
 50
85.070227949341543
 51
214.9297720506566
  0
ARC
  5
261
  8
0
  6
CONTINUOUS
 62
     7
 10
419.66715419381978
 20
884.07758437784184
 30
0.0
 40
2.9500000000000042
 50
265.07022794934147
 51
34.929772050656688
  0
LINE
  5
262
  8
0
  6
CONTINUOUS
 62
     7
 10
422.60255290073832
 20
886.72293215323202
 30
0.0
 11
421.32933963001659
 21
884.51766207947105
 31
0.0
  0
ARC
  5
263
  8
0
  6
CONTINUOUS
 62
     7
 10
419.6671541938199
 20
884.07758437784196
 30
0.0
 40
4.0974499545946284
 50
259.15976885781367
 51
40.84023114218656
  0
ARC
  5
264
  8
0
  6
CONTINUOUS
 62
     7
 10
419.66715419381978
 20
884.07758437784184
 30
0.0
 40
4.0974499545946284
 50
79.159768857813717
 51
220.8402311421865
  0
ARC
  5
265
  8
0
  6
CONTINUOUS
 62
     7
 10
419.66715419381978
 20
884.07758437784184
 30
0.0
 40
1.719455962732344
 50
181.2838565197502
 51
194.8292966104261
  0
ARC
  5
266
  8
0
  6
CONTINUOUS
 62
     7
 10
418.58411891034689
 20
880.36277127430014
 30
0.0
 40
0.2999854796546085
 50
253.74571829138691
 51
330.00046429427169
  0
ARC
  5
267
  8
0
  6
CONTINUOUS
 62
     7
 10
416.99154931759051
 20
881.28224175739285
 30
0.0
 40
0.2999854796664052
 50
149.99953570610549
 51
226.2542817073992
  0
ARC
  5
268
  8
0
  6
CONTINUOUS
 62
     7
 10
419.66715419381978
 20
884.07758437784184
 30
0.0
 40
4.16945596273235
 50
226.25381741382549
 51
253.7461825861734
  0
LINE
  5
269
  8
0
  6
CONTINUOUS
 62
     7
 10
416.73175548690131
 20
881.43223660245155
 30
0.0
 11
418.00496875762298
 21
883.63750667621264
 31
0.0
  0
ARC
  5
26A
  8
0
  6
CONTINUOUS
 62
     7
 10
419.66715419381978
 20
884.07758437784184
 30
0.0
 40
1.7194559627323469
 50
1.283856519776269
 51
14.82929661042618
  0
ARC
  5
26B
  8
0
  6
CONTINUOUS
 62
     7
 10
419.66715419381978
 20
884.07758437784184
 30
0.0
 40
1.719455962732354
 50
285.17070338957518
 51
298.71614348026043
  0
LINE
  5
26C
  8
0
  6
CONTINUOUS
 62
     7
 10
420.11712844266822
 20
882.41805071348028
 30
0.0
 11
418.84391517194649
 21
880.21278063971931
 31
0.0
  0
LINE
  5
26D
  8
0
  6
CONTINUOUS
 62
     7
 10
421.38617850768321
 20
884.11610990343502
 30
0.0
 11
420.49330226689381
 21
882.56960288951655
 31
0.0
  0
ARC
  5
26E
  8
0
  6
CONTINUOUS
 62
     7
 10
422.34275907003092
 20
886.87292699829004
 30
0.0
 40
0.29998547967963
 50
329.99953570866347
 51
46.254281705008218
  0
LINE
  5
26F
  8
0
  6
CONTINUOUS
 62
     7
 10
419.21717994497129
 20
885.73711804220329
 30
0.0
 11
420.49039321569308
 21
887.94238811596426
 31
0.0
  0
ARC
  5
270
  8
0
  6
CONTINUOUS
 62
     7
 10
420.75018947729808
 20
887.79239748136774
 30
0.0
 40
0.2999854796682246
 50
73.745718293228776
 51
150.0004642918494
  0
ARC
  5
271
  8
0
  6
CONTINUOUS
 62
     7
 10
419.66715419381978
 20
884.07758437784184
 30
0.0
 40
1.719455962732352
 50
105.17070338957519
 51
118.7161434802576
  0
ARC
  5
272
  8
0
  6
CONTINUOUS
 62
     7
 10
419.66715419381978
 20
884.07758437784184
 30
0.0
 40
4.16945596273235
 50
46.25381741382548
 51
73.746182586173475
  0
LINE
  5
273
  8
0
  6
CONTINUOUS
 62
     7
 10
525.94812987995647
 20
884.11610990343502
 30
0.0
 11
526.84100612074587
 21
882.56960288951655
 31
0.0
  0
LINE
  5
274
  8
0
  6
CONTINUOUS
 62
     7
 10
530.60255290073837
 20
881.43223660245155
 30
0.0
 11
529.32933963001676
 21
883.63750667621264
 31
0.0
  0
ARC
  5
275
  8
0
  6
CONTINUOUS
 62
     7
 10
527.66715419381978
 20
884.07758437784184
 30
0.0
 40
4.0974499545946284
 50
319.15976885781339
 51
100.8402311421862
  0
ARC
  5
276
  8
0
  6
CONTINUOUS
 62
     7
 10
527.66715419381978
 20
884.07758437784196
 30
0.0
 40
4.0974499545946284
 50
139.15976885781339
 51
280.84023114218621
  0
ARC
  5
277
  8
0
  6
CONTINUOUS
 62
     7
 10
527.66715419381978
 20
884.07758437784184
 30
0.0
 40
2.9500000000000042
 50
145.07022794934329
 51
274.92977205065841
  0
ARC
  5
278
  8
0
  6
CONTINUOUS
 62
     7
 10
527.66715419381978
 20
884.07758437784184
 30
0.0
 40
2.9500000000000171
 50
325.07022794934329
 51
94.929772050658443
  0
LINE
  5
279
  8
0
  6
CONTINUOUS
 62
     7
 10
527.21717994497146
 20
882.41805071348028
 30
0.0
 11
528.49039321569319
 21
880.21278063971931
 31
0.0
  0
ARC
  5
27A
  8
0
  6
CONTINUOUS
 62
     7
 10
527.66715419381978
 20
884.07758437784184
 30
0.0
 40
1.719455962732354
 50
241.28385651973949
 51
254.82929661042471
  0
ARC
  5
27B
  8
0
  6
CONTINUOUS
 62
     7
 10
527.66715419381978
 20
884.07758437784184
 30
0.0
 40
4.16945596273235
 50
286.25381741382648
 51
313.74618258617448
  0
ARC
  5
27C
  8
0
  6
CONTINUOUS
 62
     7
 10
530.34275907004917
 20
881.28224175739285
 30
0.0
 40
0.2999854796664052
 50
313.74571829260071
 51
30.000464293894449
  0
ARC
  5
27D
  8
0
  6
CONTINUOUS
 62
     7
 10
528.75018947729279
 20
880.36277127430014
 30
0.0
 40
0.2999854796546085
 50
209.99953570572831
 51
286.25428170861301
  0
ARC
  5
27E
  8
1
 10
527.66715419381978
 20
884.07758437784196
 30
0.0
 40
6.0
 50
0.000000000000007
 51
90.0
  0
ARC
  5
27F
  8
1
 10
527.66715419381978
 20
884.07758437784196
 30
0.0
 40
4.4000000000000004
 50
0.000000000000007
 51
90.0
  0
ARC
  5
280
  8
0
  6
CONTINUOUS
 62
     7
 10
527.66715419381978
 20
884.07758437784184
 30
0.0
 40
4.16945596273235
 50
106.2538174138265
 51
133.74618258617451
  0
ARC
  5
281
  8
0
  6
CONTINUOUS
 62
     7
 10
527.66715419381978
 20
884.07758437784184
 30
0.0
 40
1.719455962732352
 50
61.283856519742379
 51
74.829296610424763
  0
ARC
  5
282
  8
0
  6
CONTINUOUS
 62
     7
 10
526.58411891034154
 20
887.79239748136774
 30
0.0
 40
0.2999854796682246
 50
29.999535708150511
 51
106.2542817067712
  0
LINE
  5
283
  8
0
  6
CONTINUOUS
 62
     7
 10
528.11712844266845
 20
885.73711804220329
 30
0.0
 11
526.84391517194672
 21
887.94238811596426
 31
0.0
  0
ARC
  5
284
  8
0
  6
CONTINUOUS
 62
     7
 10
524.99154931760881
 20
886.87292699829004
 30
0.0
 40
0.29998547967963
 50
133.74571829499169
 51
210.00046429133641
  0
ARC
  5
285
  8
0
  6
CONTINUOUS
 62
     7
 10
527.66715419381978
 20
884.07758437784184
 30
0.0
 40
1.7194559627323469
 50
165.17070338957379
 51
178.71614348022371
  0
ARC
  5
286
  8
0
  6
CONTINUOUS
 62
     7
 10
527.66715419381978
 20
884.07758437784184
 30
0.0
 40
1.719455962732344
 50
345.17070338957382
 51
358.7161434802498
  0
LINE
  5
287
  8
0
  6
CONTINUOUS
 62
     7
 10
524.73175548690142
 20
886.72293215323202
 30
0.0
 11
526.00496875762315
 21
884.51766207947105
 31
0.0
  0
LINE
  5
288
  8
0
  6
CONTINUOUS
 62
     7
 10
529.38617850768333
 20
884.03905885224879
 30
0.0
 11
528.49330226689403
 21
885.58556586616714
 31
0.0
  0
LINE
  5
289
  8
0
  6
CONTINUOUS
 62
     7
 10
421.38617850768321
 20
816.03905885224901
 30
0.0
 11
420.49330226689381
 21
817.58556586616726
 31
0.0
  0
LINE
  5
28A
  8
0
  6
CONTINUOUS
 62
     7
 10
416.73175548690131
 20
818.72293215323225
 30
0.0
 11
418.00496875762298
 21
816.51766207947117
 31
0.0
  0
ARC
  5
28B
  8
0
  6
CONTINUOUS
 62
     7
 10
419.66715419381978
 20
816.07758437784196
 30
0.0
 40
4.0974499545946284
 50
139.15976885781339
 51
280.84023114218621
  0
ARC
  5
28C
  8
0
  6
CONTINUOUS
 62
     7
 10
419.6671541938199
 20
816.07758437784196
 30
0.0
 40
4.0974499545946284
 50
319.15976885781328
 51
100.8402311421862
  0
ARC
  5
28D
  8
0
  6
CONTINUOUS
 62
     7
 10
419.66715419381978
 20
816.07758437784196
 30
0.0
 40
2.9500000000000042
 50
325.07022794934318
 51
94.929772050658428
  0
ARC
  5
28E
  8
0
  6
CONTINUOUS
 62
     7
 10
419.66715419381978
 20
816.07758437784196
 30
0.0
 40
2.9500000000000171
 50
145.07022794934329
 51
274.92977205065841
  0
LINE
  5
28F
  8
0
  6
CONTINUOUS
 62
     7
 10
420.11712844266822
 20
817.73711804220375
 30
0.0
 11
418.84391517194649
 21
819.9423881159646
 31
0.0
  0
ARC
  5
290
  8
0
  6
CONTINUOUS
 62
     7
 10
419.66715419381978
 20
816.07758437784196
 30
0.0
 40
1.719455962732354
 50
61.28385651973953
 51
74.829296610424777
  0
ARC
  5
291
  8
0
  6
CONTINUOUS
 62
     7
 10
419.66715419381978
 20
816.07758437784196
 30
0.0
 40
4.16945596273235
 50
106.2538174138265
 51
133.74618258617451
  0
ARC
  5
292
  8
0
  6
CONTINUOUS
 62
     7
 10
416.99154931759051
 20
818.87292699829106
 30
0.0
 40
0.2999854796664052
 50
133.74571829260071
 51
210.0004642938944
  0
ARC
  5
293
  8
0
  6
CONTINUOUS
 62
     7
 10
418.58411891034689
 20
819.79239748138366
 30
0.0
 40
0.2999854796546085
 50
29.999535705728331
 51
106.25428170861299
  0
ARC
  5
294
  8
1
 10
419.6671541938199
 20
816.07758437784196
 30
0.0
 40
6.0
 50
180.0
 51
270.0
  0
ARC
  5
295
  8
1
 10
419.6671541938199
 20
816.07758437784196
 30
0.0
 40
4.4000000000000004
 50
180.0
 51
270.0
  0
ARC
  5
296
  8
0
  6
CONTINUOUS
 62
     7
 10
419.66715419381978
 20
816.07758437784196
 30
0.0
 40
4.16945596273235
 50
286.25381741382648
 51
313.74618258617443
  0
ARC
  5
297
  8
0
  6
CONTINUOUS
 62
     7
 10
419.66715419381978
 20
816.07758437784196
 30
0.0
 40
1.719455962732352
 50
241.2838565197423
 51
254.82929661042471
  0
ARC
  5
298
  8
0
  6
CONTINUOUS
 62
     7
 10
420.75018947729808
 20
812.36277127431606
 30
0.0
 40
0.2999854796682246
 50
209.99953570815049
 51
286.25428170677122
  0
LINE
  5
299
  8
0
  6
CONTINUOUS
 62
     7
 10
419.21717994497129
 20
814.41805071348051
 30
0.0
 11
420.49039321569308
 21
812.21278063971954
 31
0.0
  0
ARC
  5
29A
  8
0
  6
CONTINUOUS
 62
     7
 10
422.34275907003092
 20
813.28224175739399
 30
0.0
 40
0.29998547967963
 50
313.74571829499172
 51
30.000464291336499
  0
ARC
  5
29B
  8
0
  6
CONTINUOUS
 62
     7
 10
419.66715419381978
 20
816.07758437784196
 30
0.0
 40
1.7194559627323469
 50
345.17070338957382
 51
358.71614348022359
  0
ARC
  5
29C
  8
0
  6
CONTINUOUS
 62
     7
 10
419.66715419381978
 20
816.07758437784196
 30
0.0
 40
1.719455962732344
 50
165.17070338957379
 51
178.71614348024971
  0
LINE
  5
29D
  8
0
  6
CONTINUOUS
 62
     7
 10
422.60255290073832
 20
813.43223660245178
 30
0.0
 11
421.32933963001659
 21
815.63750667621275
 31
0.0
  0
LINE
  5
29E
  8
0
  6
CONTINUOUS
 62
     7
 10
417.9481298799563
 20
816.11610990343502
 30
0.0
 11
418.8410061207457
 21
814.56960288951677
 31
0.0
  0
ARC
  5
29F
  8
0
  6
CONTINUOUS
 62
     7
 10
527.66715419381978
 20
816.07758437784196
 30
0.0
 40
2.9500000000000171
 50
265.07022794934147
 51
34.929772050656659
  0
ARC
  5
2A0
  8
0
  6
CONTINUOUS
 62
     7
 10
527.66715419381978
 20
816.07758437784196
 30
0.0
 40
2.9500000000000042
 50
85.0702279493416
 51
214.9297720506566
  0
ARC
  5
2A1
  8
0
  6
CONTINUOUS
 62
     7
 10
527.66715419381978
 20
816.07758437784196
 30
0.0
 40
4.0974499545946284
 50
79.159768857813731
 51
220.84023114218661
  0
ARC
  5
2A2
  8
0
  6
CONTINUOUS
 62
     7
 10
527.66715419381978
 20
816.07758437784196
 30
0.0
 40
4.0974499545946284
 50
259.15976885781367
 51
40.84023114218656
  0
LINE
  5
2A3
  8
0
  6
CONTINUOUS
 62
     7
 10
530.60255290073837
 20
818.72293215323225
 30
0.0
 11
529.32933963001676
 21
816.51766207947117
 31
0.0
  0
LINE
  5
2A4
  8
0
  6
CONTINUOUS
 62
     7
 10
525.94812987995647
 20
816.03905885224901
 30
0.0
 11
526.84100612074587
 21
817.58556586616726
 31
0.0
  0
ARC
  5
2A5
  8
0
  6
CONTINUOUS
 62
     7
 10
528.75018947729279
 20
819.79239748138366
 30
0.0
 40
0.2999854796546085
 50
73.745718291386964
 51
150.00046429427161
  0
ARC
  5
2A6
  8
0
  6
CONTINUOUS
 62
     7
 10
530.34275907004917
 20
818.87292699829106
 30
0.0
 40
0.2999854796664052
 50
329.99953570610552
 51
46.254281707399272
  0
ARC
  5
2A7
  8
0
  6
CONTINUOUS
 62
     7
 10
527.66715419381978
 20
816.07758437784196
 30
0.0
 40
4.16945596273235
 50
46.253817413825473
 51
73.746182586173504
  0
ARC
  5
2A8
  8
0
  6
CONTINUOUS
 62
     7
 10
527.66715419381978
 20
816.07758437784196
 30
0.0
 40
1.719455962732354
 50
105.17070338957519
 51
118.7161434802604
  0
LINE
  5
2A9
  8
0
  6
CONTINUOUS
 62
     7
 10
527.21717994497146
 20
817.73711804220375
 30
0.0
 11
528.49039321569319
 21
819.9423881159646
 31
0.0
  0
LINE
  5
2AA
  8
0
  6
CONTINUOUS
 62
     7
 10
529.38617850768333
 20
816.11610990343502
 30
0.0
 11
528.49330226689403
 21
814.56960288951677
 31
0.0
  0
LINE
  5
2AB
  8
0
  6
CONTINUOUS
 62
     7
 10
524.73175548690142
 20
813.43223660245178
 30
0.0
 11
526.00496875762315
 21
815.63750667621275
 31
0.0
  0
ARC
  5
2AC
  8
0
  6
CONTINUOUS
 62
     7
 10
527.66715419381978
 20
816.07758437784196
 30
0.0
 40
1.719455962732344
 50
1.2838565197502321
 51
14.829296610426169
  0
ARC
  5
2AD
  8
0
  6
CONTINUOUS
 62
     7
 10
527.66715419381978
 20
816.07758437784196
 30
0.0
 40
1.7194559627323469
 50
181.28385651977621
 51
194.8292966104261
  0
ARC
  5
2AE
  8
0
  6
CONTINUOUS
 62
     7
 10
524.99154931760881
 20
813.28224175739399
 30
0.0
 40
0.29998547967963
 50
149.9995357086635
 51
226.2542817050082
  0
LINE
  5
2AF
  8
0
  6
CONTINUOUS
 62
     7
 10
528.11712844266845
 20
814.41805071348051
 30
0.0
 11
526.84391517194672
 21
812.21278063971954
 31
0.0
  0
ARC
  5
2B0
  8
0
  6
CONTINUOUS
 62
     7
 10
526.58411891034154
 20
812.36277127431606
 30
0.0
 40
0.2999854796682246
 50
253.74571829322869
 51
330.00046429184943
  0
ARC
  5
2B1
  8
0
  6
CONTINUOUS
 62
     7
 10
527.66715419381978
 20
816.07758437784196
 30
0.0
 40
1.719455962732352
 50
285.17070338957518
 51
298.71614348025759
  0
ARC
  5
2B2
  8
0
  6
CONTINUOUS
 62
     7
 10
527.66715419381978
 20
816.07758437784196
 30
0.0
 40
4.16945596273235
 50
226.25381741382549
 51
253.7461825861734
  0
ARC
  5
2B3
  8
1
 10
527.66715419381978
 20
816.07758437784196
 30
0.0
 40
4.4000000000000004
 50
270.0
 51
0.0
  0
ARC
  5
2B4
  8
1
 10
527.66715419381978
 20
816.07758437784196
 30
0.0
 40
6.0
 50
270.0
 51
0.0
  0
LINE
  5
2B5
  8
12
 10
208.15852136186081
 20
884.11610990343502
 30
0.0
 11
207.2656451210714
 21
882.56960288951655
 31
0.0
  0
LINE
  5
2B6
  8
12
 10
203.5040983410789
 20
881.43223660245155
 30
0.0
 11
204.7773116118006
 21
883.63750667621264
 31
0.0
  0
LINE
  5
2B7
  8
12
 10
206.8894712968459
 20
882.41805071348028
 30
0.0
 11
205.61625802612409
 21
880.21278063971931
 31
0.0
  0
ARC
  5
2B8
  8
12
 10
206.43949704799741
 20
884.07758437784184
 30
0.0
 40
1.719455962732354
 50
285.17070338957518
 51
298.71614348026043
  0
ARC
  5
2B9
  8
12
 10
206.43949704799741
 20
884.07758437784184
 30
0.0
 40
4.16945596273235
 50
226.25381741382549
 51
253.7461825861734
  0
ARC
  5
2BA
  8
12
 10
203.76389217176819
 20
881.28224175739285
 30
0.0
 40
0.2999854796664052
 50
149.99953570610549
 51
226.2542817073992
  0
ARC
  5
2BB
  8
12
 10
205.3564617645246
 20
880.36277127430014
 30
0.0
 40
0.2999854796546085
 50
253.74571829138691
 51
330.00046429427169
  0
ARC
  5
2BC
  8
12
 10
206.43949704799741
 20
884.07758437784184
 30
0.0
 40
4.16945596273235
 50
46.25381741382548
 51
73.746182586173475
  0
ARC
  5
2BD
  8
12
 10
206.43949704799741
 20
884.07758437784184
 30
0.0
 40
1.719455962732352
 50
105.17070338957519
 51
118.7161434802576
  0
ARC
  5
2BE
  8
12
 10
207.5225323314757
 20
887.79239748136774
 30
0.0
 40
0.2999854796682246
 50
73.745718293228776
 51
150.0004642918494
  0
LINE
  5
2BF
  8
12
 10
205.98952279914889
 20
885.73711804220329
 30
0.0
 11
207.2627360698707
 21
887.94238811596426
 31
0.0
  0
ARC
  5
2C0
  8
12
 10
209.1151019242084
 20
886.87292699829004
 30
0.0
 40
0.29998547967963
 50
329.99953570866347
 51
46.254281705008218
  0
ARC
  5
2C1
  8
12
 10
206.43949704799741
 20
884.07758437784184
 30
0.0
 40
1.7194559627323469
 50
1.283856519776269
 51
14.82929661042618
  0
ARC
  5
2C2
  8
12
 10
206.43949704799741
 20
884.07758437784184
 30
0.0
 40
1.719455962732344
 50
181.2838565197502
 51
194.8292966104261
  0
LINE
  5
2C3
  8
12
 10
209.374895754916
 20
886.72293215323202
 30
0.0
 11
208.10168248419421
 21
884.51766207947105
 31
0.0
  0
LINE
  5
2C4
  8
12
 10
204.72047273413401
 20
884.03905885224879
 30
0.0
 11
205.61334897492341
 21
885.58556586616714
 31
0.0
  0
LINE
  5
2C5
  8
12
 10
317.37489575491611
 20
881.43223660245155
 30
0.0
 11
316.10168248419438
 21
883.63750667621264
 31
0.0
  0
LINE
  5
2C6
  8
12
 10
312.7204727341342
 20
884.11610990343502
 30
0.0
 11
313.6133489749235
 21
882.56960288951655
 31
0.0
  0
ARC
  5
2C7
  8
12
 10
315.52253233147042
 20
880.36277127430014
 30
0.0
 40
0.2999854796546085
 50
209.99953570572831
 51
286.25428170861301
  0
ARC
  5
2C8
  8
12
 10
317.11510192422679
 20
881.28224175739285
 30
0.0
 40
0.2999854796664052
 50
313.74571829260071
 51
30.000464293894449
  0
ARC
  5
2C9
  8
12
 10
314.43949704799752
 20
884.07758437784184
 30
0.0
 40
4.16945596273235
 50
286.25381741382648
 51
313.74618258617448
  0
ARC
  5
2CA
  8
12
 10
314.43949704799752
 20
884.07758437784184
 30
0.0
 40
1.719455962732354
 50
241.28385651973949
 51
254.82929661042471
  0
LINE
  5
2CB
  8
12
 10
313.98952279914909
 20
882.41805071348028
 30
0.0
 11
315.26273606987081
 21
880.21278063971931
 31
0.0
  0
LINE
  5
2CC
  8
12
 10
311.50409834107899
 20
886.72293215323202
 30
0.0
 11
312.77731161180083
 21
884.51766207947105
 31
0.0
  0
ARC
  5
2CD
  8
12
 10
311.76389217178649
 20
886.87292699829004
 30
0.0
 40
0.29998547967963
 50
133.74571829499169
 51
210.00046429133641
  0
LINE
  5
2CE
  8
12
 10
314.88947129684601
 20
885.73711804220329
 30
0.0
 11
313.61625802612429
 21
887.94238811596426
 31
0.0
  0
ARC
  5
2CF
  8
12
 10
313.35646176451928
 20
887.79239748136774
 30
0.0
 40
0.2999854796682246
 50
29.999535708150511
 51
106.2542817067712
  0
ARC
  5
2D0
  8
12
 10
314.43949704799752
 20
884.07758437784184
 30
0.0
 40
4.16945596273235
 50
106.2538174138265
 51
133.74618258617451
  0
LINE
  5
2D1
  8
12
 10
316.15852136186101
 20
884.03905885224879
 30
0.0
 11
315.2656451210716
 21
885.58556586616714
 31
0.0
  0
ARC
  5
2D2
  8
12
 10
314.43949704799752
 20
884.07758437784184
 30
0.0
 40
1.719455962732344
 50
345.17070338957382
 51
358.7161434802498
  0
ARC
  5
2D3
  8
12
 10
314.43949704799752
 20
884.07758437784184
 30
0.0
 40
1.7194559627323469
 50
165.17070338957379
 51
178.71614348022371
  0
ARC
  5
2D4
  8
12
 10
314.43949704799752
 20
884.07758437784184
 30
0.0
 40
1.719455962732352
 50
61.283856519742379
 51
74.829296610424763
  0
LINE
  5
2D5
  8
12
 10
312.7204727341342
 20
816.03905885224901
 30
0.0
 11
313.6133489749235
 21
817.58556586616726
 31
0.0
  0
LINE
  5
2D6
  8
12
 10
317.37489575491611
 20
818.72293215323225
 30
0.0
 11
316.10168248419438
 21
816.51766207947117
 31
0.0
  0
LINE
  5
2D7
  8
12
 10
313.98952279914909
 20
817.73711804220375
 30
0.0
 11
315.26273606987081
 21
819.9423881159646
 31
0.0
  0
ARC
  5
2D8
  8
12
 10
314.43949704799752
 20
816.07758437784196
 30
0.0
 40
1.719455962732354
 50
105.17070338957519
 51
118.7161434802604
  0
ARC
  5
2D9
  8
12
 10
314.43949704799752
 20
816.07758437784196
 30
0.0
 40
4.16945596273235
 50
46.253817413825473
 51
73.746182586173504
  0
ARC
  5
2DA
  8
12
 10
317.11510192422679
 20
818.87292699829106
 30
0.0
 40
0.2999854796664052
 50
329.99953570610552
 51
46.254281707399272
  0
ARC
  5
2DB
  8
12
 10
315.52253233147042
 20
819.79239748138366
 30
0.0
 40
0.2999854796546085
 50
73.745718291386964
 51
150.00046429427161
  0
ARC
  5
2DC
  8
12
 10
314.43949704799752
 20
816.07758437784196
 30
0.0
 40
1.719455962732352
 50
285.17070338957518
 51
298.71614348025759
  0
ARC
  5
2DD
  8
12
 10
314.43949704799752
 20
816.07758437784196
 30
0.0
 40
1.7194559627323469
 50
181.28385651977621
 51
194.8292966104261
  0
ARC
  5
2DE
  8
12
 10
314.43949704799752
 20
816.07758437784196
 30
0.0
 40
1.719455962732344
 50
1.2838565197502321
 51
14.829296610426169
  0
LINE
  5
2DF
  8
12
 10
316.15852136186101
 20
816.11610990343502
 30
0.0
 11
315.2656451210716
 21
814.56960288951677
 31
0.0
  0
ARC
  5
2E0
  8
12
 10
314.43949704799752
 20
816.07758437784196
 30
0.0
 40
4.16945596273235
 50
226.25381741382549
 51
253.7461825861734
  0
ARC
  5
2E1
  8
12
 10
313.35646176451928
 20
812.36277127431606
 30
0.0
 40
0.2999854796682246
 50
253.74571829322869
 51
330.00046429184943
  0
LINE
  5
2E2
  8
12
 10
314.88947129684601
 20
814.41805071348051
 30
0.0
 11
313.61625802612429
 21
812.21278063971954
 31
0.0
  0
ARC
  5
2E3
  8
12
 10
311.76389217178649
 20
813.28224175739399
 30
0.0
 40
0.29998547967963
 50
149.9995357086635
 51
226.2542817050082
  0
LINE
  5
2E4
  8
12
 10
311.50409834107899
 20
813.43223660245178
 30
0.0
 11
312.77731161180083
 21
815.63750667621275
 31
0.0
  0
LINE
  5
2E5
  8
12
 10
203.5040983410789
 20
818.72293215323225
 30
0.0
 11
204.7773116118006
 21
816.51766207947117
 31
0.0
  0
LINE
  5
2E6
  8
12
 10
208.15852136186081
 20
816.03905885224901
 30
0.0
 11
207.2656451210714
 21
817.58556586616726
 31
0.0
  0
ARC
  5
2E7
  8
12
 10
205.3564617645246
 20
819.79239748138366
 30
0.0
 40
0.2999854796546085
 50
29.999535705728331
 51
106.25428170861299
  0
ARC
  5
2E8
  8
12
 10
203.76389217176819
 20
818.87292699829106
 30
0.0
 40
0.2999854796664052
 50
133.74571829260071
 51
210.0004642938944
  0
ARC
  5
2E9
  8
12
 10
206.43949704799741
 20
816.07758437784196
 30
0.0
 40
4.16945596273235
 50
106.2538174138265
 51
133.74618258617451
  0
ARC
  5
2EA
  8
12
 10
206.43949704799741
 20
816.07758437784196
 30
0.0
 40
1.719455962732354
 50
61.28385651973953
 51
74.829296610424777
  0
LINE
  5
2EB
  8
12
 10
206.8894712968459
 20
817.73711804220375
 30
0.0
 11
205.61625802612409
 21
819.9423881159646
 31
0.0
  0
LINE
  5
2EC
  8
12
 10
209.374895754916
 20
813.43223660245178
 30
0.0
 11
208.10168248419421
 21
815.63750667621275
 31
0.0
  0
ARC
  5
2ED
  8
12
 10
209.1151019242084
 20
813.28224175739399
 30
0.0
 40
0.29998547967963
 50
313.74571829499172
 51
30.000464291336499
  0
LINE
  5
2EE
  8
12
 10
205.98952279914889
 20
814.41805071348051
 30
0.0
 11
207.2627360698707
 21
812.21278063971954
 31
0.0
  0
ARC
  5
2EF
  8
12
 10
207.5225323314757
 20
812.36277127431606
 30
0.0
 40
0.2999854796682246
 50
209.99953570815049
 51
286.25428170677122
  0
ARC
  5
2F0
  8
12
 10
206.43949704799741
 20
816.07758437784196
 30
0.0
 40
4.16945596273235
 50
286.25381741382648
 51
313.74618258617443
  0
LINE
  5
2F1
  8
12
 10
204.72047273413401
 20
816.11610990343502
 30
0.0
 11
205.61334897492341
 21
814.56960288951677
 31
0.0
  0
ARC
  5
2F2
  8
12
 10
206.43949704799741
 20
816.07758437784196
 30
0.0
 40
1.719455962732344
 50
165.17070338957379
 51
178.71614348024971
  0
ARC
  5
2F3
  8
12
 10
206.43949704799741
 20
816.07758437784196
 30
0.0
 40
1.7194559627323469
 50
345.17070338957382
 51
358.71614348022359
  0
ARC
  5
2F4
  8
12
 10
206.43949704799741
 20
816.07758437784196
 30
0.0
 40
1.719455962732352
 50
241.2838565197423
 51
254.82929661042471
  0
LINE
  5
32B
  8
1
 10
415.3416913592115
 20
745.01994704784147
 30
0.0
 11
473.6671541938199
 21
745.01994704784147
 31
0.0
  0
LINE
  5
32C
  8
12
 10
418.32423792531432
 20
748.0199470478417
 30
0.0
 11
473.6671541938199
 21
748.01994704784158
 31
0.0
  0
LINE
  5
32D
  8
1
 10
413.78485119381992
 20
746.53315304784155
 30
0.0
 11
533.54945719381976
 21
746.53315304784155
 31
0.0
  0
LINE
  5
32E
  8
1
 10
418.16715419381978
 20
766.01994704784147
 30
0.0
 11
473.6671541938199
 21
766.01994704784147
 31
0.0
  0
LINE
  5
32F
  8
1
 10
414.66715419381978
 20
765.01994704784147
 30
0.0
 11
473.66715419381973
 21
765.01994704784147
 31
0.0
  0
LINE
  5
330
  8
12
 10
418.16715419381978
 20
766.01994704784147
 30
0.0
 11
418.32423792531432
 21
748.0199470478417
 31
0.0
  0
LINE
  5
331
  8
12
 10
426.758030155352
 20
766.01994704784147
 30
0.0
 11
426.91511388684648
 21
748.01994704784158
 31
0.0
  0
LINE
  5
332
  8
1
 10
413.66715419381978
 20
765.01994704784147
 30
0.0
 11
413.82848535921153
 21
746.53315304784155
 31
0.0
  0
LINE
  5
333
  8
1
 10
413.66715419381978
 20
765.01994704784147
 30
0.0
 11
414.66715419381978
 21
765.01994704784147
 31
0.0
  0
LINE
  5
334
  8
1
 10
417.1671541938199
 20
766.01994704784147
 30
0.0
 11
417.1671541938199
 21
765.01994704784147
 31
0.0
  0
LINE
  5
335
  8
1
 10
417.1671541938199
 20
766.01994704784147
 30
0.0
 11
418.16715419381978
 21
766.01994704784147
 31
0.0
  0
LINE
  5
336
  8
1
 10
415.3416913592115
 20
745.01994704784147
 30
0.0
 11
413.82848535921153
 21
746.53315304784155
 31
0.0
  0
LINE
  5
337
  8
12
 10
529.1671541938199
 20
766.01994704784147
 30
0.0
 11
529.01007046232519
 21
748.01994704784158
 31
0.0
  0
LINE
  5
338
  8
12
 10
520.57627823228768
 20
766.01994704784147
 30
0.0
 11
520.41919450079331
 21
748.01994704784158
 31
0.0
  0
LINE
  5
339
  8
1
 10
533.6671541938199
 20
765.01994704784147
 30
0.0
 11
533.50582302842815
 21
746.53315304784155
 31
0.0
  0
LINE
  5
33A
  8
23
 10
473.6671541938199
 20
742.11994704784149
 30
0.0
 11
473.6671541938199
 21
771.31994704784165
 31
0.0
  0
LINE
  5
33B
  8
1
 10
532.6671541938199
 20
765.01994704784147
 30
0.0
 11
473.66715419381973
 21
765.01994704784147
 31
0.0
  0
LINE
  5
33C
  8
1
 10
529.1671541938199
 20
766.01994704784147
 30
0.0
 11
473.6671541938199
 21
766.01994704784147
 31
0.0
  0
LINE
  5
33D
  8
1
 10
533.6671541938199
 20
765.01994704784147
 30
0.0
 11
532.6671541938199
 21
765.01994704784147
 31
0.0
  0
LINE
  5
33E
  8
1
 10
530.1671541938199
 20
766.01994704784147
 30
0.0
 11
530.1671541938199
 21
765.01994704784147
 31
0.0
  0
LINE
  5
33F
  8
1
 10
530.1671541938199
 20
766.01994704784147
 30
0.0
 11
529.1671541938199
 21
766.01994704784147
 31
0.0
  0
LINE
  5
340
  8
1
 10
532.03625119381979
 20
745.01994704784147
 30
0.0
 11
473.6671541938199
 21
745.01994704784147
 31
0.0
  0
LINE
  5
341
  8
12
 10
529.01007046232519
 20
748.01994704784158
 30
0.0
 11
473.6671541938199
 21
748.01994704784158
 31
0.0
  0
LINE
  5
342
  8
1
 10
532.03625119381979
 20
745.01994704784147
 30
0.0
 11
533.54945719381976
 21
746.53315304784155
 31
0.0
  0
LINE
  5
343
  8
1
 10
589.31436133979798
 20
888.40304721245025
 30
0.0
 11
589.31436133979798
 21
830.07758437784184
 31
0.0
  0
LINE
  5
344
  8
1
 10
587.80115533979802
 20
889.9162532124501
 30
0.0
 11
587.80115533979802
 21
810.2389155432337
 31
0.0
  0
LINE
  5
345
  8
12
 10
586.3143613397981
 20
850.07758437784196
 30
0.0
 11
586.3143613397981
 21
885.57758437784184
 31
0.0
  0
LINE
  5
346
  8
1
 10
569.3143613397981
 20
889.07758437784184
 30
0.0
 11
569.3143613397981
 21
830.07758437784207
 31
0.0
  0
LINE
  5
347
  8
1
 10
568.31436133979798
 20
885.57758437784184
 30
0.0
 11
568.31436133979798
 21
830.07758437784184
 31
0.0
  0
LINE
  5
348
  8
1
 10
589.31436133979798
 20
811.75212154323378
 30
0.0
 11
589.31436133979798
 21
830.07758437784184
 31
0.0
  0
LINE
  5
349
  8
12
 10
586.3143613397981
 20
850.07758437784196
 30
0.0
 11
586.3143613397981
 21
814.57758437784196
 31
0.0
  0
LINE
  5
34A
  8
1
 10
568.31436133979798
 20
814.57758437784196
 30
0.0
 11
568.31436133979798
 21
830.07758437784184
 31
0.0
  0
LINE
  5
34B
  8
1
 10
569.3143613397981
 20
811.07758437784184
 30
0.0
 11
569.3143613397981
 21
830.07758437784207
 31
0.0
  0
LINE
  5
34C
  8
1
 10
569.3143613397981
 20
810.07758437784196
 30
0.0
 11
587.80115533979802
 21
810.2389155432337
 31
0.0
  0
LINE
  5
34D
  8
12
 10
586.3143613397981
 20
814.57758437784196
 30
0.0
 11
568.31436133979798
 21
814.57758437784196
 31
0.0
  0
LINE
  5
34E
  8
1
 10
589.31436133979798
 20
811.75212154323378
 30
0.0
 11
587.80115533979802
 21
810.2389155432337
 31
0.0
  0
LINE
  5
34F
  8
1
 10
568.31436133979798
 20
813.57758437784196
 30
0.0
 11
568.31436133979798
 21
814.57758437784196
 31
0.0
  0
LINE
  5
350
  8
1
 10
568.31436133979798
 20
813.57758437784196
 30
0.0
 11
569.3143613397981
 21
813.57758437784196
 31
0.0
  0
LINE
  5
351
  8
1
 10
569.3143613397981
 20
810.07758437784196
 30
0.0
 11
569.3143613397981
 21
811.07758437784184
 31
0.0
  0
LINE
  5
352
  8
12
 10
586.3143613397981
 20
832.27758437784189
 30
0.0
 11
568.31436133979798
 21
832.27758437784189
 31
0.0
  0
LINE
  5
353
  8
23
 10
590.41436133979812
 20
850.07758437784196
 30
0.0
 11
561.61436133979805
 21
850.07758437784196
 31
0.0
  0
LINE
  5
354
  8
12
 10
586.3143613397981
 20
885.57758437784184
 30
0.0
 11
568.31436133979798
 21
885.57758437784184
 31
0.0
  0
LINE
  5
355
  8
12
 10
586.3143613397981
 20
867.87758437784214
 30
0.0
 11
568.31436133979798
 21
867.87758437784214
 31
0.0
  0
LINE
  5
356
  8
1
 10
569.3143613397981
 20
890.07758437784184
 30
0.0
 11
587.80115533979802
 21
889.9162532124501
 31
0.0
  0
LINE
  5
357
  8
1
 10
589.31436133979798
 20
888.40304721245025
 30
0.0
 11
587.80115533979802
 21
889.9162532124501
 31
0.0
  0
LINE
  5
358
  8
1
 10
569.3143613397981
 20
890.07758437784184
 30
0.0
 11
569.3143613397981
 21
889.07758437784184
 31
0.0
  0
LINE
  5
359
  8
1
 10
568.31436133979798
 20
886.57758437784196
 30
0.0
 11
568.31436133979798
 21
885.57758437784184
 31
0.0
  0
LINE
  5
35A
  8
1
 10
568.31436133979798
 20
886.57758437784196
 30
0.0
 11
569.3143613397981
 21
886.57758437784196
 31
0.0
  0
ENDSEC
  0
EOF
