  0
SECTION
  2
HEADER
  9
$ACADVER
  1
AC1009
  9
$INSBASE
 10
0.0
 20
0.0
 30
0.0
  9
$EXTMIN
 10
164.4794451716364
 20
-8.7322949624194734
 30
0.0
  9
$EXTMAX
 10
666.4788797684256
 20
309.28959243708692
 30
0.0
  9
$LIMMIN
 10
-456.601528516028
 20
5.0
  9
$LIMMAX
 10
934.40616009549785
 20
1060.276836655748
  9
$ORTHOMODE
 70
     1
  9
$REGENMODE
 70
     1
  9
$FILLMODE
 70
     1
  9
$QTEXTMODE
 70
     0
  9
$MIRRTEXT
 70
     1
  9
$DRAGMODE
 70
     2
  9
$LTSCALE
 40
7.0
  9
$OSMODE
 70
    37
  9
$ATTMODE
 70
     1
  9
$TEXTSIZE
 40
2.5
  9
$TRACEWID
 40
0.05
  9
$TEXTSTYLE
  7
TKKISO
  9
$CLAYER
  8
1
  9
$CELTYPE
  6
BYLAYER
  9
$CECOLOR
 62
   256
  9
$DIMSCALE
 40
1.0
  9
$DIMASZ
 40
2.5
  9
$DIMEXO
 40
0.0625
  9
$DIMDLI
 40
10.0
  9
$DIMRND
 40
0.0
  9
$DIMDLE
 40
0.0
  9
$DIMEXE
 40
1.0
  9
$DIMTP
 40
0.0
  9
$DIMTM
 40
0.0
  9
$DIMTXT
 40
2.5
  9
$DIMCEN
 40
0.09
  9
$DIMTSZ
 40
0.0
  9
$DIMTOL
 70
     0
  9
$DIMLIM
 70
     0
  9
$DIMTIH
 70
     0
  9
$DIMTOH
 70
     0
  9
$DIMSE1
 70
     0
  9
$DIMSE2
 70
     0
  9
$DIMTAD
 70
     1
  9
$DIMZIN
 70
     0
  9
$DIMBLK
  1

  9
$DIMASO
 70
     1
  9
$DIMSHO
 70
     1
  9
$DIMPOST
  1

  9
$DIMAPOST
  1

  9
$DIMALT
 70
     0
  9
$DIMALTD
 70
     2
  9
$DIMALTF
 40
25.399999999999999
  9
$DIMLFAC
 40
1.0
  9
$DIMTOFL
 70
     1
  9
$DIMTVP
 40
0.0
  9
$DIMTIX
 70
     0
  9
$DIMSOXD
 70
     1
  9
$DIMSAH
 70
     1
  9
$DIMBLK1
  1

  9
$DIMBLK2
  1

  9
$DIMSTYLE
  2
STANDARD
  9
$DIMCLRD
 70
     1
  9
$DIMCLRE
 70
     1
  9
$DIMCLRT
 70
     3
  9
$DIMTFAC
 40
1.0
  9
$DIMGAP
 40
0.09
  9
$LUNITS
 70
     2
  9
$LUPREC
 70
     1
  9
$SKETCHINC
 40
0.1
  9
$FILLETRAD
 40
0.0
  9
$AUNITS
 70
     0
  9
$AUPREC
 70
     1
  9
$MENU
  1
caesar
  9
$ELEVATION
 40
0.0
  9
$PELEVATION
 40
0.0
  9
$THICKNESS
 40
0.0
  9
$LIMCHECK
 70
     0
  9
$BLIPMODE
 70
     0
  9
$CHAMFERA
 40
5.0
  9
$CHAMFERB
 40
5.0
  9
$SKPOLY
 70
     0
  9
$TDCREATE
 40
2448643.8599386569
  9
$TDUPDATE
 40
2453620.4657594441
  9
$TDINDWG
 40
0.8846775810000001
  9
$TDUSRTIMER
 40
0.8846775810000001
  9
$USRTIMER
 70
     1
  9
$ANGBASE
 50
0.0
  9
$ANGDIR
 70
     0
  9
$PDMODE
 70
     0
  9
$PDSIZE
 40
0.0
  9
$PLINEWID
 40
0.0
  9
$COORDS
 70
     2
  9
$SPLFRAME
 70
     0
  9
$SPLINETYPE
 70
     6
  9
$SPLINESEGS
 70
     8
  9
$ATTDIA
 70
     0
  9
$ATTREQ
 70
     1
  9
$HANDLING
 70
-16383
  9
$HANDSEED
  5
2A48
  9
$SURFTAB1
 70
     6
  9
$SURFTAB2
 70
     6
  9
$SURFTYPE
 70
     6
  9
$SURFU
 70
     6
  9
$SURFV
 70
     6
  9
$UCSNAME
  2

  9
$UCSORG
 10
0.0
 20
0.0
 30
0.0
  9
$UCSXDIR
 10
1.0
 20
0.0
 30
0.0
  9
$UCSYDIR
 10
0.0
 20
1.0
 30
0.0
  9
$PUCSNAME
  2

  9
$PUCSORG
 10
0.0
 20
0.0
 30
0.0
  9
$PUCSXDIR
 10
1.0
 20
0.0
 30
0.0
  9
$PUCSYDIR
 10
0.0
 20
1.0
 30
0.0
  9
$USERI1
 70
   102
  9
$USERI2
 70
     0
  9
$USERI3
 70
     0
  9
$USERI4
 70
     0
  9
$USERI5
 70
     0
  9
$USERR1
 40
1.0
  9
$USERR2
 40
-10.0
  9
$USERR3
 40
2.5
  9
$USERR4
 40
0.0
  9
$USERR5
 40
0.0
  9
$WORLDVIEW
 70
     1
  9
$SHADEDGE
 70
     3
  9
$SHADEDIF
 70
    70
  9
$TILEMODE
 70
     1
  9
$MAXACTVP
 70
    16
  9
$PLIMCHECK
 70
     0
  9
$PEXTMIN
 10
1.0000000000000000E+020
 20
1.0000000000000000E+020
 30
1.0000000000000000E+020
  9
$PEXTMAX
 10
-1.0000000000000000E+020
 20
-1.0000000000000000E+020
 30
-1.0000000000000000E+020
  9
$PLIMMIN
 10
0.0
 20
0.0
  9
$PLIMMAX
 10
12.0
 20
9.0
  9
$UNITMODE
 70
     0
  9
$VISRETAIN
 70
     0
  9
$PLINEGEN
 70
     0
  9
$PSLTSCALE
 70
     0
  0
ENDSEC
  0
SECTION
  2
TABLES
  0
TABLE
  2
VPORT
 70
     2
  0
VPORT
  2
*ACTIVE
 70
     0
 10
0.0
 20
0.0
 11
1.0
 21
1.0
 12
415.44202946994409
 22
150.25031794588861
 13
0.0
 23
0.0
 14
1.0
 24
1.0
 15
10.0
 25
10.0
 16
0.0
 26
0.0
 36
1.0
 17
0.0
 27
0.0
 37
0.0
 40
324.17034934639639
 41
1.5552208835341359
 42
50.0
 43
0.0
 44
0.0
 50
0.0
 51
0.0
 71
     0
 72
  2000
 73
     1
 74
     0
 75
     0
 76
     0
 77
     0
 78
     0
  0
ENDTAB
  0
TABLE
  2
LTYPE
 70
     3
  0
LTYPE
  2
CONTINUOUS
 70
     0
  3
Solid line
 72
    65
 73
     0
 40
0.0
  0
LTYPE
  2
CENTER
 70
     0
  3
____ _ ____ _ ____ _ ____ _ ____ _ ____ _ ____
 72
    65
 73
     4
 40
2.0
 49
1.25
 49
-0.25
 49
0.25
 49
-0.25
  0
LTYPE
  2
HIDDEN
 70
     0
  3
Hidden __ __ __ __ __ __ __ __ __ __ __ __ __ _
 72
    65
 73
     2
 40
0.375
 49
0.25
 49
-0.125
  0
ENDTAB
  0
TABLE
  2
LAYER
 70
    12
  0
LAYER
  2
0
 70
     0
 62
     7
  6
CONTINUOUS
  0
LAYER
  2
L22
 70
     0
 62
     1
  6
CONTINUOUS
  0
LAYER
  2
DEFPOINTS
 70
     0
 62
    -7
  6
CONTINUOUS
  0
LAYER
  2
L20
 70
     0
 62
     3
  6
CONTINUOUS
  0
LAYER
  2
1
 70
     0
 62
     7
  6
CONTINUOUS
  0
LAYER
  2
21
 70
     0
 62
     7
  6
CONTINUOUS
  0
LAYER
  2
23
 70
     0
 62
     1
  6
CENTER
  0
LAYER
  2
41
 70
     0
 62
     7
  6
CONTINUOUS
  0
LAYER
  2
51
 70
     0
 62
     7
  6
CONTINUOUS
  0
LAYER
  2
52
 70
     0
 62
     1
  6
HIDDEN
  0
LAYER
  2
61
 70
     0
 62
     7
  6
CONTINUOUS
  0
LAYER
  2
62
 70
     0
 62
     1
  6
CONTINUOUS
  0
ENDTAB
  0
TABLE
  2
STYLE
 70
     3
  0
STYLE
  2
STANDARD
 70
     0
 40
0.0
 41
1.0
 50
0.0
 71
     0
 42
2.5
  3
caeiso
  4

  0
STYLE
  2
SIMPLEX
 70
     0
 40
0.0
 41
0.8
 50
0.0
 71
     0
 42
2.5
  3
KIRJAIN
  4

  0
STYLE
  2
TKKISO
 70
     0
 40
0.0
 41
1.0
 50
0.0
 71
     0
 42
2.5
  3
caeiso
  4

  0
ENDTAB
  0
TABLE
  2
VIEW
 70
     0
  0
ENDTAB
  0
TABLE
  2
UCS
 70
     0
  0
ENDTAB
  0
TABLE
  2
APPID
 70
     2
  0
APPID
  2
ACAD
 70
     0
  0
APPID
  2
DCO15
 70
     0
  0
ENDTAB
  0
TABLE
  2
DIMSTYLE
 70
     1
  0
DIMSTYLE
  2
STANDARD
 70
     0
  3

  4

  5

  6

  7

 40
1.0
 41
0.18
 42
0.0625
 43
0.38
 44
0.18
 45
0.0
 46
0.0
 47
0.0
 48
0.0
140
0.18
141
0.09
142
0.0
143
25.399999999999999
144
1.0
145
0.0
146
1.0
147
0.09
 71
     0
 72
     0
 73
     1
 74
     1
 75
     0
 76
     0
 77
     0
 78
     0
170
     0
171
     2
172
     0
173
     0
174
     0
175
     0
176
     0
177
     0
178
     0
  0
ENDTAB
  0
ENDSEC
  0
SECTION
  2
BLOCKS
  0
BLOCK
  8
0
  2
$MODEL_SPACE
 70
     0
 10
0.0
 20
0.0
 30
0.0
  3
$MODEL_SPACE
  1

  0
ENDBLK
  5
86
  8
0
  0
BLOCK
 67
     1
  8
0
  2
$PAPER_SPACE
 70
     0
 10
0.0
 20
0.0
 30
0.0
  3
$PAPER_SPACE
  1

  0
ENDBLK
  5
84
 67
     1
  8
0
  0
BLOCK
  8
0
  2
TKK-ACAD
 70
     0
 10
0.0
 20
0.0
 30
0.0
  3
TKK-ACAD
  1

  0
ENDBLK
  5
88
  8
0
  0
ENDSEC
  0
SECTION
  2
ENTITIES
  0
INSERT
  5
89
  8
0
  2
TKK-ACAD
 10
387.69019597505729
 20
522.0663370813196
 30
0.0
  0
INSERT
  5
8A
  8
L22
  2
TKK-ACAD
 10
0.0
 20
0.0
 30
0.0
  0
ARC
  5
8C
  8
21
 10
438.16587730501158
 20
116.2786487373338
 30
0.0
 40
6.0
 50
180.0
 51
270.0
  0
LINE
  5
8D
  8
21
 10
438.16587730501158
 20
110.2786487373338
 30
0.0
 11
546.16587730501158
 21
110.2786487373338
 31
0.0
  0
ARC
  5
8E
  8
21
 10
438.16587730501158
 20
184.27864873733381
 30
0.0
 40
6.0
 50
90.0
 51
180.0
  0
ARC
  5
8F
  8
62
 10
546.14611845367392
 20
133.9868331215348
 30
0.0
 40
4.4197664291365397
 50
274.14882846038688
 51
359.89390142032443
  0
LINE
  5
90
  8
21
 10
546.16587730501169
 20
190.27864873733381
 30
0.0
 11
492.16587730501158
 21
190.27864873733401
 31
0.0
  0
ARC
  5
91
  8
21
 10
546.16587730501158
 20
116.2786487373338
 30
0.0
 40
6.0
 50
270.0
 51
0.0
  0
LINE
  5
92
  8
21
 10
552.16587730501146
 20
116.2786487373338
 30
0.0
 11
552.16587730501158
 21
184.27864873733381
 31
0.0
  0
ARC
  5
94
  8
62
 10
546.15768603215224
 20
166.57525580102231
 30
0.0
 40
4.4081925786119891
 50
0.044099922254053
 51
89.893533077755635
  0
LINE
  5
95
  8
21
 10
540.46587730501142
 20
124.9786487373337
 30
0.0
 11
540.46587730501142
 21
116.2786487373338
 31
0.0
  0
ARC
  5
96
  8
62
 10
438.16587730501158
 20
133.9786487373338
 30
0.0
 40
4.4000000000000004
 50
180.0
 51
270.0
  0
ARC
  5
97
  8
62
 10
446.86587730501151
 20
184.27864873733381
 30
0.0
 40
4.4000000000000004
 50
90.0
 51
180.0
  0
LINE
  5
98
  8
21
 10
432.16587730501158
 20
184.27864873733381
 30
0.0
 11
432.16587730501158
 21
116.2786487373338
 31
0.0
  0
ARC
  5
99
  8
62
 10
537.46587730501153
 20
184.27864873733381
 30
0.0
 40
4.4000000000000004
 50
0.0
 51
90.0
  0
ARC
  5
9A
  8
62
 10
438.16587730501158
 20
166.57864873733379
 30
0.0
 40
4.4000000000000004
 50
90.0
 51
180.0
  0
ARC
  5
9B
  8
62
 10
446.86587730501151
 20
116.2786487373338
 30
0.0
 40
4.4000000000000004
 50
180.0
 51
270.0
  0
ARC
  5
9C
  8
62
 10
537.46587730501153
 20
116.2786487373338
 30
0.0
 40
4.4000000000000004
 50
270.0
 51
0.0
  0
ARC
  5
9D
  8
61
 10
537.46587730501153
 20
184.27864873733381
 30
0.0
 40
3.0
 50
0.0
 51
90.0
  0
ARC
  5
9E
  8
21
 10
537.46587730501153
 20
116.2786487373338
 30
0.0
 40
3.0
 50
270.0
 51
0.0
  0
ARC
  5
9F
  8
21
 10
446.86587730501151
 20
116.2786487373338
 30
0.0
 40
3.0
 50
180.0
 51
270.0
  0
ARC
  5
A0
  8
21
 10
446.86587730501151
 20
184.27864873733381
 30
0.0
 40
3.0
 50
90.0
 51
180.0
  0
ARC
  5
A1
  8
61
 10
546.13499953890221
 20
166.56585874783559
 30
0.0
 40
3.030904752203011
 50
0.2417808057611849
 51
83.732644185870896
  0
ARC
  5
A2
  8
21
 10
546.13499953890221
 20
133.99143872683189
 30
0.0
 40
3.0309047522028512
 50
276.26735581412908
 51
359.75821919423993
  0
LINE
  5
A3
  8
21
 10
435.16587730501158
 20
166.57864873733379
 30
0.0
 11
435.16587730501158
 21
133.9786487373338
 31
0.0
  0
LINE
  5
A4
  8
21
 10
549.16587730501146
 20
166.57864873733379
 30
0.0
 11
549.16587730501146
 21
133.9786487373338
 31
0.0
  0
LINE
  5
A5
  8
21
 10
537.46587730501153
 20
113.2786487373338
 30
0.0
 11
446.86587730501151
 21
113.2786487373338
 31
0.0
  0
ARC
  5
A6
  8
21
 10
438.19675507112061
 20
133.99143872683189
 30
0.0
 40
3.0309047522028401
 50
180.24178080575899
 51
263.7326441858728
  0
LINE
  5
A7
  8
21
 10
537.46587730501165
 20
187.27864873733381
 30
0.0
 11
446.86587730501151
 21
187.27864873733381
 31
0.0
  0
ARC
  5
A8
  8
21
 10
438.16587730501158
 20
166.57864873733379
 30
0.0
 40
3.0
 50
90.0
 51
180.0
  0
LINE
  5
A9
  8
62
 10
537.46587730501165
 20
188.6786487373337
 30
0.0
 11
446.86587730501151
 21
188.67864873733379
 31
0.0
  0
LINE
  5
AA
  8
62
 10
550.56587730501155
 20
166.57864873733379
 30
0.0
 11
550.56587730501155
 21
133.9786487373338
 31
0.0
  0
LINE
  5
AB
  8
62
 10
537.46587730501153
 20
111.8786487373338
 30
0.0
 11
446.86587730501151
 21
111.8786487373338
 31
0.0
  0
LINE
  5
AC
  8
62
 10
433.7658773050116
 20
166.57864873733379
 30
0.0
 11
433.7658773050116
 21
133.9786487373338
 31
0.0
  0
ARC
  5
AD
  8
21
 10
546.16587730501158
 20
184.27864873733381
 30
0.0
 40
6.0
 50
0.0
 51
90.0
  0
LINE
  5
AE
  8
62
 10
541.86587730501162
 20
175.5736477373338
 30
0.0
 11
541.86587730501162
 21
184.27864873733381
 31
0.0
  0
LINE
  5
AF
  8
62
 10
442.46587730501159
 20
116.2786487373338
 30
0.0
 11
442.46587730501159
 21
124.98364973733381
 31
0.0
  0
LINE
  5
B0
  8
62
 10
442.46587730501159
 20
184.27864873733381
 30
0.0
 11
442.46587730501159
 21
175.5736477373338
 31
0.0
  0
ARC
  5
B1
  8
62
 10
546.46587730501153
 20
175.5736477373338
 30
0.0
 40
4.5999999999999988
 50
180.0
 51
266.2606649999999
  0
ARC
  5
B2
  8
62
 10
437.86587730501162
 20
175.5736477373338
 30
0.0
 40
4.5999999999999988
 50
273.73933499999998
 51
0.0
  0
ARC
  5
B3
  8
62
 10
437.86587730501162
 20
124.98364973733381
 30
0.0
 40
4.5999999999999988
 50
0.0
 51
86.260665000000046
  0
LINE
  5
B5
  8
62
 10
541.86587730501162
 20
124.9786487373337
 30
0.0
 11
541.86587730501162
 21
116.2786487373338
 31
0.0
  0
ARC
  5
B6
  8
62
 10
546.46587730501153
 20
124.9786487373337
 30
0.0
 40
4.5999999999999988
 50
90.0
 51
180.0
  0
ARC
  5
B7
  8
61
 10
546.46587730501153
 20
175.57864873733379
 30
0.0
 40
6.0
 50
180.0
 51
270.0
  0
LINE
  5
B8
  8
61
 10
540.46587730501142
 20
175.57864873733379
 30
0.0
 11
540.46587730501165
 21
184.27864873733381
 31
0.0
  0
ARC
  5
B9
  8
21
 10
437.85187919032768
 20
175.58444694628349
 30
0.0
 40
6.0140009097645457
 50
272.99284135274308
 51
359.94476007602827
  0
LINE
  5
BA
  8
21
 10
443.86587730501162
 20
184.27864873733381
 30
0.0
 11
443.86587730501162
 21
175.57864873733379
 31
0.0
  0
ARC
  5
BB
  8
21
 10
437.86587730501162
 20
124.9786487373337
 30
0.0
 40
6.0
 50
0.0
 51
90.0
  0
LINE
  5
BC
  8
21
 10
443.86587730501162
 20
116.2786487373338
 30
0.0
 11
443.86587730501162
 21
124.9786487373338
 31
0.0
  0
ARC
  5
BD
  8
21
 10
546.46587730501153
 20
124.9786487373337
 30
0.0
 40
6.0
 50
90.0
 51
180.0
  0
CIRCLE
  5
BE
  8
62
 10
438.16587730501158
 20
125.2836497373338
 30
0.0
 40
2.25
  0
ARC
  5
BF
  8
62
 10
434.5658773050115
 20
128.88364973733371
 30
0.0
 40
0.5
 50
90.0
 51
180.0
  0
LINE
  5
C0
  8
62
 10
434.56587730501161
 20
129.3836497373338
 30
0.0
 11
437.86587730501162
 21
129.3836497373338
 31
0.0
  0
ARC
  5
C1
  8
62
 10
434.5658773050115
 20
121.6836497373337
 30
0.0
 40
0.5
 50
180.0
 51
270.0
  0
LINE
  5
C2
  8
62
 10
441.7658773050116
 20
121.18364973733379
 30
0.0
 11
434.56587730501161
 21
121.18364973733379
 31
0.0
  0
LINE
  5
C3
  8
62
 10
434.0658773050115
 20
121.68364973733379
 30
0.0
 11
434.0658773050115
 21
128.8836497373338
 31
0.0
  0
ARC
  5
C4
  8
62
 10
441.76587730501149
 20
121.6836497373337
 30
0.0
 40
0.5
 50
270.0
 51
0.0
  0
CIRCLE
  5
C5
  8
62
 10
546.16587730501158
 20
184.27864873733381
 30
0.0
 40
1.6000000000000001
  0
CIRCLE
  5
C6
  8
62
 10
546.16587730501158
 20
116.2786487373338
 30
0.0
 40
1.6000000000000001
  0
CIRCLE
  5
C7
  8
62
 10
438.16587730501158
 20
116.2786487373338
 30
0.0
 40
1.6000000000000001
  0
CIRCLE
  5
C8
  8
62
 10
438.16587730501158
 20
184.27864873733381
 30
0.0
 40
1.6000000000000001
  0
CIRCLE
  5
C9
  8
62
 10
546.16587730501158
 20
175.27364773733379
 30
0.0
 40
2.25
  0
ARC
  5
CA
  8
62
 10
549.76587730501149
 20
171.67364773733379
 30
0.0
 40
0.5
 50
270.0
 51
0.0
  0
LINE
  5
CB
  8
62
 10
549.76587730501149
 20
171.17364773733379
 30
0.0
 11
546.46587730501165
 21
171.17364773733379
 31
0.0
  0
ARC
  5
CC
  8
62
 10
549.76587730501149
 20
178.87364773733381
 30
0.0
 40
0.5
 50
0.0
 51
90.0
  0
LINE
  5
CD
  8
62
 10
542.56587730501155
 20
179.37364773733381
 30
0.0
 11
549.76587730501149
 21
179.37364773733381
 31
0.0
  0
LINE
  5
CE
  8
62
 10
542.06587730501155
 20
175.5736477373338
 30
0.0
 11
542.06587730501155
 21
178.87364773733381
 31
0.0
  0
LINE
  5
CF
  8
62
 10
550.26587730501149
 20
178.87364773733381
 30
0.0
 11
550.26587730501149
 21
171.67364773733379
 31
0.0
  0
ARC
  5
D0
  8
62
 10
542.56587730501155
 20
178.87364773733381
 30
0.0
 40
0.5
 50
90.0
 51
180.0
  0
CIRCLE
  5
D1
  8
62
 10
438.16587730501158
 20
175.27364773733379
 30
0.0
 40
2.25
  0
ARC
  5
D2
  8
62
 10
434.56587730501161
 20
171.67364773733379
 30
0.0
 40
0.5
 50
180.0
 51
270.0
  0
LINE
  5
D3
  8
62
 10
434.56587730501161
 20
171.17364773733391
 30
0.0
 11
437.86587730501162
 21
171.17364773733391
 31
0.0
  0
ARC
  5
D4
  8
21
 10
323.94683455627938
 20
111.6786487373337
 30
0.0
 40
0.2
 50
0.0
 51
90.0
  0
LINE
  5
D5
  8
21
 10
323.9468345562795
 20
111.87864873733371
 30
0.0
 11
322.39474010297948
 21
112.15232486605851
 31
0.0
  0
LINE
  5
D8
  8
21
 10
393.64683474998481
 20
150.27864859885329
 30
0.0
 11
393.64683474998481
 21
111.6190345988533
 31
0.0
  0
LINE
  5
D9
  8
21
 10
324.14683455627949
 20
110.2786487373337
 30
0.0
 11
392.65556128548309
 21
110.6190725219177
 31
0.0
  0
ARC
  5
DA
  8
21
 10
392.64683474998469
 20
111.6190345988532
 30
0.0
 40
1.0
 50
270.49999999999989
 51
0.0
  0
LINE
  5
DB
  8
52
 10
390.64683474998481
 20
154.77864859885329
 30
0.0
 11
390.64683474998481
 21
145.77864859885329
 31
0.0
  0
LINE
  5
DC
  8
52
 10
390.64683474998481
 20
186.62408366404509
 30
0.0
 11
390.64683474998481
 21
154.77864859885329
 31
0.0
  0
LINE
  5
DD
  8
52
 10
390.64683474998469
 20
113.9332135336615
 30
0.0
 11
390.64683474998481
 21
145.77864859885329
 31
0.0
  0
ARC
  5
DE
  8
62
 10
434.56587730501161
 20
178.87364773733381
 30
0.0
 40
0.5
 50
90.0
 51
180.0
  0
LINE
  5
DF
  8
62
 10
441.7658773050116
 20
179.3736477373339
 30
0.0
 11
434.56587730501161
 21
179.3736477373339
 31
0.0
  0
LINE
  5
E0
  8
62
 10
434.0658773050115
 20
178.8736477373339
 30
0.0
 11
434.0658773050115
 21
171.67364773733391
 31
0.0
  0
ARC
  5
E1
  8
62
 10
441.7658773050116
 20
178.87364773733381
 30
0.0
 40
0.5
 50
0.0
 51
90.0
  0
CIRCLE
  5
E2
  8
62
 10
546.16587730501158
 20
125.2836497373338
 30
0.0
 40
2.25
  0
ARC
  5
E3
  8
62
 10
549.76587730501149
 20
128.88364973733371
 30
0.0
 40
0.5
 50
0.0
 51
90.0
  0
LINE
  5
E5
  8
62
 10
549.76587730501149
 20
129.38364973733371
 30
0.0
 11
546.46587730501153
 21
129.38364973733371
 31
0.0
  0
LINE
  5
E6
  8
21
 10
393.64683474998481
 20
150.27864859885329
 30
0.0
 11
393.64683474998469
 21
188.9382625988533
 31
0.0
  0
LINE
  5
E7
  8
52
 10
323.6468345562796
 20
113.2786487373337
 30
0.0
 11
390.64683428548312
 21
113.9332134567258
 31
0.0
  0
LINE
  5
E8
  8
21
 10
324.14683455627949
 20
110.2786487373337
 30
0.0
 11
324.14683455627949
 21
111.6786487373337
 31
0.0
  0
ARC
  5
E9
  8
62
 10
549.76587730501149
 20
121.6836497373337
 30
0.0
 40
0.5
 50
270.0
 51
0.0
  0
LINE
  5
EA
  8
62
 10
542.56587730501155
 20
121.1836497373337
 30
0.0
 11
549.76587730501149
 21
121.1836497373337
 31
0.0
  0
LINE
  5
EB
  8
62
 10
550.26587730501149
 20
121.6836497373337
 30
0.0
 11
550.26587730501149
 21
128.88364973733371
 31
0.0
  0
ARC
  5
EC
  8
62
 10
542.56587730501155
 20
121.6836497373337
 30
0.0
 40
0.5
 50
180.0
 51
270.0
  0
CIRCLE
  5
F4
  8
51
 10
281.47944517163643
 20
125.2836497373338
 30
0.0
 40
2.25
  0
CIRCLE
  5
F5
  8
51
 10
281.47944517163643
 20
175.27364773733379
 30
0.0
 40
2.25
  0
ARC
  5
F7
  8
51
 10
173.4794451716364
 20
184.2786487373339
 30
0.0
 40
4.0
 50
90.0
 51
180.0
  0
CIRCLE
  5
F8
  8
51
 10
173.4794451716364
 20
175.2736477373339
 30
0.0
 40
2.25
  0
CIRCLE
  5
F9
  8
51
 10
173.4794451716364
 20
125.2836497373339
 30
0.0
 40
2.25
  0
ARC
  5
FB
  8
51
 10
281.47944517163643
 20
116.2786487373338
 30
0.0
 40
6.0
 50
270.0
 51
0.0
  0
LINE
  5
FC
  8
51
 10
287.47944517163643
 20
116.2786487373338
 30
0.0
 11
287.47944517163643
 21
184.27864873733381
 31
0.0
  0
ARC
  5
FD
  8
51
 10
281.47944517163643
 20
184.27864873733381
 30
0.0
 40
6.0
 50
0.0
 51
90.0
  0
LINE
  5
FE
  8
51
 10
281.47944517163643
 20
190.27864873733381
 30
0.0
 11
173.4794451716364
 21
190.27864873733381
 31
0.0
  0
ARC
  5
FF
  8
51
 10
173.4794451716364
 20
116.2786487373339
 30
0.0
 40
6.0
 50
180.0
 51
270.0
  0
LINE
  5
100
  8
51
 10
173.4794451716364
 20
110.2786487373338
 30
0.0
 11
281.47944517163643
 21
110.2786487373338
 31
0.0
  0
LINE
  5
101
  8
51
 10
167.4794451716364
 20
184.27864873733381
 30
0.0
 11
167.4794451716364
 21
116.2786487373338
 31
0.0
  0
ARC
  5
102
  8
51
 10
173.4794451716364
 20
184.2786487373339
 30
0.0
 40
6.0
 50
90.0
 51
180.0
  0
LINE
  5
103
  8
23
 10
398.78159594759688
 20
150.2786485219176
 30
0.0
 11
317.85287484159761
 21
150.2786487373337
 31
0.0
  0
LINE
  5
104
  8
21
 10
322.14683455627949
 20
112.4477671919621
 30
0.0
 11
322.14683455627949
 21
113.2786487373337
 31
0.0
  0
LINE
  5
105
  8
61
 10
463.91587730501169
 20
110.2786487373338
 30
0.0
 11
520.41587730501146
 21
110.2786487373338
 31
0.0
  0
LINE
  5
106
  8
21
 10
492.16587730501158
 20
190.27864873733381
 30
0.0
 11
438.16587730501158
 21
190.27864873733381
 31
0.0
  0
ARC
  5
107
  8
62
 10
546.46587730501165
 20
175.5736477373338
 30
0.0
 40
4.4000000000000004
 50
180.0
 51
270.0
  0
LINE
  5
108
  8
62
 10
442.2658773050116
 20
175.57364773733391
 30
0.0
 11
442.2658773050116
 21
178.8736477373339
 31
0.0
  0
ARC
  5
109
  8
62
 10
437.86587730501162
 20
175.57364773733391
 30
0.0
 40
4.4000000000000004
 50
270.0
 51
0.0000000000011191
  0
LINE
  5
10A
  8
62
 10
442.2658773050116
 20
124.98364973733391
 30
0.0
 11
442.2658773050116
 21
121.68364973733379
 31
0.0
  0
ARC
  5
10B
  8
62
 10
437.86587730501162
 20
124.98364973733391
 30
0.0
 40
4.4000000000000004
 50
0.0
 51
90.000000000001151
  0
LINE
  5
10C
  8
62
 10
542.06587730501155
 20
124.98364973733381
 30
0.0
 11
542.06587730501155
 21
121.6836497373337
 31
0.0
  0
ARC
  5
10D
  8
62
 10
546.46587730501165
 20
124.98364973733371
 30
0.0
 40
4.4000000000000004
 50
90.000000000001108
 51
179.9999999999994
  0
ARC
  5
10E
  8
21
 10
322.4468345562795
 20
112.4477671919621
 30
0.0
 40
0.3
 50
180.0
 51
259.9999999999996
  0
LINE
  5
11B
  8
41
 10
322.14683455627949
 20
113.2786487373337
 30
0.0
 11
322.14683455627949
 21
187.27864873733381
 31
0.0
  0
CIRCLE
  5
11C
  8
52
 10
492.16587730501158
 20
150.2786487373337
 30
0.0
 40
11.0
  0
CIRCLE
  5
11D
  8
52
 10
227.4794451716364
 20
150.27864873733361
 30
0.0
 40
10.0
  0
CIRCLE
  5
11E
  8
52
 10
227.4794451716364
 20
150.27864873733361
 30
0.0
 40
1.5
  0
INSERT
  5
123
  8
0
  2
TKK-ACAD
 10
462.81815153525741
 20
959.77694463944215
 30
0.0
  0
INSERT
  5
124
  8
L22
  2
TKK-ACAD
 10
75.127955560200149
 20
437.71060755812249
 30
0.0
  0
CIRCLE
  5
125
  8
21
 10
444.16587730501141
 20
150.27864873733381
 30
0.0
 40
4.0
  0
CIRCLE
  5
126
  8
21
 10
540.16587730501158
 20
150.27864873733381
 30
0.0
 40
4.0
  0
CIRCLE
  5
127
  8
21
 10
532.91587730501158
 20
179.27864873733381
 30
0.0
 40
4.0
  0
CIRCLE
  5
128
  8
21
 10
451.41587730501158
 20
179.27864873733381
 30
0.0
 40
4.0
  0
CIRCLE
  5
129
  8
21
 10
532.91587730501158
 20
121.2786487373338
 30
0.0
 40
4.0
  0
CIRCLE
  5
12A
  8
21
 10
451.41587730501152
 20
121.2786487373338
 30
0.0
 40
4.0
  0
CIRCLE
  5
12B
  8
21
 10
472.16587730501152
 20
121.2786487373338
 30
0.0
 40
4.0
  0
CIRCLE
  5
12C
  8
21
 10
512.16587730501169
 20
121.2786487373338
 30
0.0
 40
4.0
  0
CIRCLE
  5
12D
  8
21
 10
472.16587730501158
 20
179.27864873733381
 30
0.0
 40
4.0
  0
CIRCLE
  5
12E
  8
21
 10
512.16587730501169
 20
179.27864873733381
 30
0.0
 40
4.0
  0
CIRCLE
  5
12F
  8
21
 10
451.41587730501158
 20
121.2786487373338
 30
0.0
 40
2.7999999999999989
  0
CIRCLE
  5
130
  8
21
 10
451.41587730501158
 20
121.2786487373338
 30
0.0
 40
2.0
  0
CIRCLE
  5
131
  8
21
 10
472.16587730501158
 20
121.2786487373338
 30
0.0
 40
2.7999999999999989
  0
CIRCLE
  5
132
  8
21
 10
472.16587730501158
 20
121.2786487373338
 30
0.0
 40
2.0
  0
CIRCLE
  5
133
  8
21
 10
444.16587730501169
 20
150.27864873733381
 30
0.0
 40
2.7999999999999989
  0
CIRCLE
  5
134
  8
21
 10
444.16587730501169
 20
150.27864873733381
 30
0.0
 40
2.0
  0
CIRCLE
  5
135
  8
21
 10
451.41587730501209
 20
179.27864873733381
 30
0.0
 40
2.7999999999999989
  0
CIRCLE
  5
136
  8
21
 10
451.41587730501209
 20
179.27864873733381
 30
0.0
 40
2.0
  0
CIRCLE
  5
137
  8
21
 10
472.1658773050122
 20
179.27864873733381
 30
0.0
 40
2.7999999999999989
  0
CIRCLE
  5
138
  8
21
 10
472.1658773050122
 20
179.27864873733381
 30
0.0
 40
2.0
  0
CIRCLE
  5
139
  8
21
 10
532.91587730501158
 20
121.2786487373338
 30
0.0
 40
2.7999999999999989
  0
CIRCLE
  5
13A
  8
21
 10
532.91587730501158
 20
121.2786487373338
 30
0.0
 40
2.0
  0
CIRCLE
  5
13B
  8
21
 10
540.16587730501158
 20
150.27864873733381
 30
0.0
 40
2.7999999999999989
  0
CIRCLE
  5
13C
  8
21
 10
540.16587730501158
 20
150.27864873733381
 30
0.0
 40
2.0
  0
CIRCLE
  5
13D
  8
21
 10
512.16587730501169
 20
121.2786487373338
 30
0.0
 40
2.0
  0
CIRCLE
  5
13E
  8
21
 10
512.16587730501169
 20
121.2786487373338
 30
0.0
 40
2.7999999999999989
  0
CIRCLE
  5
13F
  8
21
 10
512.16587730501101
 20
179.27864873733381
 30
0.0
 40
2.7999999999999989
  0
CIRCLE
  5
140
  8
21
 10
512.16587730501101
 20
179.27864873733381
 30
0.0
 40
2.0
  0
CIRCLE
  5
141
  8
21
 10
532.91587730501089
 20
179.27864873733381
 30
0.0
 40
2.0
  0
CIRCLE
  5
142
  8
21
 10
532.91587730501089
 20
179.27864873733381
 30
0.0
 40
2.7999999999999989
  0
LINE
  5
152
  8
21
 10
324.14683455627949
 20
111.6786487373337
 30
0.0
 11
324.14683455627949
 21
150.2786487373337
 31
0.0
  0
ARC
  5
155
  8
41
 10
322.4468345562795
 20
188.10953028270521
 30
0.0
 40
0.3
 50
100.0000000000004
 51
180.0
  0
LINE
  5
156
  8
41
 10
322.14683455627949
 20
188.10953028270521
 30
0.0
 11
322.14683455627949
 21
187.2786487373337
 31
0.0
  0
LINE
  5
157
  8
41
 10
324.14683455627949
 20
190.27864873733361
 30
0.0
 11
324.14683455627949
 21
188.87864873733361
 31
0.0
  0
LINE
  5
158
  8
52
 10
323.6468345562796
 20
187.27864873733361
 30
0.0
 11
390.64683428548318
 21
186.6240835871094
 31
0.0
  0
ARC
  5
159
  8
21
 10
392.64683474998469
 20
188.9382625988533
 30
0.0
 40
1.0
 50
0.0
 51
89.500000000000014
  0
LINE
  5
15A
  8
21
 10
324.14683455627949
 20
190.27864873733361
 30
0.0
 11
392.65556128548309
 21
189.9382245219175
 31
0.0
  0
LINE
  5
15D
  8
41
 10
323.9468345562795
 20
188.67864873733359
 30
0.0
 11
322.39474010297948
 21
188.40497260860889
 31
0.0
  0
ARC
  5
15E
  8
41
 10
323.94683455627938
 20
188.87864873733369
 30
0.0
 40
0.2
 50
270.0
 51
0.0
  0
LINE
  5
160
  8
41
 10
324.14683455627949
 20
188.87864873733369
 30
0.0
 11
324.14683455627949
 21
150.2786487373337
 31
0.0
  0
POLYLINE
  5
161
  8
52
 66
     1
 10
0.0
 20
0.0
 30
0.0
  0
VERTEX
  5
2A16
  8
52
 10
390.64483203206743
 20
154.27864859885329
 30
0.0
  0
VERTEX
  5
2A17
  8
52
 10
384.8468345693181
 20
154.27864859885329
 30
0.0
  0
VERTEX
  5
2A18
  8
52
 10
384.8468345693181
 20
146.27864859885329
 30
0.0
  0
VERTEX
  5
2A19
  8
52
 10
390.64483203206748
 20
146.27864859885329
 30
0.0
  0
SEQEND
  5
2A1A
  8
52
  0
TEXT
  5
1D5
  8
L20
 10
256.25395729670669
 20
236.6421100892795
 30
0.0
 40
9.2438143745674335
  1
FIBOX EURONORD II
 41
0.8
  7
SIMPLEX
  0
LINE
  5
1D7
  8
23
 10
492.16587730501158
 20
193.27864873733401
 30
0.0
 11
492.16587730501152
 21
107.2786487373338
 31
0.0
  0
LINE
  5
1D8
  8
23
 10
429.16587730501158
 20
150.27864873733381
 30
0.0
 11
555.16587730501169
 21
150.2786487373337
 31
0.0
  0
LINE
  5
1D9
  8
23
 10
227.4794451716364
 20
193.27864873733381
 30
0.0
 11
227.4794451716364
 21
107.2786487373338
 31
0.0
  0
LINE
  5
1DA
  8
23
 10
290.47944517163643
 20
150.27864873733381
 30
0.0
 11
164.4794451716364
 21
150.27864873733381
 31
0.0
  0
TEXT
  5
1E0
  8
L20
 10
256.25395729670669
 20
220.180734841419
 30
0.0
 40
9.2438143745674335
  1
80x120x70 BASE
 41
0.8
  7
SIMPLEX
  0
LINE
  5
2B3
  8
52
 10
323.6468345562796
 20
169.57864873733371
 30
0.0
 11
390.64683428548318
 21
168.92408358710941
 31
0.0
  0
LINE
  5
2B4
  8
52
 10
323.6468345562796
 20
130.97864873733371
 30
0.0
 11
390.64683428548318
 21
131.63321345672571
 31
0.0
  0
LINE
  5
1199
  8
23
 10
585.55015866242638
 20
150.2786485219176
 30
0.0
 11
666.4788797684256
 21
150.2786487373337
 31
0.0
  0
LINE
  5
119A
  8
52
 10
660.68492005374355
 20
113.2786487373337
 30
0.0
 11
593.68492032454014
 21
113.9332134567258
 31
0.0
  0
LINE
  5
119B
  8
21
 10
660.18492005374355
 20
110.2786487373337
 30
0.0
 11
591.67619332454012
 21
110.6190725219177
 31
0.0
  0
LINE
  5
119C
  8
52
 10
660.68492005374355
 20
130.97864873733371
 30
0.0
 11
593.68492032454003
 21
131.63321345672571
 31
0.0
  0
LINE
  5
119D
  8
52
 10
660.68492005374355
 20
169.57864873733371
 30
0.0
 11
593.68492032454003
 21
168.92408358710941
 31
0.0
  0
LINE
  5
119E
  8
52
 10
660.68492005374355
 20
187.27864873733361
 30
0.0
 11
593.68492032454003
 21
186.6240835871094
 31
0.0
  0
LINE
  5
119F
  8
21
 10
660.18492005374355
 20
190.27864873733361
 30
0.0
 11
591.67619332454012
 21
189.9382245219175
 31
0.0
  0
LINE
  5
11A0
  8
21
 10
660.18492005374355
 20
111.6786487373337
 30
0.0
 11
660.18492005374355
 21
150.2786487373337
 31
0.0
  0
LINE
  5
11A1
  8
41
 10
662.18492005374378
 20
113.2786487373337
 30
0.0
 11
662.18492005374355
 21
187.27864873733381
 31
0.0
  0
ARC
  5
11A2
  8
21
 10
660.38492005374383
 20
111.6786487373337
 30
0.0
 40
0.2
 50
90.0
 51
180.0
  0
LINE
  5
11A3
  8
21
 10
660.18492005374355
 20
110.2786487373337
 30
0.0
 11
660.18492005374355
 21
111.6786487373337
 31
0.0
  0
LINE
  5
11A4
  8
21
 10
662.18492005374378
 20
112.4477671919621
 30
0.0
 11
662.18492005374378
 21
113.2786487373337
 31
0.0
  0
ARC
  5
11A5
  8
21
 10
661.88492005374371
 20
112.4477671919621
 30
0.0
 40
0.3
 50
280.00000000000028
 51
0.000000000000007
  0
LINE
  5
11A6
  8
21
 10
660.38492005374371
 20
111.87864873733371
 30
0.0
 11
661.93701450704384
 21
112.15232486605851
 31
0.0
  0
LINE
  5
11A7
  8
41
 10
660.18492005374355
 20
188.87864873733369
 30
0.0
 11
660.18492005374355
 21
150.2786487373337
 31
0.0
  0
LINE
  5
11A8
  8
41
 10
660.18492005374355
 20
190.27864873733361
 30
0.0
 11
660.18492005374355
 21
188.87864873733361
 31
0.0
  0
ARC
  5
11A9
  8
41
 10
660.38492005374383
 20
188.87864873733369
 30
0.0
 40
0.2
 50
180.0
 51
270.0
  0
ARC
  5
11AA
  8
41
 10
661.88492005374371
 20
188.10953028270521
 30
0.0
 40
0.3
 50
0.000000000000007
 51
79.999999999999602
  0
LINE
  5
11AB
  8
41
 10
662.18492005374378
 20
188.10953028270521
 30
0.0
 11
662.18492005374378
 21
187.2786487373337
 31
0.0
  0
LINE
  5
11AC
  8
41
 10
660.38492005374371
 20
188.67864873733359
 30
0.0
 11
661.93701450704384
 21
188.40497260860889
 31
0.0
  0
LINE
  5
11AD
  8
52
 10
593.68491986003835
 20
113.9332135336615
 30
0.0
 11
593.68491986003835
 21
145.77864859885329
 31
0.0
  0
LINE
  5
11AE
  8
21
 10
590.68491986003835
 20
150.27864859885329
 30
0.0
 11
590.68491986003835
 21
111.6190345988533
 31
0.0
  0
ARC
  5
11AF
  8
21
 10
591.68491986003846
 20
111.6190345988532
 30
0.0
 40
1.0
 50
180.0
 51
269.5
  0
LINE
  5
11B0
  8
21
 10
590.68491986003835
 20
150.27864859885329
 30
0.0
 11
590.68491986003835
 21
188.9382625988533
 31
0.0
  0
LINE
  5
11B1
  8
52
 10
593.68491986003835
 20
186.62408366404509
 30
0.0
 11
593.68491986003835
 21
154.77864859885329
 31
0.0
  0
POLYLINE
  5
11B2
  8
52
 66
     1
 10
0.0
 20
0.0
 30
0.0
  0
VERTEX
  5
2A1B
  8
52
 10
593.68692257795578
 20
154.27864859885329
 30
0.0
  0
VERTEX
  5
2A1C
  8
52
 10
599.48492004070522
 20
154.27864859885329
 30
0.0
  0
VERTEX
  5
2A1D
  8
52
 10
599.48492004070522
 20
146.27864859885329
 30
0.0
  0
VERTEX
  5
2A1E
  8
52
 10
593.68692257795578
 20
146.27864859885329
 30
0.0
  0
SEQEND
  5
2A1F
  8
52
  0
LINE
  5
11B3
  8
52
 10
593.68491986003835
 20
154.77864859885329
 30
0.0
 11
593.68491986003835
 21
145.77864859885329
 31
0.0
  0
ARC
  5
11B4
  8
21
 10
591.68491986003846
 20
188.9382625988533
 30
0.0
 40
1.0
 50
90.5
 51
180.0
  0
LINE
  5
11B5
  8
21
 10
492.16587744349209
 20
233.4956325286997
 30
0.0
 11
550.82549144349241
 21
233.4956325286997
 31
0.0
  0
LINE
  5
11B6
  8
52
 10
548.51131250868411
 20
236.4956325286997
 30
0.0
 11
487.66587744349209
 21
236.49563252869979
 31
0.0
  0
LINE
  5
11B7
  8
41
 10
549.16587730501192
 20
304.99563272240499
 30
0.0
 11
435.16587730501141
 21
304.99563272240488
 31
0.0
  0
LINE
  5
11B8
  8
21
 10
550.76587730501205
 20
302.99563272240488
 30
0.0
 11
492.1658773050118
 21
302.99563272240488
 31
0.0
  0
LINE
  5
11B9
  8
21
 10
552.16587730501192
 20
302.99563272240488
 30
0.0
 11
551.82545352042803
 21
234.48690599320139
 31
0.0
  0
LINE
  5
11BA
  8
52
 10
549.16587730501192
 20
303.49563272240488
 30
0.0
 11
548.51131258561975
 21
236.4956329932013
 31
0.0
  0
ARC
  5
11BB
  8
21
 10
550.82549144349241
 20
234.49563252869979
 30
0.0
 40
1.0
 50
270.0
 51
359.5
  0
LINE
  5
11BC
  8
21
 10
550.56587730501201
 20
303.19563272240492
 30
0.0
 11
550.29220117628711
 21
304.74772717570511
 31
0.0
  0
ARC
  5
11BD
  8
21
 10
549.99675885038334
 20
304.69563272240498
 30
0.0
 40
0.3
 50
10.000000000000361
 51
90.000000000000028
  0
LINE
  5
11BE
  8
21
 10
549.99675885038334
 20
304.99563272240499
 30
0.0
 11
549.16587730501192
 21
304.99563272240499
 31
0.0
  0
LINE
  5
11BF
  8
21
 10
552.16587730501192
 20
302.99563272240488
 30
0.0
 11
550.76587730501205
 21
302.99563272240488
 31
0.0
  0
ARC
  5
11C0
  8
21
 10
550.76587730501205
 20
303.19563272240509
 30
0.0
 40
0.2
 50
180.0
 51
270.0
  0
LINE
  5
11C1
  8
21
 10
432.16587730501158
 20
302.99563272240488
 30
0.0
 11
432.50630152042771
 21
234.48690599320139
 31
0.0
  0
LINE
  5
11C2
  8
52
 10
435.16587730501158
 20
303.49563272240488
 30
0.0
 11
435.82044245523588
 21
236.4956329932013
 31
0.0
  0
LINE
  5
11C3
  8
52
 10
443.86587730501162
 20
303.49563272240488
 30
0.0
 11
444.52044245523581
 21
236.4956329932013
 31
0.0
  0
LINE
  5
11C5
  8
23
 10
492.16587752042778
 20
228.36087133108771
 30
0.0
 11
492.1658773050118
 21
309.28959243708692
 31
0.0
  0
LINE
  5
11C6
  8
52
 10
435.82044237830007
 20
236.49563252869979
 30
0.0
 11
487.66587744349209
 21
236.49563252869979
 31
0.0
  0
LINE
  5
11C7
  8
21
 10
492.16587744349209
 20
233.4956325286997
 30
0.0
 11
433.50626344349189
 21
233.4956325286997
 31
0.0
  0
LINE
  5
11C8
  8
52
 10
467.34890772172889
 20
236.49563252869979
 30
0.0
 11
476.34890772172889
 21
236.49563252869979
 31
0.0
  0
POLYLINE
  5
11C9
  8
52
 66
     1
 10
0.0
 20
0.0
 30
0.0
  0
VERTEX
  5
2A20
  8
52
 10
467.84890772172912
 20
236.49763524661711
 30
0.0
  0
VERTEX
  5
2A21
  8
52
 10
467.84890772172912
 20
242.29563270936649
 30
0.0
  0
VERTEX
  5
2A22
  8
52
 10
475.84890772172901
 20
242.29563270936649
 30
0.0
  0
VERTEX
  5
2A23
  8
52
 10
475.84890772172889
 20
236.49763524661711
 30
0.0
  0
SEQEND
  5
2A24
  8
52
  0
ARC
  5
11CA
  8
21
 10
433.50626344349178
 20
234.49563252869979
 30
0.0
 40
1.0
 50
180.49999999999989
 51
270.0
  0
LINE
  5
11CB
  8
41
 10
433.5658773050115
 20
302.99563272240488
 30
0.0
 11
492.1658773050118
 21
302.99563272240488
 31
0.0
  0
LINE
  5
11CC
  8
41
 10
433.7658773050116
 20
303.19563272240498
 30
0.0
 11
434.03955343373627
 21
304.74772717570511
 31
0.0
  0
LINE
  5
11CD
  8
41
 10
434.33499575963998
 20
304.99563272240511
 30
0.0
 11
435.16587730501152
 21
304.99563272240511
 31
0.0
  0
ARC
  5
11CE
  8
41
 10
434.33499575963998
 20
304.69563272240509
 30
0.0
 40
0.3
 50
90.000000000000028
 51
169.99999999999949
  0
ARC
  5
11CF
  8
41
 10
433.5658773050115
 20
303.19563272240509
 30
0.0
 40
0.2
 50
270.0
 51
0.0
  0
LINE
  5
11D0
  8
41
 10
432.16587730501158
 20
302.99563272240488
 30
0.0
 11
433.5658773050115
 21
302.99563272240488
 31
0.0
  0
LINE
  5
11D1
  8
52
 10
540.46587730501176
 20
303.49563272240488
 30
0.0
 11
539.81131215478763
 21
236.4956329932013
 31
0.0
  0
LINE
  5
11D2
  8
52
 10
446.59890772172952
 20
236.49563252869979
 30
0.0
 11
455.59890772172952
 21
236.49563252869979
 31
0.0
  0
POLYLINE
  5
11D3
  8
52
 66
     1
 10
0.0
 20
0.0
 30
0.0
  0
VERTEX
  5
2A25
  8
52
 10
447.09890772172952
 20
236.49763524661711
 30
0.0
  0
VERTEX
  5
2A26
  8
52
 10
447.09890772172952
 20
242.29563270936649
 30
0.0
  0
VERTEX
  5
2A27
  8
52
 10
455.09890772172957
 20
242.29563270936649
 30
0.0
  0
VERTEX
  5
2A28
  8
52
 10
455.09890772172952
 20
236.49763524661711
 30
0.0
  0
SEQEND
  5
2A29
  8
52
  0
POLYLINE
  5
11D4
  8
52
 66
     1
 10
0.0
 20
0.0
 30
0.0
  0
VERTEX
  5
2A2A
  8
52
 10
537.23284731912588
 20
236.49763524661711
 30
0.0
  0
VERTEX
  5
2A2B
  8
52
 10
537.23284731912588
 20
242.29563270936649
 30
0.0
  0
VERTEX
  5
2A2C
  8
52
 10
529.23284731912588
 20
242.29563270936649
 30
0.0
  0
VERTEX
  5
2A2D
  8
52
 10
529.23284731912622
 20
236.49763524661711
 30
0.0
  0
SEQEND
  5
2A2E
  8
52
  0
LINE
  5
11D5
  8
52
 10
537.73284731912622
 20
236.49563252869979
 30
0.0
 11
528.73284731912622
 21
236.49563252869979
 31
0.0
  0
LINE
  5
11D6
  8
52
 10
516.98284731912656
 20
236.49563252869979
 30
0.0
 11
507.98284731912668
 21
236.49563252869979
 31
0.0
  0
POLYLINE
  5
11D7
  8
52
 66
     1
 10
0.0
 20
0.0
 30
0.0
  0
VERTEX
  5
2A2F
  8
52
 10
516.48284731912656
 20
236.49763524661711
 30
0.0
  0
VERTEX
  5
2A30
  8
52
 10
516.48284731912656
 20
242.29563270936649
 30
0.0
  0
VERTEX
  5
2A31
  8
52
 10
508.48284731912662
 20
242.29563270936649
 30
0.0
  0
VERTEX
  5
2A32
  8
52
 10
508.48284731912668
 20
236.49763524661711
 30
0.0
  0
SEQEND
  5
2A33
  8
52
  0
LINE
  5
11D8
  8
41
 10
549.16587730501192
 20
-4.438335247737597
 30
0.0
 11
435.16587730501141
 21
-4.4383352477375411
 31
0.0
  0
LINE
  5
11D9
  8
21
 10
492.16587744349209
 20
67.061664945967664
 30
0.0
 11
433.50626344349189
 21
67.061664945967664
 31
0.0
  0
LINE
  5
11DA
  8
52
 10
435.82044237830007
 20
64.061664945967664
 30
0.0
 11
487.66587744349209
 21
64.061664945967664
 31
0.0
  0
LINE
  5
11DB
  8
41
 10
433.5658773050115
 20
-2.4383352477375411
 30
0.0
 11
492.1658773050118
 21
-2.4383352477375411
 31
0.0
  0
LINE
  5
11DC
  8
52
 10
443.86587730501162
 20
-2.9383352477375411
 30
0.0
 11
444.52044245523581
 21
64.061664481466096
 31
0.0
  0
LINE
  5
11DD
  8
52
 10
435.16587730501158
 20
-2.9383352477375411
 30
0.0
 11
435.82044245523588
 21
64.061664481466096
 31
0.0
  0
LINE
  5
11DE
  8
21
 10
432.16587730501158
 20
-2.4383352477375411
 30
0.0
 11
432.50630152042771
 21
66.070391481466004
 31
0.0
  0
ARC
  5
11DF
  8
21
 10
433.50626344349178
 20
66.061664945967607
 30
0.0
 40
1.0
 50
90.000000000000028
 51
179.49999999999989
  0
POLYLINE
  5
11E0
  8
52
 66
     1
 10
0.0
 20
0.0
 30
0.0
  0
VERTEX
  5
2A34
  8
52
 10
447.09890772172952
 20
64.059662228050342
 30
0.0
  0
VERTEX
  5
2A35
  8
52
 10
447.09890772172952
 20
58.2616647653009
 30
0.0
  0
VERTEX
  5
2A36
  8
52
 10
455.09890772172957
 20
58.2616647653009
 30
0.0
  0
VERTEX
  5
2A37
  8
52
 10
455.09890772172952
 20
64.059662228050342
 30
0.0
  0
SEQEND
  5
2A38
  8
52
  0
LINE
  5
11E1
  8
52
 10
446.59890772172952
 20
64.061664945967664
 30
0.0
 11
455.59890772172952
 21
64.061664945967664
 31
0.0
  0
ARC
  5
11E2
  8
41
 10
434.33499575963998
 20
-4.1383352477376434
 30
0.0
 40
0.3
 50
190.00000000000031
 51
270.0
  0
LINE
  5
11E3
  8
41
 10
434.33499575963998
 20
-4.4383352477376539
 30
0.0
 11
435.16587730501152
 21
-4.4383352477376539
 31
0.0
  0
LINE
  5
11E4
  8
41
 10
432.16587730501158
 20
-2.4383352477375411
 30
0.0
 11
433.5658773050115
 21
-2.4383352477375411
 31
0.0
  0
ARC
  5
11E5
  8
41
 10
433.5658773050115
 20
-2.6383352477377571
 30
0.0
 40
0.2
 50
0.0
 51
90.000000000000028
  0
LINE
  5
11E6
  8
41
 10
433.7658773050116
 20
-2.6383352477375861
 30
0.0
 11
434.03955343373627
 21
-4.1904297010377141
 31
0.0
  0
LINE
  5
11E7
  8
52
 10
540.46587730501176
 20
-2.9383352477375411
 30
0.0
 11
539.81131215478763
 21
64.061664481466096
 31
0.0
  0
LINE
  5
11E8
  8
52
 10
549.16587730501192
 20
-2.9383352477374838
 30
0.0
 11
548.51131258561975
 21
64.061664481466039
 31
0.0
  0
LINE
  5
11E9
  8
21
 10
552.16587730501192
 20
-2.4383352477374838
 30
0.0
 11
551.82545352042803
 21
66.070391481466061
 31
0.0
  0
LINE
  5
11EA
  8
23
 10
492.16587752042778
 20
72.196426143579743
 30
0.0
 11
492.1658773050118
 21
-8.7322949624194734
 31
0.0
  0
LINE
  5
11EB
  8
52
 10
548.51131250868411
 20
64.061664945967721
 30
0.0
 11
487.66587744349209
 21
64.061664945967664
 31
0.0
  0
POLYLINE
  5
11EC
  8
52
 66
     1
 10
0.0
 20
0.0
 30
0.0
  0
VERTEX
  5
2A39
  8
52
 10
516.48284731912656
 20
64.059662228050342
 30
0.0
  0
VERTEX
  5
2A3A
  8
52
 10
516.48284731912656
 20
58.2616647653009
 30
0.0
  0
VERTEX
  5
2A3B
  8
52
 10
508.48284731912662
 20
58.2616647653009
 30
0.0
  0
VERTEX
  5
2A3C
  8
52
 10
508.48284731912668
 20
64.059662228050342
 30
0.0
  0
SEQEND
  5
2A3D
  8
52
  0
LINE
  5
11ED
  8
52
 10
516.98284731912656
 20
64.061664945967664
 30
0.0
 11
507.98284731912668
 21
64.061664945967664
 31
0.0
  0
LINE
  5
11EE
  8
21
 10
492.16587744349209
 20
67.061664945967664
 30
0.0
 11
550.82549144349241
 21
67.061664945967721
 31
0.0
  0
LINE
  5
11EF
  8
52
 10
467.34890772172889
 20
64.061664945967664
 30
0.0
 11
476.34890772172889
 21
64.061664945967664
 31
0.0
  0
POLYLINE
  5
11F0
  8
52
 66
     1
 10
0.0
 20
0.0
 30
0.0
  0
VERTEX
  5
2A3E
  8
52
 10
467.84890772172912
 20
64.059662228050342
 30
0.0
  0
VERTEX
  5
2A3F
  8
52
 10
467.84890772172912
 20
58.2616647653009
 30
0.0
  0
VERTEX
  5
2A40
  8
52
 10
475.84890772172901
 20
58.2616647653009
 30
0.0
  0
VERTEX
  5
2A41
  8
52
 10
475.84890772172889
 20
64.059662228050342
 30
0.0
  0
SEQEND
  5
2A42
  8
52
  0
LINE
  5
11F1
  8
52
 10
537.73284731912622
 20
64.061664945967664
 30
0.0
 11
528.73284731912622
 21
64.061664945967664
 31
0.0
  0
POLYLINE
  5
11F2
  8
52
 66
     1
 10
0.0
 20
0.0
 30
0.0
  0
VERTEX
  5
2A43
  8
52
 10
537.23284731912588
 20
64.059662228050342
 30
0.0
  0
VERTEX
  5
2A44
  8
52
 10
537.23284731912588
 20
58.2616647653009
 30
0.0
  0
VERTEX
  5
2A45
  8
52
 10
529.23284731912588
 20
58.2616647653009
 30
0.0
  0
VERTEX
  5
2A46
  8
52
 10
529.23284731912622
 20
64.059662228050342
 30
0.0
  0
SEQEND
  5
2A47
  8
52
  0
ARC
  5
11F3
  8
21
 10
550.82549144349241
 20
66.061664945967664
 30
0.0
 40
1.0
 50
0.499999999999983
 51
90.000000000000028
  0
LINE
  5
11F4
  8
21
 10
550.76587730501205
 20
-2.4383352477374838
 30
0.0
 11
492.1658773050118
 21
-2.4383352477375411
 31
0.0
  0
LINE
  5
11F5
  8
21
 10
552.16587730501192
 20
-2.4383352477374838
 30
0.0
 11
550.76587730501205
 21
-2.4383352477374838
 31
0.0
  0
LINE
  5
11F6
  8
21
 10
549.99675885038334
 20
-4.438335247737597
 30
0.0
 11
549.16587730501192
 21
-4.438335247737597
 31
0.0
  0
ARC
  5
11F7
  8
21
 10
549.99675885038334
 20
-4.1383352477375857
 30
0.0
 40
0.3
 50
270.0
 51
349.9999999999996
  0
ARC
  5
11F8
  8
21
 10
550.76587730501205
 20
-2.6383352477376998
 30
0.0
 40
0.2
 50
90.000000000000028
 51
180.0
  0
LINE
  5
11F9
  8
21
 10
550.56587730501201
 20
-2.6383352477375288
 30
0.0
 11
550.29220117628711
 21
-4.1904297010376581
 31
0.0
  0
LINE
  5
11FA
  8
21
 10
394.64683474998481
 20
171.75971802489579
 30
0.0
 11
394.64683474998469
 21
178.78757744977179
 31
0.0
  0
CIRCLE
  5
11FB
  8
1
 10
281.47944517163643
 20
175.27364773733379
 30
0.0
 40
3.5139297124380269
  0
LINE
  5
11FC
  8
1
 10
393.64683474998469
 20
178.78757744977179
 30
0.0
 11
394.64683474998469
 21
178.78757744977179
 31
0.0
  0
LINE
  5
11FD
  8
1
 10
393.64683474998481
 20
171.75971802489579
 30
0.0
 11
394.64683474998481
 21
171.75971802489579
 31
0.0
  0
LINE
  5
11FE
  8
1
 10
393.64683474998481
 20
121.7697200248958
 30
0.0
 11
394.64683474998481
 21
121.7697200248957
 31
0.0
  0
LINE
  5
11FF
  8
1
 10
393.64683474998469
 20
128.7975794497718
 30
0.0
 11
394.64683474998469
 21
128.7975794497718
 31
0.0
  0
LINE
  5
1200
  8
21
 10
394.64683474998481
 20
121.7697200248957
 30
0.0
 11
394.64683474998469
 21
128.7975794497718
 31
0.0
  0
CIRCLE
  5
1201
  8
1
 10
281.47944517163643
 20
125.2836497373338
 30
0.0
 40
3.5139297124380269
  0
CIRCLE
  5
1202
  8
1
 10
173.4794451716364
 20
175.2736477373339
 30
0.0
 40
3.5139297124380269
  0
CIRCLE
  5
1203
  8
1
 10
173.4794451716364
 20
125.2836497373339
 30
0.0
 40
3.5139297124380269
  0
LINE
  5
1204
  8
1
 10
169.4794451716364
 20
184.2786487373339
 30
0.0
 11
169.4794451716364
 21
179.81188582541921
 31
0.0
  0
LINE
  5
1205
  8
1
 10
169.4794451716364
 20
179.81188582541921
 30
0.0
 11
177.7834187546332
 21
179.81188582541921
 31
0.0
  0
LINE
  5
1206
  8
1
 10
177.7834187546332
 20
179.81188582541921
 30
0.0
 11
177.7834187546332
 21
188.2786487373339
 31
0.0
  0
LINE
  5
1207
  8
1
 10
173.4794451716364
 20
188.2786487373339
 30
0.0
 11
177.7834187546332
 21
188.2786487373339
 31
0.0
  0
ARC
  5
1208
  8
51
 10
281.47944517163643
 20
184.2786487373339
 30
0.0
 40
4.0
 50
0.000000000000007
 51
90.0
  0
LINE
  5
1209
  8
1
 10
281.47944517163643
 20
188.2786487373339
 30
0.0
 11
277.17547158863971
 21
188.2786487373339
 31
0.0
  0
LINE
  5
120A
  8
1
 10
277.17547158863971
 20
179.81188582541921
 30
0.0
 11
277.17547158863971
 21
188.2786487373339
 31
0.0
  0
LINE
  5
120B
  8
1
 10
285.47944517163643
 20
184.2786487373339
 30
0.0
 11
285.47944517163643
 21
179.81188582541921
 31
0.0
  0
LINE
  5
120C
  8
1
 10
285.47944517163643
 20
179.81188582541921
 30
0.0
 11
277.17547158863971
 21
179.81188582541921
 31
0.0
  0
LINE
  5
120D
  8
1
 10
177.7834187546332
 20
120.7454116492483
 30
0.0
 11
177.7834187546332
 21
112.2786487373337
 31
0.0
  0
LINE
  5
120E
  8
1
 10
169.4794451716364
 20
116.2786487373336
 30
0.0
 11
169.4794451716364
 21
120.7454116492483
 31
0.0
  0
ARC
  5
120F
  8
51
 10
173.4794451716364
 20
116.2786487373336
 30
0.0
 40
4.0
 50
180.0
 51
270.0
  0
LINE
  5
1210
  8
1
 10
169.4794451716364
 20
120.7454116492483
 30
0.0
 11
177.7834187546332
 21
120.7454116492483
 31
0.0
  0
LINE
  5
1211
  8
1
 10
173.4794451716364
 20
112.2786487373337
 30
0.0
 11
177.7834187546332
 21
112.2786487373337
 31
0.0
  0
LINE
  5
1212
  8
1
 10
285.47944517163643
 20
116.2786487373336
 30
0.0
 11
285.47944517163643
 21
120.7454116492483
 31
0.0
  0
LINE
  5
1213
  8
1
 10
277.17547158863971
 20
120.7454116492483
 30
0.0
 11
277.17547158863971
 21
112.2786487373337
 31
0.0
  0
LINE
  5
1214
  8
1
 10
285.47944517163643
 20
120.7454116492483
 30
0.0
 11
277.17547158863971
 21
120.7454116492483
 31
0.0
  0
LINE
  5
1215
  8
1
 10
281.47944517163643
 20
112.2786487373337
 30
0.0
 11
277.17547158863971
 21
112.2786487373337
 31
0.0
  0
ARC
  5
1216
  8
51
 10
281.47944517163643
 20
116.2786487373336
 30
0.0
 40
4.0
 50
270.0
 51
0.0
  0
LINE
  5
1217
  8
1
 10
590.68491986003835
 20
171.75971802489579
 30
0.0
 11
589.68491986003835
 21
171.75971802489579
 31
0.0
  0
LINE
  5
1218
  8
1
 10
590.68491986003835
 20
178.78757744977179
 30
0.0
 11
589.68491986003835
 21
178.78757744977179
 31
0.0
  0
LINE
  5
1219
  8
21
 10
589.68491986003835
 20
171.75971802489579
 30
0.0
 11
589.68491986003835
 21
178.78757744977179
 31
0.0
  0
LINE
  5
121A
  8
21
 10
589.68491986003835
 20
121.7697200248957
 30
0.0
 11
589.68491986003835
 21
128.7975794497718
 31
0.0
  0
LINE
  5
121B
  8
1
 10
590.68491986003835
 20
128.7975794497718
 30
0.0
 11
589.68491986003835
 21
128.7975794497718
 31
0.0
  0
LINE
  5
121C
  8
1
 10
590.68491986003835
 20
121.7697200248958
 30
0.0
 11
589.68491986003835
 21
121.7697200248957
 31
0.0
  0
LINE
  5
121D
  8
1
 10
434.63544761772152
 20
233.4956325286997
 30
0.0
 11
434.63544761772141
 21
232.4956325286997
 31
0.0
  0
LINE
  5
121E
  8
1
 10
441.66330704259752
 20
233.4956325286997
 30
0.0
 11
441.66330704259752
 21
232.49563252869979
 31
0.0
  0
LINE
  5
121F
  8
21
 10
434.63544761772141
 20
232.4956325286997
 30
0.0
 11
441.66330704259752
 21
232.49563252869979
 31
0.0
  0
LINE
  5
1220
  8
1
 10
542.66844799825822
 20
233.4956325286997
 30
0.0
 11
542.66844799825822
 21
232.49563252869979
 31
0.0
  0
LINE
  5
1221
  8
1
 10
549.69630742313416
 20
233.4956325286997
 30
0.0
 11
549.69630742313416
 21
232.4956325286997
 31
0.0
  0
LINE
  5
1222
  8
21
 10
549.69630742313416
 20
232.4956325286997
 30
0.0
 11
542.66844799825822
 21
232.49563252869979
 31
0.0
  0
LINE
  5
1223
  8
1
 10
441.66330704259752
 20
67.061664945967948
 30
0.0
 11
441.66330704259752
 21
68.061664945967934
 31
0.0
  0
LINE
  5
1224
  8
1
 10
434.63544761772152
 20
67.061664945968005
 30
0.0
 11
434.63544761772141
 21
68.061664945968005
 31
0.0
  0
LINE
  5
1225
  8
21
 10
434.63544761772141
 20
68.061664945968005
 30
0.0
 11
441.66330704259752
 21
68.061664945967934
 31
0.0
  0
LINE
  5
1226
  8
21
 10
549.69630742313416
 20
68.061664945968005
 30
0.0
 11
542.66844799825822
 21
68.061664945967934
 31
0.0
  0
LINE
  5
1227
  8
1
 10
549.69630742313416
 20
67.061664945968005
 30
0.0
 11
549.69630742313416
 21
68.061664945968005
 31
0.0
  0
LINE
  5
1228
  8
1
 10
542.66844799825822
 20
67.061664945967948
 30
0.0
 11
542.66844799825822
 21
68.061664945967934
 31
0.0
  0
ENDSEC
  0
EOF
