  0
SECTION
  2
HEADER
  9
$ACADVER
  1
AC1009
  9
$INSBASE
 10
0.0
 20
0.0
 30
0.0
  9
$EXTMIN
 10
182.1642513342652
 20
28.193445638906269
 30
0.0
  9
$EXTMAX
 10
641.80851124294259
 20
272.36385183576112
 30
0.0
  9
$LIMMIN
 10
-456.601528516028
 20
5.0
  9
$LIMMAX
 10
934.40616009549785
 20
1060.276836655748
  9
$ORTHOMODE
 70
     1
  9
$REGENMODE
 70
     1
  9
$FILLMODE
 70
     1
  9
$QTEXTMODE
 70
     0
  9
$MIRRTEXT
 70
     1
  9
$DRAGMODE
 70
     2
  9
$LTSCALE
 40
7.0
  9
$OSMODE
 70
    37
  9
$ATTMODE
 70
     1
  9
$TEXTSIZE
 40
2.5
  9
$TRACEWID
 40
0.05
  9
$TEXTSTYLE
  7
TKKISO
  9
$CLAYER
  8
1
  9
$CELTYPE
  6
BYLAYER
  9
$CECOLOR
 62
   256
  9
$DIMSCALE
 40
1.0
  9
$DIMASZ
 40
2.5
  9
$DIMEXO
 40
0.0625
  9
$DIMDLI
 40
10.0
  9
$DIMRND
 40
0.0
  9
$DIMDLE
 40
0.0
  9
$DIMEXE
 40
1.0
  9
$DIMTP
 40
0.0
  9
$DIMTM
 40
0.0
  9
$DIMTXT
 40
2.5
  9
$DIMCEN
 40
0.09
  9
$DIMTSZ
 40
0.0
  9
$DIMTOL
 70
     0
  9
$DIMLIM
 70
     0
  9
$DIMTIH
 70
     0
  9
$DIMTOH
 70
     0
  9
$DIMSE1
 70
     0
  9
$DIMSE2
 70
     0
  9
$DIMTAD
 70
     1
  9
$DIMZIN
 70
     0
  9
$DIMBLK
  1

  9
$DIMASO
 70
     1
  9
$DIMSHO
 70
     1
  9
$DIMPOST
  1

  9
$DIMAPOST
  1

  9
$DIMALT
 70
     0
  9
$DIMALTD
 70
     2
  9
$DIMALTF
 40
25.399999999999999
  9
$DIMLFAC
 40
1.0
  9
$DIMTOFL
 70
     1
  9
$DIMTVP
 40
0.0
  9
$DIMTIX
 70
     0
  9
$DIMSOXD
 70
     1
  9
$DIMSAH
 70
     1
  9
$DIMBLK1
  1

  9
$DIMBLK2
  1

  9
$DIMSTYLE
  2
STANDARD
  9
$DIMCLRD
 70
     1
  9
$DIMCLRE
 70
     1
  9
$DIMCLRT
 70
     3
  9
$DIMTFAC
 40
1.0
  9
$DIMGAP
 40
0.09
  9
$LUNITS
 70
     2
  9
$LUPREC
 70
     1
  9
$SKETCHINC
 40
0.1
  9
$FILLETRAD
 40
0.0
  9
$AUNITS
 70
     0
  9
$AUPREC
 70
     1
  9
$MENU
  1
caesar
  9
$ELEVATION
 40
0.0
  9
$PELEVATION
 40
0.0
  9
$THICKNESS
 40
0.0
  9
$LIMCHECK
 70
     0
  9
$BLIPMODE
 70
     0
  9
$CHAMFERA
 40
5.0
  9
$CHAMFERB
 40
5.0
  9
$SKPOLY
 70
     0
  9
$TDCREATE
 40
2448643.8599386569
  9
$TDUPDATE
 40
2453620.465914432
  9
$TDINDWG
 40
0.7646828356000001
  9
$TDUSRTIMER
 40
0.7646828356000001
  9
$USRTIMER
 70
     1
  9
$ANGBASE
 50
0.0
  9
$ANGDIR
 70
     0
  9
$PDMODE
 70
     0
  9
$PDSIZE
 40
0.0
  9
$PLINEWID
 40
0.0
  9
$COORDS
 70
     2
  9
$SPLFRAME
 70
     0
  9
$SPLINETYPE
 70
     6
  9
$SPLINESEGS
 70
     8
  9
$ATTDIA
 70
     0
  9
$ATTREQ
 70
     1
  9
$HANDLING
 70
-16383
  9
$HANDSEED
  5
41A
  9
$SURFTAB1
 70
     6
  9
$SURFTAB2
 70
     6
  9
$SURFTYPE
 70
     6
  9
$SURFU
 70
     6
  9
$SURFV
 70
     6
  9
$UCSNAME
  2

  9
$UCSORG
 10
0.0
 20
0.0
 30
0.0
  9
$UCSXDIR
 10
1.0
 20
0.0
 30
0.0
  9
$UCSYDIR
 10
0.0
 20
1.0
 30
0.0
  9
$PUCSNAME
  2

  9
$PUCSORG
 10
0.0
 20
0.0
 30
0.0
  9
$PUCSXDIR
 10
1.0
 20
0.0
 30
0.0
  9
$PUCSYDIR
 10
0.0
 20
1.0
 30
0.0
  9
$USERI1
 70
   102
  9
$USERI2
 70
     0
  9
$USERI3
 70
     0
  9
$USERI4
 70
     0
  9
$USERI5
 70
     0
  9
$USERR1
 40
1.0
  9
$USERR2
 40
-10.0
  9
$USERR3
 40
2.5
  9
$USERR4
 40
0.0
  9
$USERR5
 40
0.0
  9
$WORLDVIEW
 70
     1
  9
$SHADEDGE
 70
     3
  9
$SHADEDIF
 70
    70
  9
$TILEMODE
 70
     1
  9
$MAXACTVP
 70
    16
  9
$PLIMCHECK
 70
     0
  9
$PEXTMIN
 10
1.0000000000000000E+020
 20
1.0000000000000000E+020
 30
1.0000000000000000E+020
  9
$PEXTMAX
 10
-1.0000000000000000E+020
 20
-1.0000000000000000E+020
 30
-1.0000000000000000E+020
  9
$PLIMMIN
 10
0.0
 20
0.0
  9
$PLIMMAX
 10
12.0
 20
9.0
  9
$UNITMODE
 70
     0
  9
$VISRETAIN
 70
     0
  9
$PLINEGEN
 70
     0
  9
$PSLTSCALE
 70
     0
  0
ENDSEC
  0
SECTION
  2
TABLES
  0
TABLE
  2
VPORT
 70
     2
  0
VPORT
  2
*ACTIVE
 70
     0
 10
0.0
 20
0.0
 11
1.0
 21
1.0
 12
411.99295186889248
 22
150.29057356256789
 13
0.0
 23
0.0
 14
1.0
 24
1.0
 15
10.0
 25
10.0
 16
0.0
 26
0.0
 36
1.0
 17
0.0
 27
0.0
 37
0.0
 40
296.81074854725051
 41
1.5552208835341359
 42
50.0
 43
0.0
 44
0.0
 50
0.0
 51
0.0
 71
     0
 72
  2000
 73
     1
 74
     0
 75
     0
 76
     0
 77
     0
 78
     0
  0
ENDTAB
  0
TABLE
  2
LTYPE
 70
     3
  0
LTYPE
  2
CONTINUOUS
 70
     0
  3
Solid line
 72
    65
 73
     0
 40
0.0
  0
LTYPE
  2
CENTER
 70
     0
  3
____ _ ____ _ ____ _ ____ _ ____ _ ____ _ ____
 72
    65
 73
     4
 40
2.0
 49
1.25
 49
-0.25
 49
0.25
 49
-0.25
  0
LTYPE
  2
HIDDEN
 70
     0
  3
Hidden __ __ __ __ __ __ __ __ __ __ __ __ __ _
 72
    65
 73
     2
 40
0.375
 49
0.25
 49
-0.125
  0
ENDTAB
  0
TABLE
  2
LAYER
 70
    12
  0
LAYER
  2
0
 70
     0
 62
     7
  6
CONTINUOUS
  0
LAYER
  2
L22
 70
     0
 62
     1
  6
CONTINUOUS
  0
LAYER
  2
DEFPOINTS
 70
     0
 62
    -7
  6
CONTINUOUS
  0
LAYER
  2
L20
 70
     0
 62
     3
  6
CONTINUOUS
  0
LAYER
  2
1
 70
     0
 62
     7
  6
CONTINUOUS
  0
LAYER
  2
21
 70
     0
 62
     7
  6
CONTINUOUS
  0
LAYER
  2
23
 70
     0
 62
     1
  6
CENTER
  0
LAYER
  2
41
 70
     0
 62
     7
  6
CONTINUOUS
  0
LAYER
  2
51
 70
     0
 62
     7
  6
CONTINUOUS
  0
LAYER
  2
52
 70
     0
 62
     1
  6
HIDDEN
  0
LAYER
  2
61
 70
     0
 62
     7
  6
CONTINUOUS
  0
LAYER
  2
62
 70
     0
 62
     1
  6
CONTINUOUS
  0
ENDTAB
  0
TABLE
  2
STYLE
 70
     3
  0
STYLE
  2
STANDARD
 70
     0
 40
0.0
 41
1.0
 50
0.0
 71
     0
 42
2.5
  3
caeiso
  4

  0
STYLE
  2
SIMPLEX
 70
     0
 40
0.0
 41
0.8
 50
0.0
 71
     0
 42
2.5
  3
KIRJAIN
  4

  0
STYLE
  2
TKKISO
 70
     0
 40
0.0
 41
1.0
 50
0.0
 71
     0
 42
2.5
  3
caeiso
  4

  0
ENDTAB
  0
TABLE
  2
VIEW
 70
     0
  0
ENDTAB
  0
TABLE
  2
UCS
 70
     0
  0
ENDTAB
  0
TABLE
  2
APPID
 70
     2
  0
APPID
  2
ACAD
 70
     0
  0
APPID
  2
DCO15
 70
     0
  0
ENDTAB
  0
TABLE
  2
DIMSTYLE
 70
     1
  0
DIMSTYLE
  2
STANDARD
 70
     0
  3

  4

  5

  6

  7

 40
1.0
 41
0.18
 42
0.0625
 43
0.38
 44
0.18
 45
0.0
 46
0.0
 47
0.0
 48
0.0
140
0.18
141
0.09
142
0.0
143
25.399999999999999
144
1.0
145
0.0
146
1.0
147
0.09
 71
     0
 72
     0
 73
     1
 74
     1
 75
     0
 76
     0
 77
     0
 78
     0
170
     0
171
     2
172
     0
173
     0
174
     0
175
     0
176
     0
177
     0
178
     0
  0
ENDTAB
  0
ENDSEC
  0
SECTION
  2
BLOCKS
  0
BLOCK
  8
0
  2
$MODEL_SPACE
 70
     0
 10
0.0
 20
0.0
 30
0.0
  3
$MODEL_SPACE
  1

  0
ENDBLK
  5
86
  8
0
  0
BLOCK
 67
     1
  8
0
  2
$PAPER_SPACE
 70
     0
 10
0.0
 20
0.0
 30
0.0
  3
$PAPER_SPACE
  1

  0
ENDBLK
  5
84
 67
     1
  8
0
  0
BLOCK
  8
0
  2
TKK-ACAD
 70
     0
 10
0.0
 20
0.0
 30
0.0
  3
TKK-ACAD
  1

  0
ENDBLK
  5
88
  8
0
  0
ENDSEC
  0
SECTION
  2
ENTITIES
  0
INSERT
  5
89
  8
0
  2
TKK-ACAD
 10
387.69019597505729
 20
522.0663370813196
 30
0.0
  0
INSERT
  5
8A
  8
L22
  2
TKK-ACAD
 10
0.0
 20
0.0
 30
0.0
  0
ARC
  5
8C
  8
21
 10
438.16587730501158
 20
116.2786487373338
 30
0.0
 40
6.0
 50
180.0
 51
270.0
  0
LINE
  5
8D
  8
21
 10
438.16587730501158
 20
110.2786487373338
 30
0.0
 11
546.16587730501158
 21
110.2786487373338
 31
0.0
  0
ARC
  5
8E
  8
21
 10
438.16587730501158
 20
184.27864873733381
 30
0.0
 40
6.0
 50
90.0
 51
180.0
  0
ARC
  5
8F
  8
62
 10
546.14611845367392
 20
133.9868331215348
 30
0.0
 40
4.4197664291365397
 50
274.14882846038688
 51
359.89390142032443
  0
LINE
  5
90
  8
21
 10
546.16587730501169
 20
190.27864873733381
 30
0.0
 11
492.16587730501158
 21
190.27864873733401
 31
0.0
  0
ARC
  5
91
  8
21
 10
546.16587730501158
 20
116.2786487373338
 30
0.0
 40
6.0
 50
270.0
 51
0.0
  0
LINE
  5
92
  8
21
 10
552.16587730501146
 20
116.2786487373338
 30
0.0
 11
552.16587730501158
 21
184.27864873733381
 31
0.0
  0
ARC
  5
94
  8
62
 10
546.15768603215224
 20
166.57525580102231
 30
0.0
 40
4.4081925786119891
 50
0.044099922254053
 51
89.893533077755635
  0
LINE
  5
95
  8
21
 10
540.46587730501142
 20
124.9786487373337
 30
0.0
 11
540.46587730501142
 21
116.2786487373338
 31
0.0
  0
ARC
  5
96
  8
62
 10
438.16587730501158
 20
133.9786487373338
 30
0.0
 40
4.4000000000000004
 50
180.0
 51
270.0
  0
ARC
  5
97
  8
62
 10
446.86587730501151
 20
184.27864873733381
 30
0.0
 40
4.4000000000000004
 50
90.0
 51
180.0
  0
LINE
  5
98
  8
21
 10
432.16587730501158
 20
184.27864873733381
 30
0.0
 11
432.16587730501158
 21
116.2786487373338
 31
0.0
  0
ARC
  5
99
  8
62
 10
537.46587730501153
 20
184.27864873733381
 30
0.0
 40
4.4000000000000004
 50
0.0
 51
90.0
  0
ARC
  5
9A
  8
62
 10
438.16587730501158
 20
166.57864873733379
 30
0.0
 40
4.4000000000000004
 50
90.0
 51
180.0
  0
ARC
  5
9B
  8
62
 10
446.86587730501151
 20
116.2786487373338
 30
0.0
 40
4.4000000000000004
 50
180.0
 51
270.0
  0
ARC
  5
9C
  8
62
 10
537.46587730501153
 20
116.2786487373338
 30
0.0
 40
4.4000000000000004
 50
270.0
 51
0.0
  0
ARC
  5
9D
  8
61
 10
537.46587730501153
 20
184.27864873733381
 30
0.0
 40
3.0
 50
0.0
 51
90.0
  0
ARC
  5
9E
  8
21
 10
537.46587730501153
 20
116.2786487373338
 30
0.0
 40
3.0
 50
270.0
 51
0.0
  0
ARC
  5
9F
  8
21
 10
446.86587730501151
 20
116.2786487373338
 30
0.0
 40
3.0
 50
180.0
 51
270.0
  0
ARC
  5
A0
  8
21
 10
446.86587730501151
 20
184.27864873733381
 30
0.0
 40
3.0
 50
90.0
 51
180.0
  0
ARC
  5
A1
  8
61
 10
546.13499953890221
 20
166.56585874783559
 30
0.0
 40
3.030904752203011
 50
0.2417808057611849
 51
83.732644185870896
  0
ARC
  5
A2
  8
21
 10
546.13499953890221
 20
133.99143872683189
 30
0.0
 40
3.0309047522028512
 50
276.26735581412908
 51
359.75821919423993
  0
LINE
  5
A3
  8
21
 10
435.16587730501158
 20
166.57864873733379
 30
0.0
 11
435.16587730501158
 21
133.9786487373338
 31
0.0
  0
LINE
  5
A4
  8
21
 10
549.16587730501146
 20
166.57864873733379
 30
0.0
 11
549.16587730501146
 21
133.9786487373338
 31
0.0
  0
LINE
  5
A5
  8
21
 10
537.46587730501153
 20
113.2786487373338
 30
0.0
 11
446.86587730501151
 21
113.2786487373338
 31
0.0
  0
ARC
  5
A6
  8
21
 10
438.19675507112061
 20
133.99143872683189
 30
0.0
 40
3.0309047522028401
 50
180.24178080575899
 51
263.7326441858728
  0
LINE
  5
A7
  8
21
 10
537.46587730501165
 20
187.27864873733381
 30
0.0
 11
446.86587730501151
 21
187.27864873733381
 31
0.0
  0
ARC
  5
A8
  8
21
 10
438.16587730501158
 20
166.57864873733379
 30
0.0
 40
3.0
 50
90.0
 51
180.0
  0
LINE
  5
A9
  8
62
 10
537.46587730501165
 20
188.6786487373337
 30
0.0
 11
446.86587730501151
 21
188.67864873733379
 31
0.0
  0
LINE
  5
AA
  8
62
 10
550.56587730501155
 20
166.57864873733379
 30
0.0
 11
550.56587730501155
 21
133.9786487373338
 31
0.0
  0
LINE
  5
AB
  8
62
 10
537.46587730501153
 20
111.8786487373338
 30
0.0
 11
446.86587730501151
 21
111.8786487373338
 31
0.0
  0
LINE
  5
AC
  8
62
 10
433.7658773050116
 20
166.57864873733379
 30
0.0
 11
433.7658773050116
 21
133.9786487373338
 31
0.0
  0
ARC
  5
AD
  8
21
 10
546.16587730501158
 20
184.27864873733381
 30
0.0
 40
6.0
 50
0.0
 51
90.0
  0
LINE
  5
AE
  8
62
 10
541.86587730501162
 20
175.5736477373338
 30
0.0
 11
541.86587730501162
 21
184.27864873733381
 31
0.0
  0
LINE
  5
AF
  8
62
 10
442.46587730501159
 20
116.2786487373338
 30
0.0
 11
442.46587730501159
 21
124.98364973733381
 31
0.0
  0
LINE
  5
B0
  8
62
 10
442.46587730501159
 20
184.27864873733381
 30
0.0
 11
442.46587730501159
 21
175.5736477373338
 31
0.0
  0
ARC
  5
B1
  8
62
 10
546.46587730501153
 20
175.5736477373338
 30
0.0
 40
4.5999999999999988
 50
180.0
 51
266.2606649999999
  0
ARC
  5
B2
  8
62
 10
437.86587730501162
 20
175.5736477373338
 30
0.0
 40
4.5999999999999988
 50
273.73933499999998
 51
0.0
  0
ARC
  5
B3
  8
62
 10
437.86587730501162
 20
124.98364973733381
 30
0.0
 40
4.5999999999999988
 50
0.0
 51
86.260665000000046
  0
LINE
  5
B5
  8
62
 10
541.86587730501162
 20
124.9786487373337
 30
0.0
 11
541.86587730501162
 21
116.2786487373338
 31
0.0
  0
ARC
  5
B6
  8
62
 10
546.46587730501153
 20
124.9786487373337
 30
0.0
 40
4.5999999999999988
 50
90.0
 51
180.0
  0
ARC
  5
B7
  8
61
 10
546.46587730501153
 20
175.57864873733379
 30
0.0
 40
6.0
 50
180.0
 51
270.0
  0
LINE
  5
B8
  8
61
 10
540.46587730501142
 20
175.57864873733379
 30
0.0
 11
540.46587730501165
 21
184.27864873733381
 31
0.0
  0
ARC
  5
B9
  8
21
 10
437.85187919032768
 20
175.58444694628349
 30
0.0
 40
6.0140009097645457
 50
272.99284135274308
 51
359.94476007602827
  0
LINE
  5
BA
  8
21
 10
443.86587730501162
 20
184.27864873733381
 30
0.0
 11
443.86587730501162
 21
175.57864873733379
 31
0.0
  0
ARC
  5
BB
  8
21
 10
437.86587730501162
 20
124.9786487373337
 30
0.0
 40
6.0
 50
0.0
 51
90.0
  0
LINE
  5
BC
  8
21
 10
443.86587730501162
 20
116.2786487373338
 30
0.0
 11
443.86587730501162
 21
124.9786487373338
 31
0.0
  0
ARC
  5
BD
  8
21
 10
546.46587730501153
 20
124.9786487373337
 30
0.0
 40
6.0
 50
90.0
 51
180.0
  0
CIRCLE
  5
BE
  8
62
 10
438.16587730501158
 20
125.2836497373338
 30
0.0
 40
2.25
  0
ARC
  5
BF
  8
62
 10
434.5658773050115
 20
128.88364973733371
 30
0.0
 40
0.5
 50
90.0
 51
180.0
  0
LINE
  5
C0
  8
62
 10
434.56587730501161
 20
129.3836497373338
 30
0.0
 11
437.86587730501162
 21
129.3836497373338
 31
0.0
  0
ARC
  5
C1
  8
62
 10
434.5658773050115
 20
121.6836497373337
 30
0.0
 40
0.5
 50
180.0
 51
270.0
  0
LINE
  5
C2
  8
62
 10
441.7658773050116
 20
121.18364973733379
 30
0.0
 11
434.56587730501161
 21
121.18364973733379
 31
0.0
  0
LINE
  5
C3
  8
62
 10
434.0658773050115
 20
121.68364973733379
 30
0.0
 11
434.0658773050115
 21
128.8836497373338
 31
0.0
  0
ARC
  5
C4
  8
62
 10
441.76587730501149
 20
121.6836497373337
 30
0.0
 40
0.5
 50
270.0
 51
0.0
  0
CIRCLE
  5
C5
  8
62
 10
546.16587730501158
 20
184.27864873733381
 30
0.0
 40
1.6000000000000001
  0
CIRCLE
  5
C6
  8
62
 10
546.16587730501158
 20
116.2786487373338
 30
0.0
 40
1.6000000000000001
  0
CIRCLE
  5
C7
  8
62
 10
438.16587730501158
 20
116.2786487373338
 30
0.0
 40
1.6000000000000001
  0
CIRCLE
  5
C8
  8
62
 10
438.16587730501158
 20
184.27864873733381
 30
0.0
 40
1.6000000000000001
  0
CIRCLE
  5
C9
  8
62
 10
546.16587730501158
 20
175.27364773733379
 30
0.0
 40
2.25
  0
ARC
  5
CA
  8
62
 10
549.76587730501149
 20
171.67364773733379
 30
0.0
 40
0.5
 50
270.0
 51
0.0
  0
LINE
  5
CB
  8
62
 10
549.76587730501149
 20
171.17364773733379
 30
0.0
 11
546.46587730501165
 21
171.17364773733379
 31
0.0
  0
ARC
  5
CC
  8
62
 10
549.76587730501149
 20
178.87364773733381
 30
0.0
 40
0.5
 50
0.0
 51
90.0
  0
LINE
  5
CD
  8
62
 10
542.56587730501155
 20
179.37364773733381
 30
0.0
 11
549.76587730501149
 21
179.37364773733381
 31
0.0
  0
LINE
  5
CE
  8
62
 10
542.06587730501155
 20
175.5736477373338
 30
0.0
 11
542.06587730501155
 21
178.87364773733381
 31
0.0
  0
LINE
  5
CF
  8
62
 10
550.26587730501149
 20
178.87364773733381
 30
0.0
 11
550.26587730501149
 21
171.67364773733379
 31
0.0
  0
ARC
  5
D0
  8
62
 10
542.56587730501155
 20
178.87364773733381
 30
0.0
 40
0.5
 50
90.0
 51
180.0
  0
CIRCLE
  5
D1
  8
62
 10
438.16587730501158
 20
175.27364773733379
 30
0.0
 40
2.25
  0
ARC
  5
D2
  8
62
 10
434.56587730501161
 20
171.67364773733379
 30
0.0
 40
0.5
 50
180.0
 51
270.0
  0
LINE
  5
D3
  8
62
 10
434.56587730501161
 20
171.17364773733391
 30
0.0
 11
437.86587730501162
 21
171.17364773733391
 31
0.0
  0
ARC
  5
D4
  8
21
 10
348.61720308176223
 20
111.6786487373337
 30
0.0
 40
0.2
 50
0.0
 51
90.0
  0
LINE
  5
D5
  8
21
 10
348.61720308176228
 20
111.8786487373338
 30
0.0
 11
347.06510862846221
 21
112.15232486605861
 31
0.0
  0
LINE
  5
D8
  8
21
 10
388.81720308176227
 20
150.27864873733381
 30
0.0
 11
388.81720308176227
 21
111.61903473733381
 31
0.0
  0
LINE
  5
D9
  8
21
 10
348.81720308176239
 20
110.2786487373338
 30
0.0
 11
387.82593008176229
 21
110.61907273733389
 31
0.0
  0
ARC
  5
DA
  8
21
 10
387.81720308176227
 20
111.61903473733371
 30
0.0
 40
1.0
 50
270.49999999999989
 51
0.0
  0
LINE
  5
DB
  8
52
 10
385.81720308176239
 20
154.77864873733381
 30
0.0
 11
385.81720308176239
 21
145.77864873733381
 31
0.0
  0
LINE
  5
DC
  8
52
 10
385.81720308176239
 20
186.62408380252549
 30
0.0
 11
385.81720308176239
 21
154.77864873733381
 31
0.0
  0
LINE
  5
DD
  8
52
 10
385.81720308176227
 20
113.933213672142
 30
0.0
 11
385.81720308176239
 21
145.77864873733381
 31
0.0
  0
ARC
  5
DE
  8
62
 10
434.56587730501161
 20
178.87364773733381
 30
0.0
 40
0.5
 50
90.0
 51
180.0
  0
LINE
  5
DF
  8
62
 10
441.7658773050116
 20
179.3736477373339
 30
0.0
 11
434.56587730501161
 21
179.3736477373339
 31
0.0
  0
LINE
  5
E0
  8
62
 10
434.0658773050115
 20
178.8736477373339
 30
0.0
 11
434.0658773050115
 21
171.67364773733391
 31
0.0
  0
ARC
  5
E1
  8
62
 10
441.7658773050116
 20
178.87364773733381
 30
0.0
 40
0.5
 50
0.0
 51
90.0
  0
CIRCLE
  5
E2
  8
62
 10
546.16587730501158
 20
125.2836497373338
 30
0.0
 40
2.25
  0
ARC
  5
E3
  8
62
 10
549.76587730501149
 20
128.88364973733371
 30
0.0
 40
0.5
 50
0.0
 51
90.0
  0
LINE
  5
E4
  8
52
 10
378.6672030817623
 20
150.27864873733381
 30
0.0
 11
378.6672030817623
 21
148.07864873733379
 31
0.0
  0
LINE
  5
E5
  8
62
 10
549.76587730501149
 20
129.38364973733371
 30
0.0
 11
546.46587730501153
 21
129.38364973733371
 31
0.0
  0
LINE
  5
E6
  8
21
 10
388.81720308176227
 20
150.27864873733381
 30
0.0
 11
388.81720308176227
 21
189.27864873733381
 31
0.0
  0
LINE
  5
E7
  8
52
 10
348.31720308176227
 20
113.2786487373338
 30
0.0
 11
385.81720308176227
 21
113.933213672142
 31
0.0
  0
LINE
  5
E8
  8
21
 10
348.81720308176239
 20
110.2786487373338
 30
0.0
 11
348.81720308176239
 21
111.6786487373338
 31
0.0
  0
ARC
  5
E9
  8
62
 10
549.76587730501149
 20
121.6836497373337
 30
0.0
 40
0.5
 50
270.0
 51
0.0
  0
LINE
  5
EA
  8
62
 10
542.56587730501155
 20
121.1836497373337
 30
0.0
 11
549.76587730501149
 21
121.1836497373337
 31
0.0
  0
LINE
  5
EB
  8
62
 10
550.26587730501149
 20
121.6836497373337
 30
0.0
 11
550.26587730501149
 21
128.88364973733371
 31
0.0
  0
ARC
  5
EC
  8
62
 10
542.56587730501155
 20
121.6836497373337
 30
0.0
 40
0.5
 50
180.0
 51
270.0
  0
CIRCLE
  5
F3
  8
51
 10
299.1642513342652
 20
116.2786487373338
 30
0.0
 40
4.0
  0
CIRCLE
  5
F4
  8
51
 10
299.1642513342652
 20
125.2836497373338
 30
0.0
 40
2.25
  0
CIRCLE
  5
F5
  8
51
 10
299.1642513342652
 20
175.27364773733379
 30
0.0
 40
2.25
  0
CIRCLE
  5
F6
  8
51
 10
299.1642513342652
 20
184.27864873733381
 30
0.0
 40
4.0
  0
CIRCLE
  5
F7
  8
51
 10
191.1642513342652
 20
184.2786487373339
 30
0.0
 40
4.0
  0
CIRCLE
  5
F8
  8
51
 10
191.1642513342652
 20
175.2736477373339
 30
0.0
 40
2.25
  0
CIRCLE
  5
F9
  8
51
 10
191.1642513342652
 20
125.2836497373339
 30
0.0
 40
2.25
  0
CIRCLE
  5
FA
  8
51
 10
191.1642513342652
 20
116.2786487373339
 30
0.0
 40
4.0
  0
ARC
  5
FB
  8
51
 10
299.1642513342652
 20
116.2786487373338
 30
0.0
 40
6.0
 50
270.0
 51
0.0
  0
LINE
  5
FC
  8
51
 10
305.1642513342652
 20
116.2786487373338
 30
0.0
 11
305.1642513342652
 21
184.27864873733381
 31
0.0
  0
ARC
  5
FD
  8
51
 10
299.1642513342652
 20
184.27864873733381
 30
0.0
 40
6.0
 50
0.0
 51
90.0
  0
LINE
  5
FE
  8
51
 10
299.1642513342652
 20
190.27864873733381
 30
0.0
 11
191.1642513342652
 21
190.27864873733381
 31
0.0
  0
ARC
  5
FF
  8
51
 10
191.1642513342652
 20
116.2786487373339
 30
0.0
 40
6.0
 50
180.0
 51
270.0
  0
LINE
  5
100
  8
51
 10
191.1642513342652
 20
110.2786487373338
 30
0.0
 11
299.1642513342652
 21
110.2786487373338
 31
0.0
  0
LINE
  5
101
  8
51
 10
185.1642513342652
 20
184.27864873733381
 30
0.0
 11
185.1642513342652
 21
116.2786487373338
 31
0.0
  0
ARC
  5
102
  8
51
 10
191.1642513342652
 20
184.2786487373339
 30
0.0
 40
6.0
 50
90.0
 51
180.0
  0
LINE
  5
103
  8
23
 10
393.95196474387609
 20
150.27864873733381
 30
0.0
 11
342.5232433670804
 21
150.27864873733381
 31
0.0
  0
LINE
  5
104
  8
21
 10
346.81720308176227
 20
112.4477671919622
 30
0.0
 11
346.81720308176227
 21
113.2786487373338
 31
0.0
  0
LINE
  5
105
  8
61
 10
463.91587730501169
 20
110.2786487373338
 30
0.0
 11
520.41587730501146
 21
110.2786487373338
 31
0.0
  0
LINE
  5
106
  8
21
 10
492.16587730501158
 20
190.27864873733381
 30
0.0
 11
438.16587730501158
 21
190.27864873733381
 31
0.0
  0
ARC
  5
107
  8
62
 10
546.46587730501165
 20
175.5736477373338
 30
0.0
 40
4.4000000000000004
 50
180.0
 51
270.0
  0
LINE
  5
108
  8
62
 10
442.2658773050116
 20
175.57364773733391
 30
0.0
 11
442.2658773050116
 21
178.8736477373339
 31
0.0
  0
ARC
  5
109
  8
62
 10
437.86587730501162
 20
175.57364773733391
 30
0.0
 40
4.4000000000000004
 50
270.0
 51
0.0000000000011191
  0
LINE
  5
10A
  8
62
 10
442.2658773050116
 20
124.98364973733391
 30
0.0
 11
442.2658773050116
 21
121.68364973733379
 31
0.0
  0
ARC
  5
10B
  8
62
 10
437.86587730501162
 20
124.98364973733391
 30
0.0
 40
4.4000000000000004
 50
0.0
 51
90.000000000001151
  0
LINE
  5
10C
  8
62
 10
542.06587730501155
 20
124.98364973733381
 30
0.0
 11
542.06587730501155
 21
121.6836497373337
 31
0.0
  0
ARC
  5
10D
  8
62
 10
546.46587730501165
 20
124.98364973733371
 30
0.0
 40
4.4000000000000004
 50
90.000000000001108
 51
179.9999999999994
  0
ARC
  5
10E
  8
21
 10
347.11720308176228
 20
112.4477671919622
 30
0.0
 40
0.3
 50
180.0
 51
259.9999999999996
  0
LINE
  5
11B
  8
41
 10
346.81720308176227
 20
113.2786487373338
 30
0.0
 11
346.81720308176239
 21
187.2786487373339
 31
0.0
  0
CIRCLE
  5
11C
  8
52
 10
492.16587730501158
 20
150.2786487373337
 30
0.0
 40
11.0
  0
CIRCLE
  5
11D
  8
52
 10
245.1642513342652
 20
150.27864873733361
 30
0.0
 40
10.0
  0
CIRCLE
  5
11E
  8
52
 10
245.1642513342652
 20
150.27864873733361
 30
0.0
 40
1.5
  0
ARC
  5
11F
  8
52
 10
445.8172030817542
 20
150.27864873733381
 30
0.0
 40
60.999999999991871
 50
180.0
 51
190.38885781547029
  0
INSERT
  5
123
  8
0
  2
TKK-ACAD
 10
462.81815153525741
 20
959.77694463944215
 30
0.0
  0
INSERT
  5
124
  8
L22
  2
TKK-ACAD
 10
75.127955560200149
 20
437.71060755812249
 30
0.0
  0
CIRCLE
  5
125
  8
21
 10
444.16587730501141
 20
150.27864873733381
 30
0.0
 40
4.0
  0
CIRCLE
  5
126
  8
21
 10
540.16587730501158
 20
150.27864873733381
 30
0.0
 40
4.0
  0
CIRCLE
  5
127
  8
21
 10
532.91587730501158
 20
179.27864873733381
 30
0.0
 40
4.0
  0
CIRCLE
  5
128
  8
21
 10
451.41587730501158
 20
179.27864873733381
 30
0.0
 40
4.0
  0
CIRCLE
  5
129
  8
21
 10
532.91587730501158
 20
121.2786487373338
 30
0.0
 40
4.0
  0
CIRCLE
  5
12A
  8
21
 10
451.41587730501152
 20
121.2786487373338
 30
0.0
 40
4.0
  0
CIRCLE
  5
12B
  8
21
 10
472.16587730501152
 20
121.2786487373338
 30
0.0
 40
4.0
  0
CIRCLE
  5
12C
  8
21
 10
512.16587730501169
 20
121.2786487373338
 30
0.0
 40
4.0
  0
CIRCLE
  5
12D
  8
21
 10
472.16587730501158
 20
179.27864873733381
 30
0.0
 40
4.0
  0
CIRCLE
  5
12E
  8
21
 10
512.16587730501169
 20
179.27864873733381
 30
0.0
 40
4.0
  0
CIRCLE
  5
12F
  8
21
 10
451.41587730501158
 20
121.2786487373338
 30
0.0
 40
2.7999999999999989
  0
CIRCLE
  5
130
  8
21
 10
451.41587730501158
 20
121.2786487373338
 30
0.0
 40
2.0
  0
CIRCLE
  5
131
  8
21
 10
472.16587730501158
 20
121.2786487373338
 30
0.0
 40
2.7999999999999989
  0
CIRCLE
  5
132
  8
21
 10
472.16587730501158
 20
121.2786487373338
 30
0.0
 40
2.0
  0
CIRCLE
  5
133
  8
21
 10
444.16587730501169
 20
150.27864873733381
 30
0.0
 40
2.7999999999999989
  0
CIRCLE
  5
134
  8
21
 10
444.16587730501169
 20
150.27864873733381
 30
0.0
 40
2.0
  0
CIRCLE
  5
135
  8
21
 10
451.41587730501209
 20
179.27864873733381
 30
0.0
 40
2.7999999999999989
  0
CIRCLE
  5
136
  8
21
 10
451.41587730501209
 20
179.27864873733381
 30
0.0
 40
2.0
  0
CIRCLE
  5
137
  8
21
 10
472.1658773050122
 20
179.27864873733381
 30
0.0
 40
2.7999999999999989
  0
CIRCLE
  5
138
  8
21
 10
472.1658773050122
 20
179.27864873733381
 30
0.0
 40
2.0
  0
CIRCLE
  5
139
  8
21
 10
532.91587730501158
 20
121.2786487373338
 30
0.0
 40
2.7999999999999989
  0
CIRCLE
  5
13A
  8
21
 10
532.91587730501158
 20
121.2786487373338
 30
0.0
 40
2.0
  0
CIRCLE
  5
13B
  8
21
 10
540.16587730501158
 20
150.27864873733381
 30
0.0
 40
2.7999999999999989
  0
CIRCLE
  5
13C
  8
21
 10
540.16587730501158
 20
150.27864873733381
 30
0.0
 40
2.0
  0
CIRCLE
  5
13D
  8
21
 10
512.16587730501169
 20
121.2786487373338
 30
0.0
 40
2.0
  0
CIRCLE
  5
13E
  8
21
 10
512.16587730501169
 20
121.2786487373338
 30
0.0
 40
2.7999999999999989
  0
CIRCLE
  5
13F
  8
21
 10
512.16587730501101
 20
179.27864873733381
 30
0.0
 40
2.7999999999999989
  0
CIRCLE
  5
140
  8
21
 10
512.16587730501101
 20
179.27864873733381
 30
0.0
 40
2.0
  0
CIRCLE
  5
141
  8
21
 10
532.91587730501089
 20
179.27864873733381
 30
0.0
 40
2.0
  0
CIRCLE
  5
142
  8
21
 10
532.91587730501089
 20
179.27864873733381
 30
0.0
 40
2.7999999999999989
  0
LINE
  5
152
  8
21
 10
348.81720308176239
 20
111.6786487373337
 30
0.0
 11
348.81720308176239
 21
150.27864873733381
 31
0.0
  0
ARC
  5
155
  8
41
 10
347.11720308176228
 20
188.10953028270529
 30
0.0
 40
0.3
 50
100.0000000000004
 51
180.0
  0
LINE
  5
156
  8
41
 10
346.81720308176227
 20
188.10953028270529
 30
0.0
 11
346.81720308176227
 21
187.27864873733381
 31
0.0
  0
LINE
  5
157
  8
41
 10
348.81720308176239
 20
190.2786487373337
 30
0.0
 11
348.81720308176239
 21
188.87864873733369
 31
0.0
  0
LINE
  5
158
  8
52
 10
348.31720308176227
 20
187.2786487373337
 30
0.0
 11
385.81720308176239
 21
186.62408380252549
 31
0.0
  0
ARC
  5
159
  8
21
 10
387.81720308176227
 20
188.93826273733379
 30
0.0
 40
1.0
 50
0.0
 51
89.500000000000014
  0
LINE
  5
15A
  8
21
 10
348.81720308176239
 20
190.2786487373337
 30
0.0
 11
387.82593008176229
 21
189.93822473733371
 31
0.0
  0
LINE
  5
15D
  8
41
 10
348.61720308176228
 20
188.6786487373337
 30
0.0
 11
347.06510862846221
 21
188.404972608609
 31
0.0
  0
ARC
  5
15E
  8
41
 10
348.61720308176223
 20
188.8786487373338
 30
0.0
 40
0.2
 50
270.0
 51
0.0
  0
ARC
  5
15F
  8
52
 10
445.8172030817542
 20
150.2786487373337
 30
0.0
 40
60.999999999991871
 50
169.6111421845296
 51
179.99999999999989
  0
LINE
  5
160
  8
41
 10
348.81720308176239
 20
188.8786487373338
 30
0.0
 11
348.81720308176239
 21
150.27864873733381
 31
0.0
  0
POLYLINE
  5
161
  8
52
 66
     1
 10
0.0
 20
0.0
 30
0.0
  0
VERTEX
  5
3EC
  8
52
 10
384.9484919076296
 20
154.27864873733381
 30
0.0
  0
VERTEX
  5
3ED
  8
52
 10
378.66720308176218
 20
154.27864873733381
 30
0.0
  0
VERTEX
  5
3EE
  8
52
 10
378.66720308176218
 20
146.27864873733381
 30
0.0
  0
VERTEX
  5
3EF
  8
52
 10
384.94849190762972
 20
146.27864873733381
 30
0.0
  0
SEQEND
  5
3F0
  8
52
  0
LINE
  5
1A0
  8
52
 10
467.66587730501158
 20
228.8759804044864
 30
0.0
 11
503.16587730501072
 21
228.8759804044864
 31
0.0
  0
LINE
  5
1B1
  8
21
 10
433.76587730501149
 20
265.87598040448643
 30
0.0
 11
550.56587730501167
 21
265.87598040448643
 31
0.0
  0
LINE
  5
1B2
  8
21
 10
552.16587730501158
 20
265.87598040448631
 30
0.0
 11
551.82545330501171
 21
226.86725340448641
 31
0.0
  0
ARC
  5
1B3
  8
21
 10
550.82549130501184
 20
226.87598040448651
 30
0.0
 40
1.0
 50
270.0
 51
359.5
  0
POLYLINE
  5
1B4
  8
21
 66
     1
 10
0.0
 20
0.0
 30
0.0
  0
VERTEX
  5
3F1
  8
21
 10
550.56587730501167
 20
265.87598040448643
 30
0.0
  0
VERTEX
  5
3F2
  8
21
 10
552.1658773050118
 20
265.87598040448643
 30
0.0
  0
SEQEND
  5
3F3
  8
21
  0
POLYLINE
  5
1B8
  8
21
 66
     1
 10
0.0
 20
0.0
 30
0.0
  0
VERTEX
  5
3F4
  8
21
 10
550.21322334359479
 20
267.87598040448643
 30
0.0
  0
VERTEX
  5
3F5
  8
21
 10
550.56587730501167
 20
265.87598040448643
 30
0.0
  0
SEQEND
  5
3F6
  8
21
  0
POLYLINE
  5
1BC
  8
21
 66
     1
 10
0.0
 20
0.0
 30
0.0
  0
VERTEX
  5
3F7
  8
21
 10
549.1658773050118
 20
267.87598040448643
 30
0.0
  0
VERTEX
  5
3F8
  8
21
 10
550.21322334359479
 20
267.87598040448643
 30
0.0
  0
SEQEND
  5
3F9
  8
21
  0
LINE
  5
1C0
  8
21
 10
509.00100333805551
 20
225.87598040448631
 30
0.0
 11
503.16587730501072
 21
225.87598040448631
 31
0.0
  0
LINE
  5
1C1
  8
21
 10
503.16587730501072
 20
225.87598040448631
 30
0.0
 11
481.1658773050126
 21
225.87598040448631
 31
0.0
  0
LINE
  5
1C2
  8
21
 10
481.1658773050126
 20
225.87598040448631
 30
0.0
 11
433.5062633050116
 21
225.87598040448631
 31
0.0
  0
POLYLINE
  5
1C3
  8
21
 66
     1
 10
0.0
 20
0.0
 30
0.0
  0
VERTEX
  5
3FA
  8
21
 10
435.16587730501152
 20
267.87598040448643
 30
0.0
  0
VERTEX
  5
3FB
  8
21
 10
434.11853126642848
 20
267.87598040448643
 30
0.0
  0
SEQEND
  5
3FC
  8
21
  0
POLYLINE
  5
1C7
  8
21
 66
     1
 10
0.0
 20
0.0
 30
0.0
  0
VERTEX
  5
3FD
  8
21
 10
434.11853126642848
 20
267.87598040448643
 30
0.0
  0
VERTEX
  5
3FE
  8
21
 10
433.76587730501149
 20
265.87598040448643
 30
0.0
  0
SEQEND
  5
3FF
  8
21
  0
POLYLINE
  5
1CB
  8
21
 66
     1
 10
0.0
 20
0.0
 30
0.0
  0
VERTEX
  5
400
  8
21
 10
433.76587730501149
 20
265.87598040448643
 30
0.0
  0
VERTEX
  5
401
  8
21
 10
432.16587730501152
 20
265.87598040448643
 30
0.0
  0
SEQEND
  5
402
  8
21
  0
ARC
  5
1CF
  8
21
 10
433.50626330501149
 20
226.87598040448651
 30
0.0
 40
1.0
 50
180.5
 51
270.0
  0
LINE
  5
1D0
  8
21
 10
432.16587730501158
 20
265.87598040448631
 30
0.0
 11
432.50630130501162
 21
226.86725340448641
 31
0.0
  0
LINE
  5
1D1
  8
21
 10
551.16587730501158
 20
225.8759804044864
 30
0.0
 11
509.00100333805551
 21
225.87598040448631
 31
0.0
  0
LINE
  5
1D2
  8
52
 10
472.16587730501158
 20
236.3759804044864
 30
0.0
 11
474.36587730501162
 21
236.3759804044864
 31
0.0
  0
LINE
  5
1D3
  8
23
 10
492.16587730501158
 20
222.3638518357611
 30
0.0
 11
492.16587730501169
 21
272.36385183576112
 31
0.0
  0
LINE
  5
1D4
  8
21
 10
549.16587730501169
 20
267.87598040448643
 30
0.0
 11
435.16587730501158
 21
267.87598040448631
 31
0.0
  0
TEXT
  5
1D5
  8
L20
 10
256.25395729670669
 20
236.6421100892795
 30
0.0
 40
9.2438143745674335
  1
FIBOX EURONORD II
 41
0.8
  7
SIMPLEX
  0
LINE
  5
1D7
  8
23
 10
492.16587730501158
 20
193.27864873733401
 30
0.0
 11
492.16587730501152
 21
107.2786487373338
 31
0.0
  0
LINE
  5
1D8
  8
23
 10
429.16587730501158
 20
150.27864873733381
 30
0.0
 11
555.16587730501169
 21
150.2786487373337
 31
0.0
  0
LINE
  5
1D9
  8
23
 10
245.1642513342652
 20
193.27864873733381
 30
0.0
 11
245.1642513342652
 21
107.2786487373338
 31
0.0
  0
LINE
  5
1DA
  8
23
 10
308.16425133426509
 20
150.27864873733381
 30
0.0
 11
182.1642513342652
 21
150.27864873733381
 31
0.0
  0
TEXT
  5
1E0
  8
L20
 10
256.25395729670669
 20
220.180734841419
 30
0.0
 40
9.2438143745674335
  1
80x120x40 BASE
 41
0.8
  7
SIMPLEX
  0
LINE
  5
266
  8
52
 10
540.46587730501176
 20
267.87598040448631
 30
0.0
 11
539.78512977281116
 21
228.87598040448631
 31
0.0
  0
LINE
  5
268
  8
52
 10
548.48512977281121
 20
228.87598040448631
 30
0.0
 11
503.16587730501072
 21
228.8759804044864
 31
0.0
  0
ARC
  5
269
  8
52
 10
492.16587730501152
 20
168.87598040449461
 30
0.0
 40
60.999999999991807
 50
79.611142184529683
 51
100.38885781546981
  0
LINE
  5
26A
  8
52
 10
481.16587730501271
 20
228.87598040448651
 30
0.0
 11
476.66587730501152
 21
228.8759804044864
 31
0.0
  0
ARC
  5
26B
  8
52
 10
476.66587730501152
 20
229.37598040448651
 30
0.0
 40
0.5
 50
180.0
 51
270.0
  0
LINE
  5
26C
  8
52
 10
476.16587730501158
 20
229.37598040448651
 30
0.0
 11
476.16587730501158
 21
236.3759804044864
 31
0.0
  0
LINE
  5
26D
  8
52
 10
476.16587730501158
 20
236.3759804044864
 30
0.0
 11
468.16587730501158
 21
236.3759804044864
 31
0.0
  0
LINE
  5
26E
  8
52
 10
468.16587730501158
 20
236.3759804044864
 30
0.0
 11
468.16587730501158
 21
229.37598040448651
 31
0.0
  0
ARC
  5
26F
  8
52
 10
467.66587730501158
 20
229.37598040448651
 30
0.0
 40
0.5
 50
270.0
 51
0.0
  0
LINE
  5
270
  8
52
 10
467.66587730501158
 20
228.8759804044864
 30
0.0
 11
435.84662483721212
 21
228.87598040448631
 31
0.0
  0
LINE
  5
272
  8
52
 10
444.54662483721199
 20
228.87598040448631
 30
0.0
 11
443.86587730501151
 21
267.87598040448631
 31
0.0
  0
LINE
  5
273
  8
21
 10
635.71455152826059
 20
111.8786487373338
 30
0.0
 11
637.26664598156071
 21
112.15232486605861
 31
0.0
  0
LINE
  5
274
  8
23
 10
590.37978986614678
 20
150.27864873733381
 30
0.0
 11
641.80851124294259
 21
150.27864873733381
 31
0.0
  0
LINE
  5
275
  8
41
 10
635.71455152826059
 20
188.6786487373337
 30
0.0
 11
637.26664598156071
 21
188.404972608609
 31
0.0
  0
LINE
  5
276
  8
41
 10
637.51455152826065
 20
113.2786487373338
 30
0.0
 11
637.51455152826065
 21
187.2786487373339
 31
0.0
  0
ARC
  5
277
  8
21
 10
637.2145515282607
 20
112.4477671919622
 30
0.0
 40
0.3
 50
280.00000000000028
 51
0.000000000000007
  0
LINE
  5
278
  8
21
 10
637.51455152826065
 20
112.4477671919622
 30
0.0
 11
637.51455152826065
 21
113.2786487373338
 31
0.0
  0
LINE
  5
279
  8
41
 10
637.51455152826065
 20
188.10953028270529
 30
0.0
 11
637.51455152826065
 21
187.27864873733381
 31
0.0
  0
ARC
  5
27A
  8
41
 10
637.2145515282607
 20
188.10953028270529
 30
0.0
 40
0.3
 50
0.000000000000007
 51
79.999999999999602
  0
LINE
  5
27B
  8
52
 10
598.51455152826065
 20
113.933213672142
 30
0.0
 11
598.51455152826065
 21
145.77864873733381
 31
0.0
  0
LINE
  5
27C
  8
21
 10
635.51455152826065
 20
111.6786487373337
 30
0.0
 11
635.51455152826065
 21
150.27864873733381
 31
0.0
  0
LINE
  5
27D
  8
21
 10
595.51455152826065
 20
150.27864873733381
 30
0.0
 11
595.51455152826065
 21
111.61903473733381
 31
0.0
  0
LINE
  5
27E
  8
52
 10
636.01455152826065
 20
113.2786487373338
 30
0.0
 11
598.51455152826065
 21
113.933213672142
 31
0.0
  0
LINE
  5
27F
  8
21
 10
635.51455152826065
 20
110.2786487373338
 30
0.0
 11
596.50582452826075
 21
110.61907273733389
 31
0.0
  0
LINE
  5
280
  8
21
 10
635.51455152826065
 20
110.2786487373338
 30
0.0
 11
635.51455152826065
 21
111.6786487373338
 31
0.0
  0
ARC
  5
281
  8
21
 10
635.71455152826059
 20
111.6786487373337
 30
0.0
 40
0.2
 50
90.0
 51
180.0
  0
ARC
  5
282
  8
21
 10
596.51455152826065
 20
111.61903473733371
 30
0.0
 40
1.0
 50
180.0
 51
269.5
  0
LINE
  5
283
  8
52
 10
598.51455152826065
 20
186.62408380252549
 30
0.0
 11
598.51455152826065
 21
154.77864873733381
 31
0.0
  0
LINE
  5
284
  8
21
 10
595.51455152826065
 20
150.27864873733381
 30
0.0
 11
595.51455152826065
 21
189.27864873733381
 31
0.0
  0
LINE
  5
285
  8
41
 10
635.51455152826065
 20
188.8786487373338
 30
0.0
 11
635.51455152826065
 21
150.27864873733381
 31
0.0
  0
ARC
  5
286
  8
52
 10
538.51455152826884
 20
150.27864873733381
 30
0.0
 40
60.999999999991871
 50
349.61114218452968
 51
359.99999999999989
  0
POLYLINE
  5
287
  8
52
 66
     1
 10
0.0
 20
0.0
 30
0.0
  0
VERTEX
  5
403
  8
52
 10
599.38326270239349
 20
154.27864873733381
 30
0.0
  0
VERTEX
  5
404
  8
52
 10
605.66455152826074
 20
154.27864873733381
 30
0.0
  0
VERTEX
  5
405
  8
52
 10
605.66455152826074
 20
146.27864873733381
 30
0.0
  0
VERTEX
  5
406
  8
52
 10
599.38326270239315
 20
146.27864873733381
 30
0.0
  0
SEQEND
  5
407
  8
52
  0
LINE
  5
288
  8
52
 10
605.66455152826074
 20
150.27864873733381
 30
0.0
 11
605.66455152826074
 21
148.07864873733379
 31
0.0
  0
LINE
  5
289
  8
52
 10
598.51455152826065
 20
154.77864873733381
 30
0.0
 11
598.51455152826065
 21
145.77864873733381
 31
0.0
  0
ARC
  5
28A
  8
52
 10
538.51455152826884
 20
150.2786487373337
 30
0.0
 40
60.999999999991871
 50
0.0000000000000579
 51
10.388857815470301
  0
LINE
  5
28B
  8
52
 10
636.01455152826065
 20
187.2786487373337
 30
0.0
 11
598.51455152826065
 21
186.62408380252549
 31
0.0
  0
LINE
  5
28C
  8
21
 10
635.51455152826065
 20
190.2786487373337
 30
0.0
 11
596.50582452826075
 21
189.93822473733371
 31
0.0
  0
ARC
  5
28D
  8
41
 10
635.71455152826059
 20
188.8786487373338
 30
0.0
 40
0.2
 50
180.0
 51
270.0
  0
LINE
  5
28E
  8
41
 10
635.51455152826065
 20
190.2786487373337
 30
0.0
 11
635.51455152826065
 21
188.87864873733369
 31
0.0
  0
ARC
  5
28F
  8
21
 10
596.51455152826065
 20
188.93826273733379
 30
0.0
 40
1.0
 50
90.5
 51
180.0
  0
LINE
  5
290
  8
52
 10
467.66587730501158
 20
71.681317070180967
 30
0.0
 11
435.84662483721212
 21
71.681317070181123
 31
0.0
  0
LINE
  5
291
  8
21
 10
549.16587730501169
 20
32.68131707018096
 30
0.0
 11
435.16587730501158
 21
32.68131707018108
 31
0.0
  0
LINE
  5
292
  8
21
 10
433.76587730501149
 20
34.681317070180967
 30
0.0
 11
550.56587730501167
 21
34.681317070180967
 31
0.0
  0
LINE
  5
293
  8
21
 10
481.1658773050126
 20
74.68131707018108
 30
0.0
 11
433.5062633050116
 21
74.68131707018108
 31
0.0
  0
LINE
  5
294
  8
52
 10
444.54662483721199
 20
71.68131707018108
 30
0.0
 11
443.86587730501151
 21
32.68131707018108
 31
0.0
  0
LINE
  5
295
  8
21
 10
432.16587730501158
 20
34.68131707018108
 30
0.0
 11
432.50630130501162
 21
73.690044070180988
 31
0.0
  0
ARC
  5
296
  8
21
 10
433.50626330501149
 20
73.681317070180967
 30
0.0
 40
1.0
 50
90.000000000000028
 51
179.49999999999989
  0
POLYLINE
  5
297
  8
21
 66
     1
 10
0.0
 20
0.0
 30
0.0
  0
VERTEX
  5
408
  8
21
 10
433.76587730501149
 20
34.681317070180967
 30
0.0
  0
VERTEX
  5
409
  8
21
 10
432.16587730501152
 20
34.681317070180967
 30
0.0
  0
SEQEND
  5
40A
  8
21
  0
POLYLINE
  5
298
  8
21
 66
     1
 10
0.0
 20
0.0
 30
0.0
  0
VERTEX
  5
40B
  8
21
 10
434.11853126642848
 20
32.68131707018096
 30
0.0
  0
VERTEX
  5
40C
  8
21
 10
433.76587730501149
 20
34.681317070180967
 30
0.0
  0
SEQEND
  5
40D
  8
21
  0
POLYLINE
  5
299
  8
21
 66
     1
 10
0.0
 20
0.0
 30
0.0
  0
VERTEX
  5
40E
  8
21
 10
435.16587730501152
 20
32.68131707018096
 30
0.0
  0
VERTEX
  5
40F
  8
21
 10
434.11853126642848
 20
32.68131707018096
 30
0.0
  0
SEQEND
  5
410
  8
21
  0
LINE
  5
29A
  8
52
 10
548.48512977281121
 20
71.681317070181109
 30
0.0
 11
503.16587730501072
 21
71.681317070181024
 31
0.0
  0
LINE
  5
29B
  8
21
 10
551.16587730501158
 20
74.681317070180967
 30
0.0
 11
509.00100333805551
 21
74.68131707018108
 31
0.0
  0
LINE
  5
29C
  8
23
 10
492.16587730501158
 20
78.193445638906269
 30
0.0
 11
492.16587730501169
 21
28.193445638906269
 31
0.0
  0
ARC
  5
29D
  8
52
 10
492.16587730501152
 20
131.68131707017281
 30
0.0
 40
60.999999999991807
 50
259.61114218453002
 51
280.38885781547032
  0
LINE
  5
29E
  8
52
 10
467.66587730501158
 20
71.681317070180967
 30
0.0
 11
503.16587730501072
 21
71.681317070181024
 31
0.0
  0
LINE
  5
29F
  8
21
 10
503.16587730501072
 20
74.68131707018108
 30
0.0
 11
481.1658773050126
 21
74.68131707018108
 31
0.0
  0
LINE
  5
2A0
  8
52
 10
476.16587730501158
 20
64.181317070180967
 30
0.0
 11
468.16587730501158
 21
64.181317070180967
 31
0.0
  0
ARC
  5
2A1
  8
52
 10
467.66587730501158
 20
71.181317070180967
 30
0.0
 40
0.5
 50
0.0
 51
90.000000000000028
  0
LINE
  5
2A2
  8
52
 10
468.16587730501158
 20
64.181317070180967
 30
0.0
 11
468.16587730501158
 21
71.181317070180967
 31
0.0
  0
LINE
  5
2A3
  8
52
 10
476.16587730501158
 20
71.181317070180967
 30
0.0
 11
476.16587730501158
 21
64.181317070180967
 31
0.0
  0
ARC
  5
2A4
  8
52
 10
476.66587730501152
 20
71.181317070180967
 30
0.0
 40
0.5
 50
90.000000000000028
 51
180.0
  0
LINE
  5
2A5
  8
52
 10
481.16587730501271
 20
71.681317070180938
 30
0.0
 11
476.66587730501152
 21
71.681317070180967
 31
0.0
  0
LINE
  5
2A6
  8
52
 10
472.16587730501158
 20
64.181317070180967
 30
0.0
 11
474.36587730501162
 21
64.181317070180967
 31
0.0
  0
LINE
  5
2A7
  8
21
 10
509.00100333805551
 20
74.68131707018108
 30
0.0
 11
503.16587730501072
 21
74.68131707018108
 31
0.0
  0
LINE
  5
2A8
  8
52
 10
540.46587730501176
 20
32.68131707018108
 30
0.0
 11
539.78512977281116
 21
71.68131707018108
 31
0.0
  0
LINE
  5
2A9
  8
21
 10
552.16587730501158
 20
34.68131707018108
 30
0.0
 11
551.82545330501171
 21
73.690044070180988
 31
0.0
  0
ARC
  5
2AA
  8
21
 10
550.82549130501184
 20
73.681317070180967
 30
0.0
 40
1.0
 50
0.5000000000000338
 51
90.000000000000028
  0
POLYLINE
  5
2AB
  8
21
 66
     1
 10
0.0
 20
0.0
 30
0.0
  0
VERTEX
  5
411
  8
21
 10
550.56587730501167
 20
34.681317070180967
 30
0.0
  0
VERTEX
  5
412
  8
21
 10
552.1658773050118
 20
34.681317070180967
 30
0.0
  0
SEQEND
  5
413
  8
21
  0
POLYLINE
  5
2AC
  8
21
 66
     1
 10
0.0
 20
0.0
 30
0.0
  0
VERTEX
  5
414
  8
21
 10
549.1658773050118
 20
32.68131707018096
 30
0.0
  0
VERTEX
  5
415
  8
21
 10
550.21322334359479
 20
32.68131707018096
 30
0.0
  0
SEQEND
  5
416
  8
21
  0
POLYLINE
  5
2AD
  8
21
 66
     1
 10
0.0
 20
0.0
 30
0.0
  0
VERTEX
  5
417
  8
21
 10
550.21322334359479
 20
32.68131707018096
 30
0.0
  0
VERTEX
  5
418
  8
21
 10
550.56587730501167
 20
34.681317070180967
 30
0.0
  0
SEQEND
  5
419
  8
21
  0
LINE
  5
2AE
  8
52
 10
435.84662483721212
 20
228.87598040448631
 30
0.0
 11
435.16587730501158
 21
267.87598040448631
 31
0.0
  0
LINE
  5
2AF
  8
52
 10
548.48512977281121
 20
228.87598040448631
 30
0.0
 11
549.16587730501169
 21
267.87598040448631
 31
0.0
  0
LINE
  5
2B0
  8
52
 10
435.84662483721212
 20
71.681317070181123
 30
0.0
 11
435.16587730501158
 21
32.68131707018108
 31
0.0
  0
LINE
  5
2B1
  8
52
 10
548.48512977281121
 20
71.681317070181109
 30
0.0
 11
549.16587730501169
 21
32.68131707018108
 31
0.0
  0
LINE
  5
2B3
  8
52
 10
348.31720308176227
 20
169.57864873733379
 30
0.0
 11
385.81720308176239
 21
168.92408380252559
 31
0.0
  0
LINE
  5
2B4
  8
52
 10
348.31720308176227
 20
130.9786487373338
 30
0.0
 11
385.81720308176239
 21
131.63321367214189
 31
0.0
  0
LINE
  5
2B5
  8
52
 10
636.01455152826065
 20
169.57864873733379
 30
0.0
 11
598.51455152826065
 21
168.92408380252559
 31
0.0
  0
LINE
  5
2B6
  8
52
 10
636.01455152826065
 20
130.9786487373338
 30
0.0
 11
598.51455152826065
 21
131.63321367214189
 31
0.0
  0
ENDSEC
  0
EOF
