  0
SECTION
  2
HEADER
  9
$ACADVER
  1
AC1009
  9
$INSBASE
 10
0.0
 20
0.0
 30
0.0
  9
$EXTMIN
 10
206.831555998456
 20
742.11994704784149
 30
0.0
  9
$EXTMAX
 10
590.41436133979812
 20
958.03522170784242
 30
0.0
  9
$LIMMIN
 10
-456.601528516028
 20
5.0
  9
$LIMMAX
 10
934.40616009549785
 20
1060.276836655748
  9
$ORTHOMODE
 70
     1
  9
$REGENMODE
 70
     1
  9
$FILLMODE
 70
     1
  9
$QTEXTMODE
 70
     0
  9
$MIRRTEXT
 70
     1
  9
$DRAGMODE
 70
     2
  9
$LTSCALE
 40
7.0
  9
$OSMODE
 70
    37
  9
$ATTMODE
 70
     1
  9
$TEXTSIZE
 40
2.5
  9
$TRACEWID
 40
0.05
  9
$TEXTSTYLE
  7
TKKISO
  9
$CLAYER
  8
1
  9
$CELTYPE
  6
BYLAYER
  9
$CECOLOR
 62
   256
  9
$DIMSCALE
 40
1.0
  9
$DIMASZ
 40
2.5
  9
$DIMEXO
 40
0.0625
  9
$DIMDLI
 40
10.0
  9
$DIMRND
 40
0.0
  9
$DIMDLE
 40
0.0
  9
$DIMEXE
 40
1.0
  9
$DIMTP
 40
0.0
  9
$DIMTM
 40
0.0
  9
$DIMTXT
 40
2.5
  9
$DIMCEN
 40
0.09
  9
$DIMTSZ
 40
0.0
  9
$DIMTOL
 70
     0
  9
$DIMLIM
 70
     0
  9
$DIMTIH
 70
     0
  9
$DIMTOH
 70
     0
  9
$DIMSE1
 70
     0
  9
$DIMSE2
 70
     0
  9
$DIMTAD
 70
     1
  9
$DIMZIN
 70
     0
  9
$DIMBLK
  1

  9
$DIMASO
 70
     1
  9
$DIMSHO
 70
     1
  9
$DIMPOST
  1

  9
$DIMAPOST
  1

  9
$DIMALT
 70
     0
  9
$DIMALTD
 70
     2
  9
$DIMALTF
 40
25.399999999999999
  9
$DIMLFAC
 40
1.0
  9
$DIMTOFL
 70
     1
  9
$DIMTVP
 40
0.0
  9
$DIMTIX
 70
     0
  9
$DIMSOXD
 70
     1
  9
$DIMSAH
 70
     1
  9
$DIMBLK1
  1

  9
$DIMBLK2
  1

  9
$DIMSTYLE
  2
STANDARD
  9
$DIMCLRD
 70
     1
  9
$DIMCLRE
 70
     1
  9
$DIMCLRT
 70
     3
  9
$DIMTFAC
 40
1.0
  9
$DIMGAP
 40
0.09
  9
$LUNITS
 70
     2
  9
$LUPREC
 70
     2
  9
$SKETCHINC
 40
0.1
  9
$FILLETRAD
 40
0.0
  9
$AUNITS
 70
     0
  9
$AUPREC
 70
     1
  9
$MENU
  1
caesar
  9
$ELEVATION
 40
0.0
  9
$PELEVATION
 40
0.0
  9
$THICKNESS
 40
0.0
  9
$LIMCHECK
 70
     0
  9
$BLIPMODE
 70
     0
  9
$CHAMFERA
 40
5.0
  9
$CHAMFERB
 40
5.0
  9
$SKPOLY
 70
     0
  9
$TDCREATE
 40
2448716.6085871528
  9
$TDUPDATE
 40
2453620.4660479049
  9
$TDINDWG
 40
0.145809375
  9
$TDUSRTIMER
 40
0.145809375
  9
$USRTIMER
 70
     1
  9
$ANGBASE
 50
0.0
  9
$ANGDIR
 70
     0
  9
$PDMODE
 70
     0
  9
$PDSIZE
 40
0.0
  9
$PLINEWID
 40
0.0
  9
$COORDS
 70
     2
  9
$SPLFRAME
 70
     0
  9
$SPLINETYPE
 70
     6
  9
$SPLINESEGS
 70
     8
  9
$ATTDIA
 70
     0
  9
$ATTREQ
 70
     1
  9
$HANDLING
 70
-16383
  9
$HANDSEED
  5
272
  9
$SURFTAB1
 70
     6
  9
$SURFTAB2
 70
     6
  9
$SURFTYPE
 70
     6
  9
$SURFU
 70
     6
  9
$SURFV
 70
     6
  9
$UCSNAME
  2

  9
$UCSORG
 10
0.0
 20
0.0
 30
0.0
  9
$UCSXDIR
 10
1.0
 20
0.0
 30
0.0
  9
$UCSYDIR
 10
0.0
 20
1.0
 30
0.0
  9
$PUCSNAME
  2

  9
$PUCSORG
 10
0.0
 20
0.0
 30
0.0
  9
$PUCSXDIR
 10
1.0
 20
0.0
 30
0.0
  9
$PUCSYDIR
 10
0.0
 20
1.0
 30
0.0
  9
$USERI1
 70
   102
  9
$USERI2
 70
     0
  9
$USERI3
 70
     0
  9
$USERI4
 70
     0
  9
$USERI5
 70
     0
  9
$USERR1
 40
1.0
  9
$USERR2
 40
-10.0
  9
$USERR3
 40
2.5
  9
$USERR4
 40
0.0
  9
$USERR5
 40
0.0
  9
$WORLDVIEW
 70
     1
  9
$SHADEDGE
 70
     3
  9
$SHADEDIF
 70
    70
  9
$TILEMODE
 70
     1
  9
$MAXACTVP
 70
    16
  9
$PLIMCHECK
 70
     0
  9
$PEXTMIN
 10
1.0000000000000000E+020
 20
1.0000000000000000E+020
 30
1.0000000000000000E+020
  9
$PEXTMAX
 10
-1.0000000000000000E+020
 20
-1.0000000000000000E+020
 30
-1.0000000000000000E+020
  9
$PLIMMIN
 10
0.0
 20
0.0
  9
$PLIMMAX
 10
12.0
 20
9.0
  9
$UNITMODE
 70
     0
  9
$VISRETAIN
 70
     0
  9
$PLINEGEN
 70
     0
  9
$PSLTSCALE
 70
     0
  0
ENDSEC
  0
SECTION
  2
TABLES
  0
TABLE
  2
VPORT
 70
     2
  0
VPORT
  2
*ACTIVE
 70
     0
 10
0.0
 20
0.0
 11
1.0
 21
1.0
 12
398.6211433232769
 22
850.05395830309078
 13
0.0
 23
0.0
 14
1.0
 24
1.0
 15
10.0
 25
10.0
 16
0.0
 26
0.0
 36
1.0
 17
0.0
 27
0.0
 37
0.0
 40
247.7381549713127
 41
1.5552208835341359
 42
50.0
 43
0.0
 44
0.0
 50
0.0
 51
0.0
 71
     0
 72
  2000
 73
     1
 74
     0
 75
     0
 76
     0
 77
     0
 78
     0
  0
ENDTAB
  0
TABLE
  2
LTYPE
 70
     3
  0
LTYPE
  2
CONTINUOUS
 70
     0
  3
Solid line
 72
    65
 73
     0
 40
0.0
  0
LTYPE
  2
HIDDEN
 70
     0
  3
_ _ _ _ _ _ _ _ _ _ _ _ _ _ _ _ _ _ _ _ _ _ _
 72
    65
 73
     2
 40
0.375
 49
0.25
 49
-0.125
  0
LTYPE
  2
CENTER
 70
     0
  3
____ _ ____ _ ____ _ ____ _ ____ _ ____ _ ____
 72
    65
 73
     4
 40
2.0
 49
1.25
 49
-0.25
 49
0.25
 49
-0.25
  0
ENDTAB
  0
TABLE
  2
LAYER
 70
     7
  0
LAYER
  2
0
 70
     0
 62
     7
  6
CONTINUOUS
  0
LAYER
  2
L22
 70
     0
 62
     1
  6
CONTINUOUS
  0
LAYER
  2
DEFPOINTS
 70
     1
 62
     7
  6
CONTINUOUS
  0
LAYER
  2
L20
 70
     0
 62
     3
  6
CONTINUOUS
  0
LAYER
  2
1
 70
     0
 62
     7
  6
CONTINUOUS
  0
LAYER
  2
12
 70
     0
 62
     1
  6
HIDDEN
  0
LAYER
  2
23
 70
     0
 62
     1
  6
CENTER
  0
ENDTAB
  0
TABLE
  2
STYLE
 70
     3
  0
STYLE
  2
STANDARD
 70
     0
 40
0.0
 41
1.0
 50
0.0
 71
     0
 42
2.5
  3
caeiso
  4

  0
STYLE
  2
SIMPLEX
 70
     0
 40
0.0
 41
0.8
 50
0.0
 71
     0
 42
2.5
  3
KIRJAIN
  4

  0
STYLE
  2
TKKISO
 70
     0
 40
0.0
 41
1.0
 50
0.0
 71
     0
 42
2.5
  3
caeiso
  4

  0
ENDTAB
  0
TABLE
  2
VIEW
 70
     0
  0
ENDTAB
  0
TABLE
  2
UCS
 70
     0
  0
ENDTAB
  0
TABLE
  2
APPID
 70
     2
  0
APPID
  2
ACAD
 70
     0
  0
APPID
  2
DCO15
 70
     0
  0
ENDTAB
  0
TABLE
  2
DIMSTYLE
 70
     1
  0
DIMSTYLE
  2
STANDARD
 70
     0
  3

  4

  5

  6

  7

 40
1.0
 41
0.18
 42
0.0625
 43
0.38
 44
0.18
 45
0.0
 46
0.0
 47
0.0
 48
0.0
140
0.18
141
0.09
142
0.0
143
25.399999999999999
144
1.0
145
0.0
146
1.0
147
0.09
 71
     0
 72
     0
 73
     1
 74
     1
 75
     0
 76
     0
 77
     0
 78
     0
170
     0
171
     2
172
     0
173
     0
174
     0
175
     0
176
     0
177
     0
178
     0
  0
ENDTAB
  0
ENDSEC
  0
SECTION
  2
BLOCKS
  0
BLOCK
  8
0
  2
$MODEL_SPACE
 70
     0
 10
0.0
 20
0.0
 30
0.0
  3
$MODEL_SPACE
  1

  0
ENDBLK
  5
84
  8
0
  0
BLOCK
 67
     1
  8
0
  2
$PAPER_SPACE
 70
     0
 10
0.0
 20
0.0
 30
0.0
  3
$PAPER_SPACE
  1

  0
ENDBLK
  5
82
 67
     1
  8
0
  0
BLOCK
  8
0
  2
TKK-ACAD
 70
     0
 10
0.0
 20
0.0
 30
0.0
  3
TKK-ACAD
  1

  0
ENDBLK
  5
86
  8
0
  0
ENDSEC
  0
SECTION
  2
ENTITIES
  0
INSERT
  5
87
  8
0
  2
TKK-ACAD
 10
387.69019597505729
 20
522.0663370813196
 30
0.0
  0
ARC
  5
88
  8
1
 10
215.831555998456
 20
816.07758437784196
 30
0.0
 40
6.0
 50
180.0
 51
270.0
  0
LINE
  5
89
  8
1
 10
209.83155599845591
 20
816.07758437784196
 30
0.0
 11
209.83155599845591
 21
884.07758437784196
 31
0.0
  0
ARC
  5
8A
  8
1
 10
323.831555998456
 20
816.07758437784196
 30
0.0
 40
6.0
 50
270.0
 51
0.0
  0
ARC
  5
8B
  8
1
 10
323.831555998456
 20
884.07758437784196
 30
0.0
 40
6.0
 50
0.0
 51
90.0
  0
LINE
  5
8C
  8
1
 10
323.831555998456
 20
810.07758437784196
 30
0.0
 11
215.831555998456
 21
810.07758437784196
 31
0.0
  0
ARC
  5
8D
  8
1
 10
215.831555998456
 20
884.07758437784196
 30
0.0
 40
6.0
 50
90.0
 51
180.0
  0
LINE
  5
8E
  8
1
 10
329.831555998456
 20
884.07758437784196
 30
0.0
 11
329.831555998456
 21
816.07758437784196
 31
0.0
  0
ARC
  5
8F
  8
12
 10
324.331555998456
 20
866.87758437784191
 30
0.0
 40
5.5
 50
50.362286000000033
 51
90.0
  0
ARC
  5
90
  8
12
 10
323.831555998456
 20
884.07758437784196
 30
0.0
 40
5.5
 50
245.55666500000001
 51
316.39718099999999
  0
LINE
  5
91
  8
12
 10
321.13155599845589
 20
878.79743237784191
 30
0.0
 11
321.13155599845589
 21
875.3775843778418
 31
0.0
  0
ARC
  5
92
  8
12
 10
328.03155599845599
 20
871.34412637784192
 30
0.0
 40
0.3
 50
230.36228600000001
 51
0.0
  0
ARC
  5
93
  8
12
 10
321.43155599845591
 20
878.79743237784191
 30
0.0
 40
0.3
 50
65.556664999999995
 51
180.0
  0
LINE
  5
94
  8
12
 10
323.331555998456
 20
886.01407637784189
 30
0.0
 11
321.83500799845592
 21
883.96012137784192
 31
0.0
  0
LINE
  5
95
  8
12
 10
325.50188499845598
 20
882.97758437784194
 30
0.0
 11
322.1612269984559
 21
882.97758437784194
 31
0.0
  0
LINE
  5
96
  8
12
 10
324.331555998456
 20
886.01407637784189
 30
0.0
 11
325.8281039984559
 21
883.96012137784192
 31
0.0
  0
CIRCLE
  5
97
  8
12
 10
323.831555998456
 20
884.07758437784196
 30
0.0
 40
2.0
  0
ARC
  5
98
  8
12
 10
328.03155599845599
 20
880.07758437784184
 30
0.0
 40
0.3
 50
0.0
 51
136.39718099999999
  0
ARC
  5
99
  8
12
 10
324.13155599845589
 20
875.3775843778418
 30
0.0
 40
3.0
 50
180.0
 51
270.0
  0
LINE
  5
9A
  8
12
 10
328.331555998456
 20
880.07758437784184
 30
0.0
 11
328.331555998456
 21
871.34412637784192
 31
0.0
  0
LINE
  5
9B
  8
12
 10
315.63155599845589
 20
889.07758437784184
 30
0.0
 11
269.831555998456
 21
889.07758437784184
 31
0.0
  0
ARC
  5
9C
  8
12
 10
315.63155599845589
 20
884.57758437784184
 30
0.0
 40
4.5
 50
0.0
 51
90.0
  0
LINE
  5
9D
  8
12
 10
320.13155599845589
 20
884.57758437784184
 30
0.0
 11
320.13155599845589
 21
875.3775843778418
 31
0.0
  0
ARC
  5
9E
  8
12
 10
324.13155599845589
 20
875.3775843778418
 30
0.0
 40
4.0
 50
180.0
 51
270.0
  0
ARC
  5
9F
  8
12
 10
324.331555998456
 20
866.87758437784191
 30
0.0
 40
4.5
 50
0.0
 51
90.0
  0
LINE
  5
A0
  8
12
 10
328.83155599845588
 20
866.87758437784191
 30
0.0
 11
328.83155599845588
 21
850.07758437784196
 31
0.0
  0
LINE
  5
A1
  8
12
 10
315.63155599845589
 20
886.57758437784196
 30
0.0
 11
269.831555998456
 21
886.57758437784196
 31
0.0
  0
ARC
  5
A2
  8
12
 10
315.63155599845589
 20
884.57758437784184
 30
0.0
 40
2.0
 50
0.0
 51
90.0
  0
LINE
  5
A3
  8
12
 10
317.63155599845589
 20
884.57758437784184
 30
0.0
 11
317.63155599845589
 21
875.3775843778418
 31
0.0
  0
ARC
  5
A4
  8
12
 10
324.13155599845589
 20
875.3775843778418
 30
0.0
 40
6.5
 50
180.0
 51
270.0
  0
ARC
  5
A5
  8
12
 10
324.331555998456
 20
866.87758437784191
 30
0.0
 40
2.0
 50
0.0
 51
90.0
  0
LINE
  5
A6
  8
12
 10
326.331555998456
 20
866.87758437784191
 30
0.0
 11
326.331555998456
 21
850.07758437784196
 31
0.0
  0
ARC
  5
A7
  8
1
 10
315.63155599845589
 20
884.57758437784184
 30
0.0
 40
1.0
 50
0.0
 51
90.0
  0
LINE
  5
A8
  8
1
 10
324.331555998456
 20
867.87758437784191
 30
0.0
 11
324.13155599845589
 21
867.87758437784191
 31
0.0
  0
ARC
  5
A9
  8
1
 10
324.331555998456
 20
866.87758437784191
 30
0.0
 40
1.0
 50
0.0
 51
90.0
  0
LINE
  5
AA
  8
1
 10
325.331555998456
 20
866.87758437784191
 30
0.0
 11
325.331555998456
 21
850.07758437784196
 31
0.0
  0
LINE
  5
AB
  8
1
 10
315.63155599845589
 20
885.57758437784184
 30
0.0
 11
269.831555998456
 21
885.57758437784184
 31
0.0
  0
LINE
  5
AC
  8
1
 10
316.63155599845589
 20
884.57758437784184
 30
0.0
 11
316.63155599845589
 21
875.3775843778418
 31
0.0
  0
ARC
  5
AD
  8
1
 10
324.13155599845589
 20
875.3775843778418
 30
0.0
 40
7.5
 50
180.0
 51
270.0
  0
ARC
  5
AE
  8
12
 10
215.331555998456
 20
866.87758437784191
 30
0.0
 40
5.5
 50
90.0
 51
129.6377139999999
  0
ARC
  5
AF
  8
12
 10
215.831555998456
 20
884.07758437784196
 30
0.0
 40
5.5
 50
223.6028189999999
 51
294.44333499999999
  0
LINE
  5
B0
  8
12
 10
218.53155599845601
 20
878.79743237784191
 30
0.0
 11
218.53155599845601
 21
875.3775843778418
 31
0.0
  0
ARC
  5
B1
  8
12
 10
211.63155599845589
 20
871.34412637784192
 30
0.0
 40
0.3
 50
180.0
 51
309.63771400000002
  0
ARC
  5
B2
  8
12
 10
218.23155599845589
 20
878.79743237784191
 30
0.0
 40
0.3
 50
0.0
 51
114.44333499999991
  0
LINE
  5
B3
  8
12
 10
216.33155599845591
 20
886.01407637784189
 30
0.0
 11
217.8281039984559
 21
883.96012137784192
 31
0.0
  0
LINE
  5
B4
  8
12
 10
214.1612269984559
 20
882.97758437784194
 30
0.0
 11
217.50188499845601
 21
882.97758437784194
 31
0.0
  0
LINE
  5
B5
  8
12
 10
215.331555998456
 20
886.01407637784189
 30
0.0
 11
213.83500799845589
 21
883.96012137784192
 31
0.0
  0
CIRCLE
  5
B6
  8
12
 10
215.831555998456
 20
884.07758437784196
 30
0.0
 40
2.0
  0
ARC
  5
B7
  8
12
 10
211.63155599845589
 20
880.07758437784184
 30
0.0
 40
0.3
 50
43.602819000000011
 51
180.0
  0
ARC
  5
B8
  8
12
 10
215.53155599845601
 20
875.3775843778418
 30
0.0
 40
3.0
 50
270.0
 51
0.0
  0
LINE
  5
B9
  8
12
 10
211.331555998456
 20
880.07758437784184
 30
0.0
 11
211.331555998456
 21
871.34412637784192
 31
0.0
  0
LINE
  5
BA
  8
12
 10
224.03155599845601
 20
889.07758437784184
 30
0.0
 11
269.831555998456
 21
889.07758437784184
 31
0.0
  0
ARC
  5
BB
  8
12
 10
224.03155599845601
 20
884.57758437784184
 30
0.0
 40
4.5
 50
90.0
 51
180.0
  0
LINE
  5
BC
  8
12
 10
219.53155599845601
 20
884.57758437784184
 30
0.0
 11
219.53155599845601
 21
875.3775843778418
 31
0.0
  0
ARC
  5
BD
  8
12
 10
215.53155599845601
 20
875.3775843778418
 30
0.0
 40
4.0
 50
270.0
 51
0.0
  0
ARC
  5
BE
  8
12
 10
215.331555998456
 20
866.87758437784191
 30
0.0
 40
4.5
 50
90.0
 51
180.0
  0
LINE
  5
BF
  8
12
 10
210.831555998456
 20
866.87758437784191
 30
0.0
 11
210.831555998456
 21
850.07758437784196
 31
0.0
  0
LINE
  5
C0
  8
12
 10
224.03155599845601
 20
886.57758437784196
 30
0.0
 11
269.831555998456
 21
886.57758437784196
 31
0.0
  0
ARC
  5
C1
  8
12
 10
224.03155599845601
 20
884.57758437784184
 30
0.0
 40
2.0
 50
90.0
 51
180.0
  0
LINE
  5
C2
  8
12
 10
222.03155599845601
 20
884.57758437784184
 30
0.0
 11
222.03155599845601
 21
875.3775843778418
 31
0.0
  0
ARC
  5
C3
  8
12
 10
215.53155599845601
 20
875.3775843778418
 30
0.0
 40
6.5
 50
270.0
 51
0.0
  0
ARC
  5
C4
  8
12
 10
215.331555998456
 20
866.87758437784191
 30
0.0
 40
2.0
 50
90.0
 51
180.0
  0
LINE
  5
C5
  8
12
 10
213.331555998456
 20
866.87758437784191
 30
0.0
 11
213.331555998456
 21
850.07758437784196
 31
0.0
  0
ARC
  5
C6
  8
1
 10
224.03155599845601
 20
884.57758437784184
 30
0.0
 40
1.0
 50
90.0
 51
180.0
  0
LINE
  5
C7
  8
1
 10
215.331555998456
 20
867.87758437784191
 30
0.0
 11
215.53155599845601
 21
867.87758437784191
 31
0.0
  0
ARC
  5
C8
  8
1
 10
215.331555998456
 20
866.87758437784191
 30
0.0
 40
1.0
 50
90.0
 51
180.0
  0
LINE
  5
C9
  8
1
 10
214.33155599845591
 20
866.87758437784191
 30
0.0
 11
214.33155599845591
 21
850.07758437784196
 31
0.0
  0
LINE
  5
CA
  8
1
 10
224.03155599845601
 20
885.57758437784184
 30
0.0
 11
269.831555998456
 21
885.57758437784184
 31
0.0
  0
LINE
  5
CB
  8
1
 10
223.03155599845601
 20
884.57758437784184
 30
0.0
 11
223.03155599845601
 21
875.3775843778418
 31
0.0
  0
ARC
  5
CC
  8
1
 10
215.53155599845601
 20
875.3775843778418
 30
0.0
 40
7.5
 50
270.0
 51
0.0
  0
ARC
  5
CD
  8
12
 10
324.331555998456
 20
833.27758437784189
 30
0.0
 40
5.5
 50
270.0
 51
309.63771400000002
  0
ARC
  5
CE
  8
12
 10
323.831555998456
 20
816.07758437784196
 30
0.0
 40
5.5
 50
43.602819000000011
 51
114.44333499999991
  0
LINE
  5
CF
  8
12
 10
321.13155599845589
 20
821.35773637784189
 30
0.0
 11
321.13155599845589
 21
824.777584377842
 31
0.0
  0
ARC
  5
D0
  8
12
 10
328.03155599845599
 20
828.81104237784177
 30
0.0
 40
0.3
 50
0.0
 51
129.6377139999999
  0
ARC
  5
D1
  8
12
 10
321.43155599845591
 20
821.35773637784189
 30
0.0
 40
0.3
 50
180.0
 51
294.44333499999999
  0
LINE
  5
D2
  8
12
 10
323.331555998456
 20
814.14109237784191
 30
0.0
 11
321.83500799845592
 21
816.195047377842
 31
0.0
  0
LINE
  5
D3
  8
12
 10
325.50188499845598
 20
817.17758437784175
 30
0.0
 11
322.1612269984559
 21
817.17758437784175
 31
0.0
  0
LINE
  5
D4
  8
12
 10
324.331555998456
 20
814.14109237784191
 30
0.0
 11
325.8281039984559
 21
816.195047377842
 31
0.0
  0
CIRCLE
  5
D5
  8
12
 10
323.831555998456
 20
816.07758437784196
 30
0.0
 40
2.0
  0
ARC
  5
D6
  8
12
 10
328.03155599845599
 20
820.07758437784184
 30
0.0
 40
0.3
 50
223.6028189999999
 51
0.0
  0
ARC
  5
D7
  8
12
 10
324.13155599845589
 20
824.777584377842
 30
0.0
 40
3.0
 50
90.0
 51
180.0
  0
LINE
  5
D8
  8
12
 10
328.331555998456
 20
820.07758437784184
 30
0.0
 11
328.331555998456
 21
828.81104237784177
 31
0.0
  0
LINE
  5
D9
  8
12
 10
315.63155599845589
 20
811.07758437784184
 30
0.0
 11
269.831555998456
 21
811.07758437784184
 31
0.0
  0
ARC
  5
DA
  8
12
 10
315.63155599845589
 20
815.57758437784184
 30
0.0
 40
4.5
 50
270.0
 51
0.0
  0
LINE
  5
DB
  8
12
 10
320.13155599845589
 20
815.57758437784184
 30
0.0
 11
320.13155599845589
 21
824.777584377842
 31
0.0
  0
ARC
  5
DC
  8
12
 10
324.13155599845589
 20
824.777584377842
 30
0.0
 40
4.0
 50
90.0
 51
180.0
  0
ARC
  5
DD
  8
12
 10
324.331555998456
 20
833.27758437784189
 30
0.0
 40
4.5
 50
270.0
 51
0.0
  0
LINE
  5
DE
  8
12
 10
328.83155599845588
 20
833.27758437784189
 30
0.0
 11
328.83155599845588
 21
850.07758437784196
 31
0.0
  0
LINE
  5
DF
  8
12
 10
315.63155599845589
 20
813.57758437784196
 30
0.0
 11
269.831555998456
 21
813.57758437784196
 31
0.0
  0
ARC
  5
E0
  8
12
 10
315.63155599845589
 20
815.57758437784184
 30
0.0
 40
2.0
 50
270.0
 51
0.0
  0
LINE
  5
E1
  8
12
 10
317.63155599845589
 20
815.57758437784184
 30
0.0
 11
317.63155599845589
 21
824.777584377842
 31
0.0
  0
ARC
  5
E2
  8
12
 10
324.13155599845589
 20
824.777584377842
 30
0.0
 40
6.5
 50
90.0
 51
180.0
  0
ARC
  5
E3
  8
12
 10
324.331555998456
 20
833.27758437784189
 30
0.0
 40
2.0
 50
270.0
 51
0.0
  0
LINE
  5
E4
  8
12
 10
326.331555998456
 20
833.27758437784189
 30
0.0
 11
326.331555998456
 21
850.07758437784196
 31
0.0
  0
ARC
  5
E5
  8
1
 10
315.63155599845589
 20
815.57758437784184
 30
0.0
 40
1.0
 50
270.0
 51
0.0
  0
LINE
  5
E6
  8
1
 10
324.331555998456
 20
832.27758437784189
 30
0.0
 11
324.13155599845589
 21
832.27758437784189
 31
0.0
  0
ARC
  5
E7
  8
1
 10
324.331555998456
 20
833.27758437784189
 30
0.0
 40
1.0
 50
270.0
 51
0.0
  0
ARC
  5
E8
  8
12
 10
215.331555998456
 20
833.27758437784189
 30
0.0
 40
5.5
 50
230.36228600000001
 51
270.0
  0
ARC
  5
E9
  8
12
 10
215.831555998456
 20
816.07758437784196
 30
0.0
 40
5.5
 50
65.556664999999995
 51
136.39718099999999
  0
LINE
  5
EA
  8
12
 10
218.53155599845601
 20
821.35773637784189
 30
0.0
 11
218.53155599845601
 21
824.777584377842
 31
0.0
  0
ARC
  5
EB
  8
12
 10
211.63155599845589
 20
828.81104237784177
 30
0.0
 40
0.3
 50
50.362286000000033
 51
180.0
  0
LINE
  5
EC
  8
1
 10
325.331555998456
 20
833.27758437784189
 30
0.0
 11
325.331555998456
 21
850.07758437784196
 31
0.0
  0
ARC
  5
ED
  8
12
 10
218.23155599845589
 20
821.35773637784189
 30
0.0
 40
0.3
 50
245.55666500000001
 51
0.0
  0
LINE
  5
EE
  8
12
 10
216.33155599845591
 20
814.14109237784191
 30
0.0
 11
217.8281039984559
 21
816.195047377842
 31
0.0
  0
LINE
  5
EF
  8
12
 10
214.1612269984559
 20
817.17758437784175
 30
0.0
 11
217.50188499845601
 21
817.17758437784175
 31
0.0
  0
LINE
  5
F0
  8
12
 10
215.331555998456
 20
814.14109237784191
 30
0.0
 11
213.83500799845589
 21
816.195047377842
 31
0.0
  0
LINE
  5
F1
  8
1
 10
315.63155599845589
 20
814.57758437784196
 30
0.0
 11
269.831555998456
 21
814.57758437784196
 31
0.0
  0
CIRCLE
  5
F2
  8
12
 10
215.831555998456
 20
816.07758437784196
 30
0.0
 40
2.0
  0
ARC
  5
F3
  8
12
 10
211.63155599845589
 20
820.07758437784184
 30
0.0
 40
0.3
 50
180.0
 51
316.39718099999999
  0
ARC
  5
F4
  8
12
 10
215.53155599845601
 20
824.777584377842
 30
0.0
 40
3.0
 50
0.0
 51
90.0
  0
LINE
  5
F5
  8
12
 10
211.331555998456
 20
820.07758437784184
 30
0.0
 11
211.331555998456
 21
828.81104237784177
 31
0.0
  0
LINE
  5
F6
  8
12
 10
224.03155599845601
 20
811.07758437784184
 30
0.0
 11
269.831555998456
 21
811.07758437784184
 31
0.0
  0
ARC
  5
F7
  8
12
 10
224.03155599845601
 20
815.57758437784184
 30
0.0
 40
4.5
 50
180.0
 51
270.0
  0
LINE
  5
F8
  8
12
 10
219.53155599845601
 20
815.57758437784184
 30
0.0
 11
219.53155599845601
 21
824.777584377842
 31
0.0
  0
ARC
  5
F9
  8
12
 10
215.53155599845601
 20
824.777584377842
 30
0.0
 40
4.0
 50
0.0
 51
90.0
  0
ARC
  5
FA
  8
12
 10
215.331555998456
 20
833.27758437784189
 30
0.0
 40
4.5
 50
180.0
 51
270.0
  0
LINE
  5
FB
  8
12
 10
210.831555998456
 20
833.27758437784189
 30
0.0
 11
210.831555998456
 21
850.07758437784196
 31
0.0
  0
LINE
  5
FC
  8
12
 10
224.03155599845601
 20
813.57758437784196
 30
0.0
 11
269.831555998456
 21
813.57758437784196
 31
0.0
  0
ARC
  5
FD
  8
12
 10
224.03155599845601
 20
815.57758437784184
 30
0.0
 40
2.0
 50
180.0
 51
270.0
  0
LINE
  5
FE
  8
12
 10
222.03155599845601
 20
815.57758437784184
 30
0.0
 11
222.03155599845601
 21
824.777584377842
 31
0.0
  0
ARC
  5
FF
  8
12
 10
215.53155599845601
 20
824.777584377842
 30
0.0
 40
6.5
 50
0.0
 51
90.0
  0
ARC
  5
100
  8
12
 10
215.331555998456
 20
833.27758437784189
 30
0.0
 40
2.0
 50
180.0
 51
270.0
  0
LINE
  5
101
  8
12
 10
213.331555998456
 20
833.27758437784189
 30
0.0
 11
213.331555998456
 21
850.07758437784196
 31
0.0
  0
ARC
  5
102
  8
1
 10
224.03155599845601
 20
815.57758437784184
 30
0.0
 40
1.0
 50
180.0
 51
270.0
  0
LINE
  5
103
  8
1
 10
316.63155599845589
 20
815.57758437784184
 30
0.0
 11
316.63155599845589
 21
824.777584377842
 31
0.0
  0
ARC
  5
104
  8
1
 10
324.13155599845589
 20
824.777584377842
 30
0.0
 40
7.5
 50
90.0
 51
180.0
  0
LINE
  5
105
  8
1
 10
215.331555998456
 20
832.27758437784189
 30
0.0
 11
215.53155599845601
 21
832.27758437784189
 31
0.0
  0
ARC
  5
106
  8
1
 10
215.331555998456
 20
833.27758437784189
 30
0.0
 40
1.0
 50
180.0
 51
270.0
  0
LINE
  5
107
  8
1
 10
214.33155599845591
 20
833.27758437784189
 30
0.0
 11
214.33155599845591
 21
850.07758437784196
 31
0.0
  0
LINE
  5
108
  8
1
 10
224.03155599845601
 20
814.57758437784196
 30
0.0
 11
269.831555998456
 21
814.57758437784196
 31
0.0
  0
LINE
  5
109
  8
1
 10
223.03155599845601
 20
815.57758437784184
 30
0.0
 11
223.03155599845601
 21
824.777584377842
 31
0.0
  0
ARC
  5
10A
  8
1
 10
215.53155599845601
 20
824.777584377842
 30
0.0
 40
7.5
 50
0.0
 51
90.0
  0
ARC
  5
10B
  8
1
 10
527.66715419381978
 20
884.07758437784196
 30
0.0
 40
4.4000000000000004
 50
0.0
 51
90.0
  0
ARC
  5
10C
  8
1
 10
419.6671541938199
 20
884.07758437784196
 30
0.0
 40
4.4000000000000004
 50
90.0
 51
180.0
  0
LINE
  5
10D
  8
1
 10
415.26715419381981
 20
884.07758437784196
 30
0.0
 11
415.26715419381981
 21
816.07758437784196
 31
0.0
  0
LINE
  5
10E
  8
1
 10
419.6671541938199
 20
811.67758437784175
 30
0.0
 11
527.66715419381978
 21
811.67758437784175
 31
0.0
  0
LINE
  5
10F
  8
1
 10
532.06715419381987
 20
884.07758437784196
 30
0.0
 11
532.06715419381987
 21
816.07758437784196
 31
0.0
  0
LINE
  5
110
  8
1
 10
419.6671541938199
 20
888.47758437784205
 30
0.0
 11
527.66715419381978
 21
888.47758437784205
 31
0.0
  0
ARC
  5
111
  8
1
 10
527.66715419381978
 20
816.07758437784196
 30
0.0
 40
4.4000000000000004
 50
270.0
 51
0.0
  0
ARC
  5
112
  8
1
 10
419.6671541938199
 20
816.07758437784196
 30
0.0
 40
4.4000000000000004
 50
180.0
 51
270.0
  0
CIRCLE
  5
113
  8
1
 10
527.66715419381978
 20
816.07758437784196
 30
0.0
 40
2.0
  0
CIRCLE
  5
114
  8
1
 10
527.66715419381978
 20
816.07758437784196
 30
0.0
 40
4.0
  0
CIRCLE
  5
115
  8
1
 10
527.66715419381978
 20
884.07758437784196
 30
0.0
 40
2.0
  0
CIRCLE
  5
116
  8
1
 10
527.66715419381978
 20
884.07758437784196
 30
0.0
 40
4.0
  0
CIRCLE
  5
117
  8
1
 10
419.6671541938199
 20
884.07758437784196
 30
0.0
 40
2.0
  0
CIRCLE
  5
118
  8
1
 10
419.6671541938199
 20
884.07758437784196
 30
0.0
 40
4.0
  0
ARC
  5
119
  8
1
 10
527.66715419381978
 20
816.07758437784196
 30
0.0
 40
6.0
 50
270.0
 51
0.0
  0
ARC
  5
11A
  8
1
 10
527.66715419381978
 20
884.07758437784196
 30
0.0
 40
6.0
 50
0.0
 51
90.0
  0
ARC
  5
11B
  8
1
 10
419.6671541938199
 20
884.07758437784196
 30
0.0
 40
6.0
 50
90.0
 51
180.0
  0
ARC
  5
11C
  8
1
 10
419.6671541938199
 20
816.07758437784196
 30
0.0
 40
6.0
 50
180.0
 51
270.0
  0
CIRCLE
  5
11D
  8
1
 10
419.6671541938199
 20
816.07758437784196
 30
0.0
 40
4.0
  0
CIRCLE
  5
11E
  8
1
 10
419.6671541938199
 20
816.07758437784196
 30
0.0
 40
2.0
  0
LINE
  5
11F
  8
1
 10
533.6671541938199
 20
816.07758437784196
 30
0.0
 11
533.6671541938199
 21
884.07758437784196
 31
0.0
  0
LINE
  5
120
  8
1
 10
527.66715419381978
 20
890.07758437784184
 30
0.0
 11
419.6671541938199
 21
890.07758437784184
 31
0.0
  0
LINE
  5
121
  8
1
 10
413.66715419381978
 20
816.07758437784196
 30
0.0
 11
413.66715419381978
 21
884.07758437784196
 31
0.0
  0
LINE
  5
122
  8
1
 10
527.66715419381978
 20
810.07758437784196
 30
0.0
 11
419.6671541938199
 21
810.07758437784196
 31
0.0
  0
INSERT
  5
123
  8
L22
  2
TKK-ACAD
 10
0.0
 20
0.0
 30
0.0
  0
LINE
  5
135
  8
1
 10
364.53315304784172
 20
889.95988737784194
 30
0.0
 11
364.53315304784172
 21
810.19528137784187
 31
0.0
  0
LINE
  5
136
  8
1
 10
379.01994704784158
 20
886.57758437784196
 30
0.0
 11
378.0199470478417
 21
886.57758437784196
 31
0.0
  0
LINE
  5
137
  8
1
 10
378.0199470478417
 20
811.07758437784184
 30
0.0
 11
378.0199470478417
 21
830.07758437784207
 31
0.0
  0
LINE
  5
138
  8
1
 10
379.01994704784158
 20
814.57758437784196
 30
0.0
 11
379.01994704784158
 21
830.07758437784184
 31
0.0
  0
LINE
  5
139
  8
1
 10
379.01994704784158
 20
885.57758437784184
 30
0.0
 11
379.01994704784158
 21
830.07758437784184
 31
0.0
  0
LINE
  5
13A
  8
1
 10
378.0199470478417
 20
889.07758437784184
 30
0.0
 11
378.0199470478417
 21
830.07758437784207
 31
0.0
  0
LINE
  5
13B
  8
1
 10
363.01994704784158
 20
811.70848737784195
 30
0.0
 11
364.53315304784172
 21
810.19528137784187
 31
0.0
  0
LINE
  5
13C
  8
1
 10
378.0199470478417
 20
810.07758437784196
 30
0.0
 11
378.0199470478417
 21
811.07758437784184
 31
0.0
  0
LINE
  5
13D
  8
1
 10
379.01994704784158
 20
813.57758437784196
 30
0.0
 11
378.0199470478417
 21
813.57758437784196
 31
0.0
  0
LINE
  5
13E
  8
1
 10
363.01994704784158
 20
888.44668137784197
 30
0.0
 11
364.53315304784172
 21
889.95988737784194
 31
0.0
  0
LINE
  5
13F
  8
1
 10
363.01994704784158
 20
811.70848737784195
 30
0.0
 11
363.01994704784158
 21
830.07758437784184
 31
0.0
  0
LINE
  5
140
  8
1
 10
379.01994704784158
 20
886.57758437784196
 30
0.0
 11
379.01994704784158
 21
885.57758437784184
 31
0.0
  0
LINE
  5
141
  8
1
 10
379.01994704784158
 20
813.57758437784196
 30
0.0
 11
379.01994704784158
 21
814.57758437784196
 31
0.0
  0
LINE
  5
142
  8
1
 10
363.01994704784158
 20
888.44668137784197
 30
0.0
 11
363.01994704784158
 21
830.07758437784184
 31
0.0
  0
LINE
  5
143
  8
1
 10
378.0199470478417
 20
890.07758437784184
 30
0.0
 11
364.53315304784172
 21
889.95988737784194
 31
0.0
  0
LINE
  5
144
  8
1
 10
378.0199470478417
 20
810.07758437784196
 30
0.0
 11
364.53315304784172
 21
810.19528137784187
 31
0.0
  0
LINE
  5
145
  8
1
 10
378.0199470478417
 20
890.07758437784184
 30
0.0
 11
378.0199470478417
 21
889.07758437784184
 31
0.0
  0
LINE
  5
146
  8
12
 10
366.0199470478417
 20
867.87758437784214
 30
0.0
 11
379.01994704784158
 21
867.87758437784214
 31
0.0
  0
LINE
  5
147
  8
23
 10
356.91994704784162
 20
850.07758437784196
 30
0.0
 11
385.71994704784169
 21
850.07758437784196
 31
0.0
  0
LINE
  5
148
  8
12
 10
366.0199470478417
 20
832.27758437784189
 30
0.0
 11
379.01994704784158
 21
832.27758437784189
 31
0.0
  0
LINE
  5
149
  8
12
 10
366.0199470478417
 20
850.07758437784196
 30
0.0
 11
366.0199470478417
 21
885.57758437784184
 31
0.0
  0
LINE
  5
14A
  8
12
 10
366.0199470478417
 20
850.07758437784196
 30
0.0
 11
366.0199470478417
 21
814.57758437784196
 31
0.0
  0
TEXT
  5
152
  8
L20
 10
208.83260164021689
 20
928.14090170553038
 30
0.0
 40
7.0710678118654746
  1
FIBOX EURONORD II
 41
0.8
  7
SIMPLEX
  0
LINE
  5
154
  8
23
 10
410.66715419381978
 20
850.07758437784196
 30
0.0
 11
536.6671541938199
 21
850.07758437784196
 31
0.0
  0
LINE
  5
155
  8
23
 10
473.6671541938199
 20
893.07758437784196
 30
0.0
 11
473.6671541938199
 21
807.07758437784184
 31
0.0
  0
LINE
  5
16C
  8
12
 10
418.7762591938199
 20
947.13522170784245
 30
0.0
 11
473.6671541938199
 21
947.13522170784245
 31
0.0
  0
LINE
  5
16D
  8
1
 10
415.29805719381989
 20
950.13522170784233
 30
0.0
 11
473.6671541938199
 21
950.13522170784233
 31
0.0
  0
LINE
  5
16E
  8
1
 10
414.66715419381978
 20
935.13522170784233
 30
0.0
 11
473.66715419381973
 21
935.13522170784233
 31
0.0
  0
LINE
  5
16F
  8
1
 10
418.16715419381978
 20
934.13522170784233
 30
0.0
 11
473.6671541938199
 21
934.13522170784233
 31
0.0
  0
LINE
  5
170
  8
1
 10
413.78485119381992
 20
948.62201570784225
 30
0.0
 11
533.54945719381976
 21
948.62201570784225
 31
0.0
  0
LINE
  5
171
  8
12
 10
426.758030155352
 20
934.13522170784233
 30
0.0
 11
426.86715415535201
 21
946.63958470784212
 31
0.0
  0
LINE
  5
172
  8
1
 10
413.66715419381978
 20
935.13522170784233
 30
0.0
 11
413.78485119381992
 21
948.62201570784225
 31
0.0
  0
LINE
  5
173
  8
1
 10
415.29805719381989
 20
950.13522170784233
 30
0.0
 11
413.78485119381992
 21
948.62201570784225
 31
0.0
  0
ARC
  5
174
  8
12
 10
427.36713515535189
 20
946.63522170784233
 30
0.0
 40
0.5
 50
90.0
 51
179.49999999999989
  0
LINE
  5
175
  8
1
 10
413.66715419381978
 20
935.13522170784233
 30
0.0
 11
414.66715419381978
 21
935.13522170784233
 31
0.0
  0
LINE
  5
176
  8
1
 10
417.1671541938199
 20
934.13522170784233
 30
0.0
 11
418.16715419381978
 21
934.13522170784233
 31
0.0
  0
LINE
  5
177
  8
1
 10
417.1671541938199
 20
934.13522170784233
 30
0.0
 11
417.1671541938199
 21
935.13522170784233
 31
0.0
  0
LINE
  5
178
  8
12
 10
528.5580491938199
 20
947.13522170784245
 30
0.0
 11
473.6671541938199
 21
947.13522170784245
 31
0.0
  0
LINE
  5
179
  8
1
 10
532.03625119381979
 20
950.13522170784233
 30
0.0
 11
473.6671541938199
 21
950.13522170784233
 31
0.0
  0
LINE
  5
17A
  8
1
 10
529.1671541938199
 20
934.13522170784233
 30
0.0
 11
473.6671541938199
 21
934.13522170784233
 31
0.0
  0
LINE
  5
17B
  8
1
 10
532.6671541938199
 20
935.13522170784233
 30
0.0
 11
473.66715419381973
 21
935.13522170784233
 31
0.0
  0
LINE
  5
17C
  8
23
 10
473.6671541938199
 20
958.03522170784242
 30
0.0
 11
473.6671541938199
 21
928.83522170784215
 31
0.0
  0
LINE
  5
17D
  8
12
 10
520.57627823228768
 20
934.13522170784233
 30
0.0
 11
520.46715423228773
 21
946.63958470784212
 31
0.0
  0
LINE
  5
17E
  8
1
 10
533.6671541938199
 20
935.13522170784233
 30
0.0
 11
533.54945719381976
 21
948.62201570784225
 31
0.0
  0
ARC
  5
17F
  8
12
 10
519.96717323228779
 20
946.63522170784233
 30
0.0
 40
0.5
 50
0.4999999999999688
 51
90.0
  0
LINE
  5
180
  8
1
 10
532.03625119381979
 20
950.13522170784233
 30
0.0
 11
533.54945719381976
 21
948.62201570784225
 31
0.0
  0
LINE
  5
181
  8
1
 10
530.1671541938199
 20
934.13522170784233
 30
0.0
 11
529.1671541938199
 21
934.13522170784233
 31
0.0
  0
LINE
  5
182
  8
1
 10
530.1671541938199
 20
934.13522170784233
 30
0.0
 11
530.1671541938199
 21
935.13522170784233
 31
0.0
  0
LINE
  5
183
  8
1
 10
533.6671541938199
 20
935.13522170784233
 30
0.0
 11
532.6671541938199
 21
935.13522170784233
 31
0.0
  0
LINE
  5
184
  8
23
 10
332.83155599845588
 20
850.07758437784196
 30
0.0
 11
206.831555998456
 21
850.07758437784196
 31
0.0
  0
LINE
  5
185
  8
1
 10
323.831555998456
 20
890.07758437784184
 30
0.0
 11
215.831555998456
 21
890.07758437784184
 31
0.0
  0
LINE
  5
186
  8
23
 10
269.831555998456
 20
893.07758437784196
 30
0.0
 11
269.831555998456
 21
807.07758437784184
 31
0.0
  0
TEXT
  5
1C2
  8
L20
 10
208.83260164021689
 20
912.14090170553038
 30
0.0
 40
7.0710678118654746
  1
80x120x15 COVER
 41
0.8
  7
SIMPLEX
  0
LINE
  5
1C3
  8
12
 10
366.0199470478417
 20
885.57758437784184
 30
0.0
 11
379.01994704784158
 21
885.57758437784184
 31
0.0
  0
LINE
  5
1C4
  8
12
 10
366.0199470478417
 20
814.57758437784196
 30
0.0
 11
379.01994704784158
 21
814.57758437784196
 31
0.0
  0
LINE
  5
1C5
  8
12
 10
581.3143613397981
 20
850.07758437784196
 30
0.0
 11
581.3143613397981
 21
885.57758437784184
 31
0.0
  0
LINE
  5
1C6
  8
1
 10
584.31436133979798
 20
888.44668137784197
 30
0.0
 11
584.31436133979798
 21
830.07758437784184
 31
0.0
  0
LINE
  5
1C7
  8
1
 10
569.3143613397981
 20
889.07758437784184
 30
0.0
 11
569.3143613397981
 21
830.07758437784207
 31
0.0
  0
LINE
  5
1C8
  8
1
 10
568.31436133979798
 20
885.57758437784184
 30
0.0
 11
568.31436133979798
 21
830.07758437784184
 31
0.0
  0
LINE
  5
1C9
  8
1
 10
582.8011553397979
 20
889.95988737784194
 30
0.0
 11
582.8011553397979
 21
810.19528137784187
 31
0.0
  0
LINE
  5
1CA
  8
12
 10
581.3143613397981
 20
850.07758437784196
 30
0.0
 11
581.3143613397981
 21
814.57758437784196
 31
0.0
  0
LINE
  5
1CB
  8
1
 10
584.31436133979798
 20
811.70848737784195
 30
0.0
 11
584.31436133979798
 21
830.07758437784184
 31
0.0
  0
LINE
  5
1CC
  8
1
 10
568.31436133979798
 20
814.57758437784196
 30
0.0
 11
568.31436133979798
 21
830.07758437784184
 31
0.0
  0
LINE
  5
1CD
  8
1
 10
569.3143613397981
 20
811.07758437784184
 30
0.0
 11
569.3143613397981
 21
830.07758437784207
 31
0.0
  0
LINE
  5
1CE
  8
12
 10
581.3143613397981
 20
814.57758437784196
 30
0.0
 11
568.31436133979798
 21
814.57758437784196
 31
0.0
  0
LINE
  5
1CF
  8
1
 10
569.3143613397981
 20
810.07758437784196
 30
0.0
 11
582.8011553397979
 21
810.19528137784187
 31
0.0
  0
LINE
  5
1D0
  8
1
 10
584.31436133979798
 20
811.70848737784195
 30
0.0
 11
582.8011553397979
 21
810.19528137784187
 31
0.0
  0
LINE
  5
1D1
  8
1
 10
568.31436133979798
 20
813.57758437784196
 30
0.0
 11
568.31436133979798
 21
814.57758437784196
 31
0.0
  0
LINE
  5
1D2
  8
1
 10
568.31436133979798
 20
813.57758437784196
 30
0.0
 11
569.3143613397981
 21
813.57758437784196
 31
0.0
  0
LINE
  5
1D3
  8
1
 10
569.3143613397981
 20
810.07758437784196
 30
0.0
 11
569.3143613397981
 21
811.07758437784184
 31
0.0
  0
LINE
  5
1D4
  8
12
 10
581.3143613397981
 20
832.27758437784189
 30
0.0
 11
568.31436133979798
 21
832.27758437784189
 31
0.0
  0
LINE
  5
1D5
  8
23
 10
590.41436133979812
 20
850.07758437784196
 30
0.0
 11
561.61436133979805
 21
850.07758437784196
 31
0.0
  0
LINE
  5
1D6
  8
12
 10
581.3143613397981
 20
885.57758437784184
 30
0.0
 11
568.31436133979798
 21
885.57758437784184
 31
0.0
  0
LINE
  5
1D7
  8
12
 10
581.3143613397981
 20
867.87758437784214
 30
0.0
 11
568.31436133979798
 21
867.87758437784214
 31
0.0
  0
LINE
  5
1D8
  8
1
 10
569.3143613397981
 20
890.07758437784184
 30
0.0
 11
582.8011553397979
 21
889.95988737784194
 31
0.0
  0
LINE
  5
1D9
  8
1
 10
584.31436133979798
 20
888.44668137784197
 30
0.0
 11
582.8011553397979
 21
889.95988737784194
 31
0.0
  0
LINE
  5
1DA
  8
1
 10
569.3143613397981
 20
890.07758437784184
 30
0.0
 11
569.3143613397981
 21
889.07758437784184
 31
0.0
  0
LINE
  5
1DB
  8
1
 10
568.31436133979798
 20
886.57758437784196
 30
0.0
 11
568.31436133979798
 21
885.57758437784184
 31
0.0
  0
LINE
  5
1DC
  8
1
 10
568.31436133979798
 20
886.57758437784196
 30
0.0
 11
569.3143613397981
 21
886.57758437784196
 31
0.0
  0
LINE
  5
1DD
  8
12
 10
418.16715419381978
 20
934.13522170784233
 30
0.0
 11
418.27627819381991
 21
946.63958470784212
 31
0.0
  0
ARC
  5
1DE
  8
12
 10
418.7762591938199
 20
946.63522170784233
 30
0.0
 40
0.5
 50
90.0
 51
179.49999999999989
  0
ARC
  5
1DF
  8
12
 10
528.5580491938199
 20
946.63522170784233
 30
0.0
 40
0.5
 50
0.5000000000000016
 51
90.0
  0
LINE
  5
1E0
  8
12
 10
529.1671541938199
 20
934.13522170784233
 30
0.0
 11
529.05803019381983
 21
946.63958470784212
 31
0.0
  0
LINE
  5
1E1
  8
12
 10
418.7762591938199
 20
753.01994704784147
 30
0.0
 11
473.6671541938199
 21
753.01994704784147
 31
0.0
  0
LINE
  5
1E2
  8
1
 10
413.78485119381992
 20
751.53315304784155
 30
0.0
 11
533.54945719381976
 21
751.53315304784155
 31
0.0
  0
LINE
  5
1E3
  8
1
 10
418.16715419381978
 20
766.01994704784147
 30
0.0
 11
473.6671541938199
 21
766.01994704784147
 31
0.0
  0
LINE
  5
1E4
  8
1
 10
414.66715419381978
 20
765.01994704784147
 30
0.0
 11
473.66715419381973
 21
765.01994704784147
 31
0.0
  0
LINE
  5
1E5
  8
1
 10
415.29805719381989
 20
750.01994704784147
 30
0.0
 11
473.6671541938199
 21
750.01994704784147
 31
0.0
  0
LINE
  5
1E6
  8
12
 10
418.16715419381978
 20
766.01994704784147
 30
0.0
 11
418.27627819381991
 21
753.51558404784168
 31
0.0
  0
LINE
  5
1E7
  8
12
 10
426.758030155352
 20
766.01994704784147
 30
0.0
 11
426.86715415535201
 21
753.51558404784168
 31
0.0
  0
LINE
  5
1E8
  8
1
 10
413.66715419381978
 20
765.01994704784147
 30
0.0
 11
413.78485119381992
 21
751.53315304784155
 31
0.0
  0
LINE
  5
1E9
  8
1
 10
413.66715419381978
 20
765.01994704784147
 30
0.0
 11
414.66715419381978
 21
765.01994704784147
 31
0.0
  0
LINE
  5
1EA
  8
1
 10
417.1671541938199
 20
766.01994704784147
 30
0.0
 11
417.1671541938199
 21
765.01994704784147
 31
0.0
  0
LINE
  5
1EB
  8
1
 10
417.1671541938199
 20
766.01994704784147
 30
0.0
 11
418.16715419381978
 21
766.01994704784147
 31
0.0
  0
LINE
  5
1EC
  8
1
 10
415.29805719381989
 20
750.01994704784147
 30
0.0
 11
413.78485119381992
 21
751.53315304784155
 31
0.0
  0
ARC
  5
1ED
  8
12
 10
418.7762591938199
 20
753.51994704784147
 30
0.0
 40
0.5
 50
180.49999999999989
 51
270.0
  0
ARC
  5
1EE
  8
12
 10
427.36713515535189
 20
753.51994704784147
 30
0.0
 40
0.5
 50
180.49999999999989
 51
270.0
  0
LINE
  5
1EF
  8
12
 10
529.1671541938199
 20
766.01994704784147
 30
0.0
 11
529.05803019381983
 21
753.51558404784168
 31
0.0
  0
LINE
  5
1F0
  8
12
 10
520.57627823228768
 20
766.01994704784147
 30
0.0
 11
520.46715423228773
 21
753.51558404784168
 31
0.0
  0
LINE
  5
1F1
  8
1
 10
533.6671541938199
 20
765.01994704784147
 30
0.0
 11
533.54945719381976
 21
751.53315304784155
 31
0.0
  0
LINE
  5
1F2
  8
23
 10
473.6671541938199
 20
742.11994704784149
 30
0.0
 11
473.6671541938199
 21
771.31994704784165
 31
0.0
  0
LINE
  5
1F3
  8
1
 10
532.6671541938199
 20
765.01994704784147
 30
0.0
 11
473.66715419381973
 21
765.01994704784147
 31
0.0
  0
LINE
  5
1F4
  8
1
 10
529.1671541938199
 20
766.01994704784147
 30
0.0
 11
473.6671541938199
 21
766.01994704784147
 31
0.0
  0
LINE
  5
1F5
  8
1
 10
533.6671541938199
 20
765.01994704784147
 30
0.0
 11
532.6671541938199
 21
765.01994704784147
 31
0.0
  0
LINE
  5
1F6
  8
1
 10
530.1671541938199
 20
766.01994704784147
 30
0.0
 11
530.1671541938199
 21
765.01994704784147
 31
0.0
  0
LINE
  5
1F7
  8
1
 10
530.1671541938199
 20
766.01994704784147
 30
0.0
 11
529.1671541938199
 21
766.01994704784147
 31
0.0
  0
LINE
  5
1F8
  8
12
 10
528.5580491938199
 20
753.01994704784147
 30
0.0
 11
473.6671541938199
 21
753.01994704784147
 31
0.0
  0
LINE
  5
1F9
  8
1
 10
532.03625119381979
 20
750.01994704784147
 30
0.0
 11
473.6671541938199
 21
750.01994704784147
 31
0.0
  0
ARC
  5
1FA
  8
12
 10
519.96717323228779
 20
753.51994704784147
 30
0.0
 40
0.5
 50
270.0
 51
359.5
  0
ARC
  5
1FB
  8
12
 10
528.5580491938199
 20
753.51994704784147
 30
0.0
 40
0.5
 50
270.0
 51
359.5
  0
LINE
  5
1FC
  8
1
 10
532.03625119381979
 20
750.01994704784147
 30
0.0
 11
533.54945719381976
 21
751.53315304784155
 31
0.0
  0
ENDSEC
  0
EOF
