  0
SECTION
  2
HEADER
  9
$ACADVER
  1
AC1009
  9
$INSBASE
 10
0.0
 20
0.0
 30
0.0
  9
$EXTMIN
 10
-136.6013104361611
 20
1.0354465521778591
 30
0.0
  9
$EXTMAX
 10
219.9546723951583
 20
231.6172025711723
 30
0.0
  9
$LIMMIN
 10
-10.0
 20
5.0
  9
$LIMMAX
 10
415.0
 20
842.66622410985099
  9
$ORTHOMODE
 70
     1
  9
$REGENMODE
 70
     1
  9
$FILLMODE
 70
     1
  9
$QTEXTMODE
 70
     0
  9
$MIRRTEXT
 70
     1
  9
$DRAGMODE
 70
     2
  9
$LTSCALE
 40
7.0
  9
$OSMODE
 70
    37
  9
$ATTMODE
 70
     1
  9
$TEXTSIZE
 40
2.5
  9
$TRACEWID
 40
1.0
  9
$TEXTSTYLE
  7
COMPLEX
  9
$CLAYER
  8
1
  9
$CELTYPE
  6
BYLAYER
  9
$CECOLOR
 62
   256
  9
$DIMSCALE
 40
1.0
  9
$DIMASZ
 40
2.5
  9
$DIMEXO
 40
0.0625
  9
$DIMDLI
 40
10.0
  9
$DIMRND
 40
0.0
  9
$DIMDLE
 40
0.0
  9
$DIMEXE
 40
1.0
  9
$DIMTP
 40
0.0
  9
$DIMTM
 40
0.0
  9
$DIMTXT
 40
2.5
  9
$DIMCEN
 40
-2.0
  9
$DIMTSZ
 40
0.0
  9
$DIMTOL
 70
     0
  9
$DIMLIM
 70
     0
  9
$DIMTIH
 70
     0
  9
$DIMTOH
 70
     0
  9
$DIMSE1
 70
     0
  9
$DIMSE2
 70
     0
  9
$DIMTAD
 70
     1
  9
$DIMZIN
 70
     0
  9
$DIMBLK
  1

  9
$DIMASO
 70
     1
  9
$DIMSHO
 70
     1
  9
$DIMPOST
  1

  9
$DIMAPOST
  1

  9
$DIMALT
 70
     0
  9
$DIMALTD
 70
     2
  9
$DIMALTF
 40
25.399999999999999
  9
$DIMLFAC
 40
1.0
  9
$DIMTOFL
 70
     1
  9
$DIMTVP
 40
0.0
  9
$DIMTIX
 70
     0
  9
$DIMSOXD
 70
     1
  9
$DIMSAH
 70
     1
  9
$DIMBLK1
  1

  9
$DIMBLK2
  1

  9
$DIMSTYLE
  2
STANDARD
  9
$DIMCLRD
 70
     1
  9
$DIMCLRE
 70
     1
  9
$DIMCLRT
 70
     3
  9
$DIMTFAC
 40
1.0
  9
$DIMGAP
 40
0.09
  9
$LUNITS
 70
     2
  9
$LUPREC
 70
     1
  9
$SKETCHINC
 40
0.1
  9
$FILLETRAD
 40
0.0
  9
$AUNITS
 70
     0
  9
$AUPREC
 70
     1
  9
$MENU
  1
caesar
  9
$ELEVATION
 40
0.0
  9
$PELEVATION
 40
0.0
  9
$THICKNESS
 40
0.0
  9
$LIMCHECK
 70
     0
  9
$BLIPMODE
 70
     0
  9
$CHAMFERA
 40
5.0
  9
$CHAMFERB
 40
5.0
  9
$SKPOLY
 70
     0
  9
$TDCREATE
 40
2448722.8811917822
  9
$TDUPDATE
 40
2453620.466335821
  9
$TDINDWG
 40
1.7396537616000001
  9
$TDUSRTIMER
 40
1.7396537616000001
  9
$USRTIMER
 70
     1
  9
$ANGBASE
 50
0.0
  9
$ANGDIR
 70
     0
  9
$PDMODE
 70
     0
  9
$PDSIZE
 40
0.0
  9
$PLINEWID
 40
0.0
  9
$COORDS
 70
     2
  9
$SPLFRAME
 70
     0
  9
$SPLINETYPE
 70
     6
  9
$SPLINESEGS
 70
     8
  9
$ATTDIA
 70
     0
  9
$ATTREQ
 70
     1
  9
$HANDLING
 70
-16383
  9
$HANDSEED
  5
296
  9
$SURFTAB1
 70
     6
  9
$SURFTAB2
 70
     6
  9
$SURFTYPE
 70
     6
  9
$SURFU
 70
     6
  9
$SURFV
 70
     6
  9
$UCSNAME
  2

  9
$UCSORG
 10
0.0
 20
0.0
 30
0.0
  9
$UCSXDIR
 10
1.0
 20
0.0
 30
0.0
  9
$UCSYDIR
 10
0.0
 20
1.0
 30
0.0
  9
$PUCSNAME
  2

  9
$PUCSORG
 10
0.0
 20
0.0
 30
0.0
  9
$PUCSXDIR
 10
1.0
 20
0.0
 30
0.0
  9
$PUCSYDIR
 10
0.0
 20
1.0
 30
0.0
  9
$USERI1
 70
   103
  9
$USERI2
 70
     0
  9
$USERI3
 70
     0
  9
$USERI4
 70
     0
  9
$USERI5
 70
     0
  9
$USERR1
 40
1.0
  9
$USERR2
 40
-10.0
  9
$USERR3
 40
2.5
  9
$USERR4
 40
0.0
  9
$USERR5
 40
0.0
  9
$WORLDVIEW
 70
     1
  9
$SHADEDGE
 70
     3
  9
$SHADEDIF
 70
    70
  9
$TILEMODE
 70
     1
  9
$MAXACTVP
 70
    16
  9
$PLIMCHECK
 70
     0
  9
$PEXTMIN
 10
1.0000000000000000E+020
 20
1.0000000000000000E+020
 30
1.0000000000000000E+020
  9
$PEXTMAX
 10
-1.0000000000000000E+020
 20
-1.0000000000000000E+020
 30
-1.0000000000000000E+020
  9
$PLIMMIN
 10
0.0
 20
0.0
  9
$PLIMMAX
 10
12.0
 20
9.0
  9
$UNITMODE
 70
     0
  9
$VISRETAIN
 70
     0
  9
$PLINEGEN
 70
     0
  9
$PSLTSCALE
 70
     0
  0
ENDSEC
  0
SECTION
  2
TABLES
  0
TABLE
  2
VPORT
 70
     2
  0
VPORT
  2
*ACTIVE
 70
     0
 10
0.0
 20
0.0
 11
1.0
 21
1.0
 12
41.680655102222651
 22
116.33562850137911
 13
0.0
 23
0.0
 14
5.0
 24
5.0
 15
10.0
 25
10.0
 16
0.0
 26
0.0
 36
1.0
 17
0.0
 27
0.0
 37
0.0
 40
232.26175625897221
 41
1.5552208835341359
 42
50.0
 43
0.0
 44
0.0
 50
0.0
 51
0.0
 71
     0
 72
  2000
 73
     1
 74
     0
 75
     0
 76
     0
 77
     0
 78
     0
  0
ENDTAB
  0
TABLE
  2
LTYPE
 70
     3
  0
LTYPE
  2
CONTINUOUS
 70
     0
  3
Solid line
 72
    65
 73
     0
 40
0.0
  0
LTYPE
  2
DASHED
 70
     0
  3
__ __ __ __ __ __ __ __ __ __ __ __ __ __ __
 72
    65
 73
     2
 40
0.75
 49
0.5
 49
-0.25
  0
LTYPE
  2
CENTER
 70
     0
  3
____ _ ____ _ ____ _ ____ _ ____ _ ____ _ ____ 
 72
    65
 73
     4
 40
2.0
 49
1.25
 49
-0.25
 49
0.25
 49
-0.25
  0
ENDTAB
  0
TABLE
  2
LAYER
 70
    13
  0
LAYER
  2
0
 70
     0
 62
     6
  6
CONTINUOUS
  0
LAYER
  2
L20
 70
     0
 62
     3
  6
CONTINUOUS
  0
LAYER
  2
DEFPOINTS
 70
     0
 62
    -7
  6
CONTINUOUS
  0
LAYER
  2
1
 70
     0
 62
     7
  6
CONTINUOUS
  0
LAYER
  2
21
 70
     0
 62
     7
  6
CONTINUOUS
  0
LAYER
  2
23
 70
     0
 62
     1
  6
CENTER
  0
LAYER
  2
41
 70
     0
 62
     7
  6
CONTINUOUS
  0
LAYER
  2
43
 70
     0
 62
     1
  6
CENTER
  0
LAYER
  2
51
 70
     0
 62
     7
  6
CONTINUOUS
  0
LAYER
  2
53
 70
     0
 62
     1
  6
CENTER
  0
LAYER
  2
61
 70
     0
 62
     7
  6
CONTINUOUS
  0
LAYER
  2
62
 70
     0
 62
     1
  6
CONTINUOUS
  0
LAYER
  2
63
 70
     0
 62
     1
  6
CENTER
  0
ENDTAB
  0
TABLE
  2
STYLE
 70
     3
  0
STYLE
  2
STANDARD
 70
     0
 40
0.0
 41
1.0
 50
0.0
 71
     0
 42
9.5
  3
caeiso
  4

  0
STYLE
  2
SIMPLEX
 70
     0
 40
0.0
 41
1.0
 50
0.0
 71
     0
 42
0.2
  3
KIRJAIN
  4

  0
STYLE
  2
COMPLEX
 70
     0
 40
0.0
 41
1.0
 50
0.0
 71
     0
 42
2.5
  3
COMPLEX
  4

  0
ENDTAB
  0
TABLE
  2
VIEW
 70
     0
  0
ENDTAB
  0
TABLE
  2
UCS
 70
     0
  0
ENDTAB
  0
TABLE
  2
APPID
 70
     2
  0
APPID
  2
ACAD
 70
     0
  0
APPID
  2
DCO15
 70
     0
  0
ENDTAB
  0
TABLE
  2
DIMSTYLE
 70
     1
  0
DIMSTYLE
  2
STANDARD
 70
     0
  3

  4

  5

  6

  7

 40
1.0
 41
0.18
 42
0.0625
 43
0.38
 44
0.18
 45
0.0
 46
0.0
 47
0.0
 48
0.0
140
0.18
141
0.09
142
0.0
143
25.399999999999999
144
1.0
145
0.0
146
1.0
147
0.09
 71
     0
 72
     0
 73
     1
 74
     1
 75
     0
 76
     0
 77
     0
 78
     0
170
     0
171
     2
172
     0
173
     0
174
     0
175
     0
176
     0
177
     0
178
     0
  0
ENDTAB
  0
ENDSEC
  0
SECTION
  2
BLOCKS
  0
BLOCK
  8
0
  2
$MODEL_SPACE
 70
     0
 10
0.0
 20
0.0
 30
0.0
  3
$MODEL_SPACE
  1

  0
ENDBLK
  5
83
  8
0
  0
BLOCK
 67
     1
  8
0
  2
$PAPER_SPACE
 70
     0
 10
0.0
 20
0.0
 30
0.0
  3
$PAPER_SPACE
  1

  0
ENDBLK
  5
81
 67
     1
  8
0
  0
ENDSEC
  0
SECTION
  2
ENTITIES
  0
LINE
  5
84
  8
61
 10
67.746694069642501
 20
156.1685353980854
 30
0.0
 11
137.7466940696425
 21
156.16853539808551
 31
0.0
  0
LINE
  5
85
  8
61
 10
67.746694069642501
 20
75.968535398085493
 30
0.0
 11
137.7466940696425
 21
75.968535398085493
 31
0.0
  0
LINE
  5
86
  8
61
 10
61.646694069642479
 20
150.0685353980854
 30
0.0
 11
61.646694069642479
 21
82.068535398085487
 31
0.0
  0
LINE
  5
87
  8
61
 10
143.84669406964241
 20
150.06853539808549
 30
0.0
 11
143.8466940696425
 21
82.068535398085487
 31
0.0
  0
LINE
  5
88
  8
61
 10
64.446694069642547
 20
133.86853539808541
 30
0.0
 11
64.44669406964249
 21
98.268536268752072
 31
0.0
  0
LINE
  5
89
  8
61
 10
141.04669406964251
 20
133.86853539808541
 30
0.0
 11
141.04669406964251
 21
98.268536268752072
 31
0.0
  0
LINE
  5
8A
  8
61
 10
74.946694069642376
 20
153.36853539808541
 30
0.0
 11
130.54669579509149
 21
153.36853539808541
 31
0.0
  0
LINE
  5
8B
  8
61
 10
74.946694069642376
 20
78.768535398085504
 30
0.0
 11
130.5466940696426
 21
78.768535398085476
 31
0.0
  0
LINE
  5
8C
  8
63
 10
102.7466940696424
 20
163.78151703751811
 30
0.0
 11
102.7466940696424
 21
70.666515774647451
 31
0.0
  0
LINE
  5
8D
  8
63
 10
55.876320680086728
 20
116.0685353980854
 30
0.0
 11
148.53002803368841
 21
116.0685353980854
 31
0.0
  0
LINE
  5
8E
  8
61
 10
73.246694069642388
 20
151.6685353980854
 30
0.0
 11
73.246694069642388
 21
141.0685353980854
 31
0.0
  0
LINE
  5
8F
  8
61
 10
66.146694069642535
 20
135.5685353980854
 30
0.0
 11
67.746694069642331
 21
135.5685353980854
 31
0.0
  0
LINE
  5
90
  8
62
 10
66.146694069642535
 20
137.06853539808549
 30
0.0
 11
67.746694069642331
 21
137.06853539808549
 31
0.0
  0
LINE
  5
91
  8
62
 10
63.94669406964254
 20
145.21853539808561
 30
0.0
 11
71.446694069642376
 21
145.21853539808561
 31
0.0
  0
CIRCLE
  5
92
  8
62
 10
67.746694069642501
 20
141.0685353980854
 30
0.0
 40
2.1000000000000001
  0
LINE
  5
93
  8
62
 10
63.646694069642479
 20
148.05607421833511
 30
0.0
 11
63.646694069642479
 21
136.59066691584869
 31
0.0
  0
LINE
  5
94
  8
62
 10
71.746694069642373
 20
147.8776451680643
 30
0.0
 11
71.746694069642373
 21
141.0685353980854
 31
0.0
  0
ARC
  5
95
  8
62
 10
71.446694069642376
 20
144.91853539808551
 30
0.0
 40
0.3
 50
0.0
 51
89.999999999999815
  0
ARC
  5
96
  8
62
 10
63.946694069642518
 20
144.9185353980856
 30
0.0
 40
0.3
 50
89.999999999999815
 51
179.99999999999989
  0
LINE
  5
97
  8
21
 10
63.646694069642479
 20
182.27431891951781
 30
0.0
 11
63.646694069642528
 21
182.27431891951781
 31
0.0
  0
LINE
  5
98
  8
21
 10
143.16564190455449
 20
183.25686651308061
 30
0.0
 11
143.84669406964241
 21
222.27431891951781
 31
0.0
  0
LINE
  5
99
  8
21
 10
61.646694069642479
 20
183.27431891951781
 30
0.0
 11
61.646694069642479
 21
222.27431891951781
 31
0.0
  0
LINE
  5
9A
  8
23
  6
DASHED
 10
73.332852789060667
 20
223.77431891951781
 30
0.0
 11
74.003218672170533
 21
185.3690831975866
 31
0.0
  0
ARC
  5
9C
  8
62
 10
67.746694069642345
 20
141.0685353980854
 30
0.0
 40
4.0
 50
269.99999999999972
 51
0.0
  0
ARC
  5
9D
  8
61
 10
67.746694069642345
 20
141.0685353980854
 30
0.0
 40
5.5
 50
269.99999999999972
 51
0.0
  0
CIRCLE
  5
9E
  8
62
 10
67.74669406964253
 20
150.0685353980854
 30
0.0
 40
1.5
  0
ARC
  5
9F
  8
61
 10
137.74669406964259
 20
141.0685353980854
 30
0.0
 40
5.5
 50
180.0
 51
270.00000000000028
  0
ARC
  5
A0
  8
62
 10
137.74669406964259
 20
141.0685353980854
 30
0.0
 40
4.0
 50
180.0
 51
270.00000000000023
  0
CIRCLE
  5
A1
  8
62
 10
137.74669406964239
 20
141.0685353980854
 30
0.0
 40
2.1000000000000001
  0
LINE
  5
A2
  8
62
 10
133.74669406964259
 20
147.8776451680651
 30
0.0
 11
133.74669406964259
 21
141.0685353980854
 31
0.0
  0
LINE
  5
A3
  8
61
 10
132.24669406964259
 20
151.66853684526359
 30
0.0
 11
132.24669406964259
 21
141.0685353980854
 31
0.0
  0
LINE
  5
A4
  8
62
 10
139.34669406964241
 20
137.06853539808549
 30
0.0
 11
137.74669406964259
 21
137.06853539808549
 31
0.0
  0
LINE
  5
A5
  8
61
 10
139.34669406964241
 20
135.5685353980854
 30
0.0
 11
137.74669406964259
 21
135.5685353980854
 31
0.0
  0
ARC
  5
A6
  8
62
 10
141.5466940696424
 20
144.9185353980856
 30
0.0
 40
0.3
 50
0.0000000000000579
 51
90.000000000000185
  0
ARC
  5
A7
  8
62
 10
134.0466940696426
 20
144.91853539808551
 30
0.0
 40
0.3
 50
90.000000000000185
 51
180.0
  0
LINE
  5
A8
  8
62
 10
141.84669406964241
 20
148.05607421833571
 30
0.0
 11
141.8466940696425
 21
136.59066691584869
 31
0.0
  0
LINE
  5
A9
  8
62
 10
141.5466940696424
 20
145.21853539808561
 30
0.0
 11
134.0466940696426
 21
145.21853539808561
 31
0.0
  0
CIRCLE
  5
AA
  8
62
 10
137.74669406964239
 20
150.0685353980854
 30
0.0
 40
1.5
  0
CIRCLE
  5
AB
  8
62
 10
137.74669406964239
 20
82.068535398085501
 30
0.0
 40
1.5
  0
LINE
  5
AC
  8
62
 10
141.5466940696424
 20
86.918535398085325
 30
0.0
 11
134.0466940696426
 21
86.918535398085396
 31
0.0
  0
LINE
  5
AD
  8
62
 10
141.84669406964241
 20
84.080996577835705
 30
0.0
 11
141.8466940696425
 21
95.546403880322245
 31
0.0
  0
ARC
  5
AE
  8
62
 10
134.0466940696426
 20
87.218535398085393
 30
0.0
 40
0.3
 50
180.0
 51
269.99999999999977
  0
ARC
  5
AF
  8
62
 10
141.5466940696424
 20
87.218535398085336
 30
0.0
 40
0.3
 50
269.99999999999977
 51
359.99999999999989
  0
LINE
  5
B0
  8
61
 10
139.34669406964241
 20
96.56853539808553
 30
0.0
 11
137.74669406964259
 21
96.56853539808553
 31
0.0
  0
LINE
  5
B1
  8
62
 10
139.34669509425299
 20
95.068535398085515
 30
0.0
 11
137.74669406964259
 21
95.068535398085515
 31
0.0
  0
LINE
  5
B2
  8
61
 10
132.24669406964259
 20
80.468535398085507
 30
0.0
 11
132.24669406964259
 21
91.068535398085515
 31
0.0
  0
LINE
  5
B3
  8
62
 10
133.7466940696425
 20
84.259425628106712
 30
0.0
 11
133.74669406964259
 21
91.068535398085515
 31
0.0
  0
CIRCLE
  5
B4
  8
62
 10
137.74669406964239
 20
91.068535398085501
 30
0.0
 40
2.1000000000000001
  0
ARC
  5
B5
  8
62
 10
137.74669406964259
 20
91.068535398085515
 30
0.0
 40
4.0
 50
89.999999999999758
 51
180.0
  0
ARC
  5
B6
  8
61
 10
137.74669406964259
 20
91.068535398085515
 30
0.0
 40
5.5
 50
89.999999999999659
 51
180.0
  0
CIRCLE
  5
B7
  8
62
 10
67.74669406964253
 20
82.068535398085501
 30
0.0
 40
1.5
  0
ARC
  5
B8
  8
61
 10
67.746694069642345
 20
91.068535398085515
 30
0.0
 40
5.5
 50
0.0
 51
90.000000000000313
  0
ARC
  5
B9
  8
62
 10
67.746694069642345
 20
91.068535398085515
 30
0.0
 40
4.0
 50
0.0
 51
90.000000000000213
  0
ARC
  5
BA
  8
62
 10
63.946694069642518
 20
87.218535398085336
 30
0.0
 40
0.3
 50
180.0
 51
270.00000000000023
  0
ARC
  5
BB
  8
62
 10
71.446694069642376
 20
87.218535398085393
 30
0.0
 40
0.3
 50
270.00000000000023
 51
0.0
  0
LINE
  5
BC
  8
62
 10
71.746694069642373
 20
84.259425628106385
 30
0.0
 11
71.746694069642373
 21
91.068535398085515
 31
0.0
  0
LINE
  5
BD
  8
62
 10
63.646694069642479
 20
84.080996577835322
 30
0.0
 11
63.646694069642479
 21
95.546403880322245
 31
0.0
  0
CIRCLE
  5
BE
  8
62
 10
67.746694069642501
 20
91.068535398085501
 30
0.0
 40
2.1000000000000001
  0
LINE
  5
BF
  8
62
 10
63.94669406964254
 20
86.918535398085325
 30
0.0
 11
71.446694069642376
 21
86.918535398085396
 31
0.0
  0
LINE
  5
C0
  8
62
 10
66.146694836292454
 20
95.068535398085515
 30
0.0
 11
67.746694069642331
 21
95.068535398085515
 31
0.0
  0
LINE
  5
C1
  8
61
 10
66.146694904905473
 20
96.568535398085515
 30
0.0
 11
67.746694069642331
 21
96.56853539808553
 31
0.0
  0
LINE
  5
C2
  8
61
 10
73.246694069642388
 20
80.468535639741702
 30
0.0
 11
73.246694069642388
 21
91.068535398085515
 31
0.0
  0
CIRCLE
  5
C3
  8
61
 10
102.7466940696424
 20
145.0685353980854
 30
0.0
 40
4.0
  0
CIRCLE
  5
C4
  8
61
 10
102.7466940696424
 20
145.0685353980854
 30
0.0
 40
2.0
  0
CIRCLE
  5
C5
  8
61
 10
102.7466940696424
 20
87.068535398085487
 30
0.0
 40
2.0
  0
CIRCLE
  5
C6
  8
61
 10
102.7466940696424
 20
87.068535398085487
 30
0.0
 40
4.0
  0
CIRCLE
  5
C7
  8
61
 10
124.4966940696424
 20
87.068535398085487
 30
0.0
 40
4.0
  0
CIRCLE
  5
C8
  8
61
 10
124.4966940696424
 20
87.068535398085487
 30
0.0
 40
2.0
  0
CIRCLE
  5
C9
  8
61
 10
124.4966940696424
 20
145.0685353980854
 30
0.0
 40
2.0
  0
CIRCLE
  5
CA
  8
61
 10
124.4966940696424
 20
145.0685353980854
 30
0.0
 40
4.0
  0
CIRCLE
  5
CB
  8
61
 10
80.996694069642516
 20
145.0685353980854
 30
0.0
 40
4.0
  0
CIRCLE
  5
CC
  8
61
 10
80.996694069642516
 20
145.0685353980854
 30
0.0
 40
2.0
  0
CIRCLE
  5
CD
  8
61
 10
80.996694069642516
 20
87.068535398085487
 30
0.0
 40
2.0
  0
CIRCLE
  5
CE
  8
61
 10
80.996694069642516
 20
87.068535398085487
 30
0.0
 40
4.0
  0
CIRCLE
  5
CF
  8
61
 10
131.7466940696425
 20
116.0685353980855
 30
0.0
 40
2.0
  0
CIRCLE
  5
D0
  8
61
 10
131.7466940696425
 20
116.0685353980855
 30
0.0
 40
4.0
  0
CIRCLE
  5
D1
  8
61
 10
73.746694069642501
 20
116.0685353980855
 30
0.0
 40
4.0
  0
CIRCLE
  5
D2
  8
61
 10
73.746694069642501
 20
116.0685353980855
 30
0.0
 40
2.0
  0
ARC
  5
D3
  8
61
 10
67.74669406964253
 20
150.0685353980854
 30
0.0
 40
6.0999999999999988
 50
90.000000000000057
 51
180.0
  0
ARC
  5
D4
  8
61
 10
67.746694069642501
 20
82.068535398085487
 30
0.0
 40
6.0999999999999988
 50
180.0
 51
270.0
  0
ARC
  5
D5
  8
61
 10
137.7466940696425
 20
82.068535398085487
 30
0.0
 40
6.0999999999999988
 50
270.0
 51
0.0000000000000254
  0
ARC
  5
D6
  8
61
 10
137.7466940696425
 20
150.06853539808549
 30
0.0
 40
6.0999999999999988
 50
0.0000000000000254
 51
90.000000000000057
  0
LINE
  5
D7
  8
23
 10
102.7466940696424
 20
231.6172025711723
 30
0.0
 11
102.7466940696424
 21
172.61740307803129
 31
0.0
  0
LINE
  5
D8
  8
23
  6
DASHED
 10
65.417014261299485
 20
185.07431891951779
 30
0.0
 11
102.7466940696424
 21
185.07431891951779
 31
0.0
  0
LINE
  5
D9
  8
23
  6
DASHED
 10
102.7466940696424
 20
190.2743189195177
 30
0.0
 11
106.4518848907076
 21
190.27431891951781
 31
0.0
  0
LINE
  5
DA
  8
23
  6
DASHED
 10
106.8375517971354
 20
185.3690831975866
 30
0.0
 11
106.7518391992545
 21
189.979554641449
 31
0.0
  0
ARC
  5
DB
  8
23
  6
DASHED
 10
106.4518848907076
 20
189.9743189195178
 30
0.0
 40
0.3
 50
1.000000000000141
 51
90.0
  0
ARC
  5
DC
  8
23
  6
DASHED
 10
74.303172980717449
 20
185.3743189195178
 30
0.0
 40
0.3
 50
181.0
 51
270.0
  0
LINE
  5
DD
  8
21
 10
63.646694069642528
 20
182.27431891951781
 30
0.0
 11
72.270346017488976
 21
182.27431891951781
 31
0.0
  0
LINE
  5
DE
  8
21
 10
72.270346017488976
 20
182.27431891951781
 30
0.0
 11
142.16579420939809
 21
182.2743189195179
 31
0.0
  0
LINE
  5
DF
  8
62
 10
74.946694069642319
 20
154.6685353980854
 30
0.0
 11
130.5466940696426
 21
154.6685353980854
 31
0.0
  0
LINE
  5
E0
  8
62
 10
66.146694069642535
 20
136.8685353980855
 30
0.0
 11
67.746694069642274
 21
136.86853539808541
 31
0.0
  0
LINE
  5
E1
  8
62
 10
71.946694069642319
 20
151.6685353980854
 30
0.0
 11
71.946694069642376
 21
141.0685353980854
 31
0.0
  0
LINE
  5
E2
  8
62
 10
63.146694069642479
 20
133.86853539808541
 30
0.0
 11
63.146694069642479
 21
98.268535931205633
 31
0.0
  0
ARC
  5
E3
  8
61
 10
66.146694069642507
 20
133.86853539808541
 30
0.0
 40
1.7
 50
89.999999999999446
 51
180.0
  0
ARC
  5
E4
  8
61
 10
74.946694069642376
 20
151.6685353980854
 30
0.0
 40
1.7
 50
90.0
 51
180.0
  0
ARC
  5
E5
  8
62
 10
74.946694069642334
 20
151.6685353980854
 30
0.0
 40
3.0
 50
90.0
 51
180.0
  0
ARC
  5
E6
  8
62
 10
66.146694069642507
 20
133.86853539808541
 30
0.0
 40
3.0
 50
89.999999999999446
 51
180.0
  0
ARC
  5
E7
  8
62
 10
67.746694069642345
 20
141.0685353980854
 30
0.0
 40
4.2000000000000002
 50
269.99999999999892
 51
0.0000000000000763
  0
ARC
  5
E8
  8
62
 10
130.5466940696426
 20
151.6685353980854
 30
0.0
 40
3.0
 50
0.000000000000007
 51
90.0
  0
ARC
  5
E9
  8
61
 10
130.5466940696426
 20
151.6685353980854
 30
0.0
 40
1.7
 50
0.000000000000007
 51
90.0
  0
LINE
  5
EA
  8
62
 10
133.5466940696426
 20
151.6685353980854
 30
0.0
 11
133.5466940696426
 21
141.0685353980854
 31
0.0
  0
ARC
  5
EB
  8
62
 10
137.74669406964259
 20
141.0685353980854
 30
0.0
 40
4.2000000000000002
 50
179.99999999999989
 51
270.00000000000102
  0
LINE
  5
EC
  8
62
 10
139.34669406964241
 20
136.8685353980855
 30
0.0
 11
137.7466940696427
 21
136.86853539808541
 31
0.0
  0
ARC
  5
ED
  8
62
 10
139.3466940696425
 20
133.86853539808541
 30
0.0
 40
3.0
 50
0.000000000000007
 51
90.000000000000554
  0
LINE
  5
EE
  8
62
 10
142.34669406964241
 20
133.86853539808541
 30
0.0
 11
142.34669406964241
 21
98.268536490656686
 31
0.0
  0
ARC
  5
EF
  8
61
 10
139.3466940696425
 20
133.86853539808541
 30
0.0
 40
1.7
 50
0.000000000000007
 51
90.000000000000554
  0
ARC
  5
F0
  8
62
 10
74.946694069642334
 20
80.468535398085521
 30
0.0
 40
3.0
 50
180.0
 51
270.0
  0
ARC
  5
F1
  8
61
 10
74.946694069642376
 20
80.468535398085507
 30
0.0
 40
1.7
 50
180.0
 51
270.0
  0
LINE
  5
F2
  8
62
 10
71.946694069642319
 20
80.468535398085521
 30
0.0
 11
71.946694069642376
 21
91.068535398085515
 31
0.0
  0
ARC
  5
F3
  8
62
 10
67.746694069642345
 20
91.068535398085515
 30
0.0
 40
4.2000000000000002
 50
359.99999999999989
 51
90.000000000001023
  0
LINE
  5
F4
  8
62
 10
66.146694069642535
 20
95.268535398085476
 30
0.0
 11
67.746694069642274
 21
95.268535398085518
 31
0.0
  0
ARC
  5
F5
  8
62
 10
66.146694069642507
 20
98.26853539808549
 30
0.0
 40
3.0
 50
180.0
 51
270.00000000000051
  0
ARC
  5
F6
  8
61
 10
66.146694069642507
 20
98.268535398085504
 30
0.0
 40
1.7
 50
180.0
 51
270.00000000000051
  0
LINE
  5
F7
  8
62
 10
74.946694069642319
 20
77.468535398085521
 30
0.0
 11
130.5466940696426
 21
77.468535398085535
 31
0.0
  0
ARC
  5
F8
  8
62
 10
130.5466940696426
 20
80.468535398085521
 30
0.0
 40
3.0
 50
270.0
 51
0.000000000000007
  0
ARC
  5
F9
  8
61
 10
130.5466940696426
 20
80.468535398085507
 30
0.0
 40
1.7
 50
270.0
 51
0.000000000000007
  0
LINE
  5
FA
  8
62
 10
133.5466940696426
 20
80.468535398085521
 30
0.0
 11
133.5466940696426
 21
91.068535398085515
 31
0.0
  0
ARC
  5
FB
  8
62
 10
137.74669406964259
 20
91.068535398085515
 30
0.0
 40
4.2000000000000002
 50
89.999999999998948
 51
180.00000000000011
  0
LINE
  5
FC
  8
62
 10
139.34669406964241
 20
95.268535398085476
 30
0.0
 11
137.7466940696427
 21
95.268535398085518
 31
0.0
  0
ARC
  5
FD
  8
62
 10
139.3466940696425
 20
98.26853539808549
 30
0.0
 40
3.0
 50
269.99999999999937
 51
0.000000000000007
  0
ARC
  5
FE
  8
61
 10
139.3466940696425
 20
98.268535398085504
 30
0.0
 40
1.7
 50
269.99999999999937
 51
0.000000000000007
  0
LINE
  5
FF
  8
21
 10
142.3517614483867
 20
223.50046564234211
 30
0.0
 11
142.45903538645331
 21
222.27431891951781
 31
0.0
  0
ARC
  5
100
  8
21
 10
142.05290303895919
 20
223.4743189195178
 30
0.0
 40
0.3
 50
4.9999999999998916
 51
90.0
  0
LINE
  5
101
  8
21
 10
142.45903538645331
 20
222.27431891951781
 30
0.0
 11
143.84669406964241
 21
222.27431891951781
 31
0.0
  0
ARC
  5
109
  8
51
 10
-124.73093704660531
 20
150.0685353980854
 30
0.0
 40
4.0999999999999988
 50
89.999999999999588
 51
179.9999999999998
  0
ARC
  5
10A
  8
51
 10
-54.730937046605327
 20
150.06853539808549
 30
0.0
 40
6.0999999999999988
 50
0.0000000000000254
 51
90.000000000000057
  0
ARC
  5
10B
  8
51
 10
-54.73093704660527
 20
82.068535398085487
 30
0.0
 40
6.0999999999999988
 50
270.0
 51
0.0000000000000254
  0
ARC
  5
10C
  8
51
 10
-124.73093704660531
 20
82.068535398085487
 30
0.0
 40
6.0999999999999988
 50
180.0
 51
270.0
  0
ARC
  5
10D
  8
51
 10
-124.73093704660531
 20
150.0685353980854
 30
0.0
 40
6.0999999999999988
 50
90.000000000000057
 51
180.0
  0
CIRCLE
  5
10E
  8
51
 10
-124.73093704660531
 20
91.068535398085501
 30
0.0
 40
2.1000000000000001
  0
CIRCLE
  5
10F
  8
51
 10
-124.73093704660531
 20
82.068535398085501
 30
0.0
 40
1.5
  0
CIRCLE
  5
110
  8
51
 10
-54.730937046605391
 20
91.068535398085501
 30
0.0
 40
2.1000000000000001
  0
CIRCLE
  5
111
  8
51
 10
-54.730937046605391
 20
82.068535398085501
 30
0.0
 40
1.5
  0
CIRCLE
  5
112
  8
51
 10
-54.730937046605391
 20
150.0685353980854
 30
0.0
 40
1.5
  0
CIRCLE
  5
113
  8
51
 10
-54.730937046605391
 20
141.0685353980854
 30
0.0
 40
2.1000000000000001
  0
CIRCLE
  5
114
  8
51
 10
-124.73093704660531
 20
150.0685353980854
 30
0.0
 40
1.5
  0
CIRCLE
  5
115
  8
51
 10
-124.73093704660531
 20
141.0685353980854
 30
0.0
 40
2.1000000000000001
  0
LINE
  5
116
  8
51
 10
-124.73093704660521
 20
154.1685353980854
 30
0.0
 11
-119.5056728032876
 21
154.1685353980854
 31
0.0
  0
LINE
  5
117
  8
51
 10
-128.8309370466053
 20
150.0685353980854
 30
0.0
 11
-128.8309370466053
 21
146.6185353980855
 31
0.0
  0
LINE
  5
118
  8
51
 10
-119.907285098759
 20
151.66853684526359
 30
0.0
 11
-119.9072850987589
 21
146.61853539808541
 31
0.0
  0
LINE
  5
119
  8
51
 10
-48.630937046605368
 20
150.06853539808549
 30
0.0
 11
-48.630937046605311
 21
82.068535398085487
 31
0.0
  0
LINE
  5
11A
  8
51
 10
-130.8309370466053
 20
150.0685353980854
 30
0.0
 11
-130.8309370466053
 21
82.068535398085487
 31
0.0
  0
LINE
  5
11B
  8
51
 10
-124.73093704660531
 20
75.968535398085493
 30
0.0
 11
-54.73093704660527
 21
75.968535398085493
 31
0.0
  0
LINE
  5
11C
  8
51
 10
-124.73093704660531
 20
156.1685353980854
 30
0.0
 11
-54.730937046605327
 21
156.16853539808551
 31
0.0
  0
LINE
  5
11D
  8
51
 10
-128.5309370466052
 20
146.31853539808549
 30
0.0
 11
-120.2072850987589
 21
146.3185353980854
 31
0.0
  0
LINE
  5
11E
  8
21
 10
63.646694069642479
 20
182.27431891951781
 30
0.0
 11
62.646694069642479
 21
182.27431891951781
 31
0.0
  0
ARC
  5
11F
  8
21
 10
62.646694069642521
 20
183.27431891951781
 30
0.0
 40
1.0
 50
180.0
 51
270.0
  0
ARC
  5
120
  8
21
 10
142.16579420939809
 20
183.2743189195179
 30
0.0
 40
1.0
 50
270.0
 51
358.99999999999989
  0
ARC
  5
122
  8
51
 10
-120.2072850987589
 20
146.61853539808541
 30
0.0
 40
0.3
 50
270.0
 51
0.0
  0
ARC
  5
123
  8
51
 10
-116.4072850987589
 20
151.66853684526359
 30
0.0
 40
3.5
 50
144.62348660945631
 51
180.0
  0
ARC
  5
124
  8
51
 10
-119.5056728032876
 20
153.86853539808541
 30
0.0
 40
0.3
 50
324.62348660945509
 51
90.0
  0
ARC
  5
125
  8
51
 10
-128.5309370466052
 20
146.6185353980855
 30
0.0
 40
0.3
 50
179.99999999999881
 51
270.0
  0
ARC
  5
126
  8
51
 10
-50.930937046605379
 20
146.62043914059379
 30
0.0
 40
0.3
 50
270.0
 51
0.0000000000011266
  0
ARC
  5
127
  8
51
 10
-59.956201289923001
 20
153.86853539808541
 30
0.0
 40
0.3
 50
90.0
 51
215.37651339054489
  0
ARC
  5
128
  8
51
 10
-63.054588994451699
 20
151.66853684526359
 30
0.0
 40
3.5
 50
0.000000000000007
 51
35.376513390543693
  0
ARC
  5
129
  8
51
 10
-59.254588994451687
 20
146.6204391405937
 30
0.0
 40
0.3
 50
180.0
 51
270.0
  0
LINE
  5
12A
  8
51
 10
-50.930937046605379
 20
146.32043914059381
 30
0.0
 11
-59.254588994451687
 21
146.32043914059369
 31
0.0
  0
LINE
  5
12B
  8
51
 10
-59.554588994451649
 20
151.66853684526359
 30
0.0
 11
-59.554588994451699
 21
146.6204391405937
 31
0.0
  0
LINE
  5
12C
  8
51
 10
-50.630937046605368
 20
150.0685353980854
 30
0.0
 11
-50.630937046605368
 21
146.62043914059379
 31
0.0
  0
LINE
  5
12D
  8
51
 10
-54.730937046605391
 20
154.1685353980854
 30
0.0
 11
-59.956201289923001
 21
154.1685353980854
 31
0.0
  0
ARC
  5
12E
  8
51
 10
-54.730937046605327
 20
150.0685353980854
 30
0.0
 40
4.0999999999999988
 50
0.0000000000001088
 51
90.000000000000398
  0
ARC
  5
12F
  8
51
 10
-128.5309370466052
 20
85.516631655577157
 30
0.0
 40
0.3
 50
90.000000000000028
 51
180.00000000000111
  0
ARC
  5
130
  8
51
 10
-119.5056728032876
 20
78.268535398085533
 30
0.0
 40
0.3
 50
270.0
 51
35.376513390544858
  0
ARC
  5
131
  8
51
 10
-116.4072850987589
 20
80.4685339509073
 30
0.0
 40
3.5
 50
180.0
 51
215.37651339054369
  0
ARC
  5
132
  8
51
 10
-120.2072850987589
 20
85.516631655577186
 30
0.0
 40
0.3
 50
0.0
 51
90.000000000000028
  0
LINE
  5
133
  8
51
 10
-128.5309370466052
 20
85.816631655577169
 30
0.0
 11
-120.2072850987589
 21
85.816631655577197
 31
0.0
  0
LINE
  5
134
  8
51
 10
-119.907285098759
 20
80.4685339509073
 30
0.0
 11
-119.9072850987589
 21
85.516631655577186
 31
0.0
  0
LINE
  5
135
  8
51
 10
-128.8309370466053
 20
82.068535398085487
 30
0.0
 11
-128.8309370466053
 21
85.516631655577157
 31
0.0
  0
LINE
  5
136
  8
51
 10
-124.73093704660521
 20
77.968535398085493
 30
0.0
 11
-119.5056728032876
 21
77.968535398085521
 31
0.0
  0
ARC
  5
137
  8
51
 10
-124.73093704660531
 20
82.068535398085487
 30
0.0
 40
4.0999999999999988
 50
180.00000000000011
 51
270.0000000000004
  0
ARC
  5
138
  8
51
 10
-54.730937046605327
 20
82.068535398085487
 30
0.0
 40
4.0999999999999988
 50
269.9999999999996
 51
359.99999999999977
  0
LINE
  5
139
  8
51
 10
-54.730937046605391
 20
77.968535398085493
 30
0.0
 11
-59.956201289923001
 21
77.968535398085521
 31
0.0
  0
LINE
  5
13A
  8
51
 10
-50.630937046605368
 20
82.068535398085487
 30
0.0
 11
-50.630937046605368
 21
85.516631655577157
 31
0.0
  0
LINE
  5
13B
  8
51
 10
-59.554588994451649
 20
80.4685339509073
 30
0.0
 11
-59.554588994451699
 21
85.516631655577186
 31
0.0
  0
LINE
  5
13C
  8
51
 10
-50.930937046605379
 20
85.816631655577169
 30
0.0
 11
-59.254588994451687
 21
85.816631655577197
 31
0.0
  0
ARC
  5
13D
  8
51
 10
-59.254588994451687
 20
85.516631655577186
 30
0.0
 40
0.3
 50
89.999999999999957
 51
180.0
  0
ARC
  5
13E
  8
51
 10
-63.054588994451699
 20
80.4685339509073
 30
0.0
 40
3.5
 50
324.62348660945628
 51
0.000000000000007
  0
ARC
  5
13F
  8
51
 10
-59.956201289923001
 20
78.268535398085533
 30
0.0
 40
0.3
 50
144.62348660945511
 51
270.0
  0
ARC
  5
140
  8
51
 10
-50.930937046605379
 20
85.516631655577157
 30
0.0
 40
0.3
 50
359.99999999999881
 51
89.999999999999957
  0
ARC
  5
141
  8
62
 10
66.146694069642535
 20
133.86853539808541
 30
0.0
 40
3.1999999999999882
 50
89.999999999999872
 51
128.94480359409579
  0
ARC
  5
142
  8
62
 10
63.946694069642511
 20
136.59066691584869
 30
0.0
 40
0.3
 50
180.0
 51
308.94480359409619
  0
ARC
  5
143
  8
62
 10
63.946694069642511
 20
95.546403880322245
 30
0.0
 40
0.3
 50
51.055196405903743
 51
180.0
  0
ARC
  5
144
  8
62
 10
66.146694069642535
 20
98.26853539808549
 30
0.0
 40
3.1999999999999882
 50
231.0551964059041
 51
270.00000000000011
  0
ARC
  5
145
  8
62
 10
141.54669406964251
 20
95.546403880322245
 30
0.0
 40
0.3
 50
0.0
 51
128.94480359409619
  0
ARC
  5
146
  8
62
 10
139.34669406964241
 20
98.26853539808549
 30
0.0
 40
3.1999999999999882
 50
269.99999999999977
 51
308.94480359409567
  0
ARC
  5
147
  8
62
 10
141.54669406964251
 20
136.59066691584869
 30
0.0
 40
0.3
 50
231.0551964059037
 51
0.000000000000007
  0
ARC
  5
148
  8
62
 10
139.34669406964241
 20
133.86853539808541
 30
0.0
 40
3.1999999999999882
 50
51.055196405904191
 51
90.000000000000114
  0
LINE
  5
149
  8
21
 10
141.07287666703499
 20
223.77431891951781
 30
0.0
 11
142.05290303895919
 21
223.77431891951781
 31
0.0
  0
ARC
  5
14B
  8
62
 10
137.74669406964239
 20
150.0685353980854
 30
0.0
 40
4.0
 50
210.6311537056136
 51
332.09452720892722
  0
ARC
  5
14C
  8
62
 10
141.5466940696424
 20
148.05607421833571
 30
0.0
 40
0.3
 50
0.0
 51
152.0945272089244
  0
ARC
  5
14D
  8
62
 10
134.0466940696426
 20
147.8776451680651
 30
0.0
 40
0.3
 50
30.631153705614999
 51
180.0
  0
ARC
  5
14E
  8
62
 10
67.746694069642473
 20
150.0685353980854
 30
0.0
 40
4.0
 50
207.90547279107969
 51
329.36884629437782
  0
ARC
  5
14F
  8
62
 10
63.946694069642469
 20
148.05607421833511
 30
0.0
 40
0.3
 50
27.905472791080129
 51
180.0
  0
ARC
  5
150
  8
62
 10
71.44669406964239
 20
147.8776451680643
 30
0.0
 40
0.3
 50
0.0
 51
149.3688462943756
  0
ARC
  5
151
  8
62
 10
67.74669406964253
 20
82.068535398085501
 30
0.0
 40
4.0
 50
30.631153705619521
 51
152.09452720892671
  0
ARC
  5
152
  8
62
 10
71.44669406964239
 20
84.259425628106385
 30
0.0
 40
0.3
 50
210.63115370561849
 51
0.0
  0
ARC
  5
153
  8
62
 10
63.946694069642469
 20
84.080996577835322
 30
0.0
 40
0.3
 50
180.0
 51
332.0945272089275
  0
ARC
  5
154
  8
62
 10
137.74669406964239
 20
82.068535398085501
 30
0.0
 40
4.0
 50
27.905472791078271
 51
149.36884629437671
  0
ARC
  5
155
  8
62
 10
134.0466940696426
 20
84.259425628106712
 30
0.0
 40
0.3
 50
180.0
 51
329.36884629437662
  0
ARC
  5
156
  8
62
 10
141.5466940696424
 20
84.080996577835705
 30
0.0
 40
0.3
 50
207.9054727910794
 51
0.0
  0
CIRCLE
  5
163
  8
62
 10
67.746694069642501
 20
150.0685353980854
 30
0.0
 40
3.0
  0
CIRCLE
  5
164
  8
62
 10
137.74669406964239
 20
150.0685353980854
 30
0.0
 40
3.0
  0
CIRCLE
  5
165
  8
62
 10
137.74669406964239
 20
82.068535398085501
 30
0.0
 40
3.0
  0
CIRCLE
  5
166
  8
62
 10
67.74669406964253
 20
82.068535398085501
 30
0.0
 40
3.0
  0
LINE
  5
174
  8
23
  6
DASHED
 10
102.7466940696424
 20
190.2743189195177
 30
0.0
 11
99.041503248577328
 21
190.27431891951781
 31
0.0
  0
ARC
  5
175
  8
23
  6
DASHED
 10
99.041503248577328
 20
189.9743189195178
 30
0.0
 40
0.3
 50
90.0
 51
178.9999999999998
  0
LINE
  5
176
  8
23
  6
DASHED
 10
98.655836342149598
 20
185.3690831975866
 30
0.0
 11
98.741548940030441
 21
189.979554641449
 31
0.0
  0
LINE
  5
177
  8
23
  6
DASHED
 10
132.16053535022431
 20
223.77431891951781
 30
0.0
 11
131.49016946711441
 21
185.3690831975866
 31
0.0
  0
LINE
  5
178
  8
23
  6
DASHED
 10
140.0763738779855
 20
185.07431891951779
 30
0.0
 11
102.7466940696425
 21
185.07431891951779
 31
0.0
  0
ARC
  5
179
  8
23
  6
DASHED
 10
131.1902151585675
 20
185.3743189195178
 30
0.0
 40
0.3
 50
270.0
 51
358.99999999999977
  0
LINE
  5
17A
  8
21
 10
64.420511472249956
 20
223.77431891951781
 30
0.0
 11
63.440485100325759
 21
223.77431891951781
 31
0.0
  0
LINE
  5
17B
  8
21
 10
63.03435275283163
 20
222.27431891951781
 30
0.0
 11
61.646694069642557
 21
222.27431891951781
 31
0.0
  0
ARC
  5
17C
  8
21
 10
63.440485100325759
 20
223.4743189195178
 30
0.0
 40
0.3
 50
90.0
 51
175.00000000000011
  0
LINE
  5
17D
  8
21
 10
63.141626690898242
 20
223.50046564234211
 30
0.0
 11
63.03435275283163
 21
222.27431891951781
 31
0.0
  0
LINE
  5
17E
  8
21
 10
63.03435275283163
 20
222.27431891951781
 30
0.0
 11
142.45903538645331
 21
222.27431891951781
 31
0.0
  0
LINE
  5
17F
  8
21
 10
141.07287666703499
 20
223.77431891951781
 30
0.0
 11
64.420511472249956
 21
223.77431891951781
 31
0.0
  0
LINE
  5
19F
  8
43
 10
30.834189030869648
 20
116.0685353980854
 30
0.0
 11
-14.46128425587338
 21
116.0685353980854
 31
0.0
  0
LINE
  5
1A0
  8
43
  6
DASHED
 10
25.54192144675735
 20
134.92435211236801
 30
0.0
 11
-12.86308581790839
 21
135.5947140077414
 31
0.0
  0
LINE
  5
1A1
  8
43
  6
DASHED
 10
25.54192144675735
 20
97.212718683802976
 30
0.0
 11
-12.86308581790839
 21
96.542356788429586
 31
0.0
  0
LINE
  5
1A2
  8
41
 10
27.636685724826322
 20
156.1685353980854
 30
0.0
 11
-11.36331427517379
 21
156.16853539808551
 31
0.0
  0
LINE
  5
1A3
  8
41
 10
27.65413813126349
 20
76.649587563173498
 30
0.0
 11
-11.36331427517379
 21
75.968535398085493
 31
0.0
  0
LINE
  5
1A4
  8
41
 10
28.636685724826201
 20
77.649435258329902
 30
0.0
 11
28.636685724826201
 21
116.0685353980854
 31
0.0
  0
ARC
  5
1A5
  8
41
 10
27.636685724826201
 20
77.649435258329902
 30
0.0
 40
1.0
 50
271.0
 51
0.0
  0
LINE
  5
1A6
  8
43
  6
DASHED
 10
25.836685724826179
 20
152.39821919416511
 30
0.0
 11
25.836685724826189
 21
116.0685353980854
 31
0.0
  0
LINE
  5
1A7
  8
41
 10
28.636685724826201
 20
138.96853539808561
 30
0.0
 11
28.636685724826201
 21
116.0685353980854
 31
0.0
  0
LINE
  5
1A8
  8
43
  6
DASHED
 10
20.636685724826201
 20
116.0685353980854
 30
0.0
 11
20.636685724826179
 21
112.3633445770203
 31
0.0
  0
LINE
  5
1A9
  8
43
  6
DASHED
 10
25.836685724826179
 20
79.738851602005795
 30
0.0
 11
25.836685724826189
 21
116.0685353980854
 31
0.0
  0
LINE
  5
1AA
  8
43
  6
DASHED
 10
25.54192144675735
 20
111.9776776705925
 30
0.0
 11
20.931450002894991
 21
112.0633902684733
 31
0.0
  0
ARC
  5
1AB
  8
43
  6
DASHED
 10
25.53668572482616
 20
111.6777233620456
 30
0.0
 40
0.3
 50
0.0
 51
88.999999999999858
  0
ARC
  5
1AC
  8
43
  6
DASHED
 10
25.536685724826182
 20
97.512672992349891
 30
0.0
 40
0.3
 50
271.0
 51
0.0
  0
ARC
  5
1AD
  8
43
  6
DASHED
 10
20.936685724826191
 20
112.3633445770203
 30
0.0
 40
0.3
 50
180.0
 51
268.99999999999977
  0
LINE
  5
1AE
  8
43
  6
DASHED
 10
25.54192144675735
 20
120.1593931255783
 30
0.0
 11
20.931450002894991
 21
120.0736805276976
 31
0.0
  0
ARC
  5
1AF
  8
43
  6
DASHED
 10
25.53668572482616
 20
120.45934743412531
 30
0.0
 40
0.3
 50
271.00000000000011
 51
0.0
  0
LINE
  5
1B0
  8
43
  6
DASHED
 10
20.636685724826201
 20
116.0685353980854
 30
0.0
 11
20.636685724826179
 21
119.7737262191506
 31
0.0
  0
ARC
  5
1B1
  8
43
  6
DASHED
 10
20.936685724826191
 20
119.7737262191506
 30
0.0
 40
0.3
 50
91.000000000000128
 51
180.0
  0
ARC
  5
1B2
  8
41
 10
27.636685724826322
 20
155.1685353980854
 30
0.0
 40
1.0
 50
0.0
 51
90.0
  0
LINE
  5
1B3
  8
41
 10
28.636685724826201
 20
146.32033280095641
 30
0.0
 11
28.636685724826201
 21
143.1685353980854
 31
0.0
  0
LINE
  5
1B4
  8
41
 10
28.636685724826201
 20
143.1685353980854
 30
0.0
 11
28.636685724826201
 21
138.96853539808561
 31
0.0
  0
LINE
  5
1B5
  8
41
 10
28.636685724826201
 20
154.16853539808551
 30
0.0
 11
28.636685724826201
 21
146.32033280095641
 31
0.0
  0
LINE
  5
1B6
  8
41
 10
28.636685724826261
 20
154.1685353980854
 30
0.0
 11
28.636685724826322
 21
155.1685353980854
 31
0.0
  0
ARC
  5
1B7
  8
43
  6
DASHED
 10
25.536685724826182
 20
134.62439780382101
 30
0.0
 40
0.3
 50
0.0
 51
89.000000000000014
  0
LINE
  5
1B8
  8
41
 10
-12.86331427517379
 20
78.742352800693169
 30
0.0
 11
-12.86331427517379
 21
153.39471799547781
 31
0.0
  0
LINE
  5
1B9
  8
41
 10
-11.36331427517379
 20
154.6685353980854
 30
0.0
 11
-11.36331427517379
 21
77.468535398085464
 31
0.0
  0
LINE
  5
1BA
  8
41
 10
-12.86331427517379
 20
78.742352800693169
 30
0.0
 11
-12.86331427517379
 21
77.874667745579586
 31
0.0
  0
LINE
  5
1BB
  8
41
 10
-11.36331427517379
 20
77.468535398085493
 30
0.0
 11
-11.36331427517379
 21
75.968535398085493
 31
0.0
  0
ARC
  5
1BC
  8
41
 10
-12.56331427517383
 20
77.874667745579586
 30
0.0
 40
0.3
 50
179.99999999999989
 51
264.99999999999989
  0
LINE
  5
1BD
  8
41
 10
-11.3633142751739
 20
77.468535398085493
 30
0.0
 11
-12.58946099799808
 21
77.575809336152076
 31
0.0
  0
LINE
  5
1BE
  8
41
 10
-11.3633142751739
 20
154.6685353980854
 30
0.0
 11
-12.58946099799808
 21
154.56126146001881
 31
0.0
  0
ARC
  5
1BF
  8
41
 10
-12.56331427517383
 20
154.26240305059139
 30
0.0
 40
0.3
 50
95.000000000000099
 51
180.0
  0
LINE
  5
1C0
  8
41
 10
-11.36331427517379
 20
154.6685353980854
 30
0.0
 11
-11.36331427517379
 21
156.1685353980854
 31
0.0
  0
LINE
  5
1C1
  8
41
 10
-12.86331427517379
 20
153.39471799547781
 30
0.0
 11
-12.86331427517379
 21
154.26240305059139
 31
0.0
  0
TEXT
  5
1C2
  8
L20
 10
-116.9056679534425
 20
199.367965232145
 30
0.0
 40
5.2340133665760389
  1
FIBOX EURONORD II
  7
SIMPLEX
  0
LINE
  5
1C4
  8
53
 10
-136.6013104361611
 20
116.0685353980855
 30
0.0
 11
-43.947603082559361
 21
116.0685353980855
 31
0.0
  0
LINE
  5
1C5
  8
53
 10
-89.730937046605334
 20
163.78151703751811
 30
0.0
 11
-89.730937046605334
 21
70.666515774647465
 31
0.0
  0
TEXT
  5
1CC
  8
L20
 10
-116.9056679534425
 20
189.59029068250081
 30
0.0
 40
5.2340133665760389
  1
80x82x40 BASE
  7
SIMPLEX
  0
LINE
  5
1CD
  8
43
  6
DASHED
 10
25.54192144675735
 20
152.698173502712
 30
0.0
 11
-12.86308581790839
 21
153.36853539808541
 31
0.0
  0
ARC
  5
1CE
  8
43
  6
DASHED
 10
25.536685724826182
 20
152.39821919416511
 30
0.0
 40
0.3
 50
0.0
 51
89.000000000000014
  0
LINE
  5
1CF
  8
43
  6
DASHED
 10
25.54192144675735
 20
79.438897293458894
 30
0.0
 11
-12.86308581790839
 21
78.768535398085504
 31
0.0
  0
ARC
  5
1D0
  8
43
  6
DASHED
 10
25.536685724826182
 20
79.738851602005795
 30
0.0
 40
0.3
 50
271.0
 51
0.0
  0
LINE
  5
1D1
  8
43
  6
DASHED
 10
179.95146669252759
 20
79.438897293458894
 30
0.0
 11
218.35647395719329
 21
78.768535398085504
 31
0.0
  0
LINE
  5
1D2
  8
43
  6
DASHED
 10
179.95146669252759
 20
152.698173502712
 30
0.0
 11
218.35647395719329
 21
153.36853539808541
 31
0.0
  0
LINE
  5
1D3
  8
41
 10
177.83925000802151
 20
76.649587563173498
 30
0.0
 11
216.85670241445879
 21
75.968535398085493
 31
0.0
  0
LINE
  5
1D4
  8
41
 10
177.8567024144586
 20
156.1685353980854
 30
0.0
 11
216.85670241445879
 21
156.16853539808551
 31
0.0
  0
LINE
  5
1D5
  8
43
  6
DASHED
 10
179.95146669252759
 20
97.212718683802976
 30
0.0
 11
218.35647395719329
 21
96.542356788429586
 31
0.0
  0
LINE
  5
1D6
  8
43
  6
DASHED
 10
179.95146669252759
 20
134.92435211236801
 30
0.0
 11
218.35647395719329
 21
135.5947140077414
 31
0.0
  0
LINE
  5
1D7
  8
43
 10
174.65919910841529
 20
116.0685353980854
 30
0.0
 11
219.9546723951583
 21
116.0685353980854
 31
0.0
  0
LINE
  5
1D8
  8
41
 10
216.85670241445879
 20
154.6685353980854
 30
0.0
 11
216.85670241445879
 21
77.468535398085464
 31
0.0
  0
LINE
  5
1D9
  8
41
 10
218.35670241445879
 20
78.742352800693169
 30
0.0
 11
218.35670241445879
 21
153.39471799547781
 31
0.0
  0
LINE
  5
1DA
  8
41
 10
216.85670241445891
 20
77.468535398085493
 30
0.0
 11
218.08284913728301
 21
77.575809336152076
 31
0.0
  0
ARC
  5
1DB
  8
41
 10
218.05670241445881
 20
77.874667745579586
 30
0.0
 40
0.3
 50
275.00000000000011
 51
0.0000000000000325
  0
LINE
  5
1DC
  8
41
 10
216.85670241445879
 20
77.468535398085493
 30
0.0
 11
216.85670241445879
 21
75.968535398085493
 31
0.0
  0
LINE
  5
1DD
  8
41
 10
218.35670241445879
 20
78.742352800693169
 30
0.0
 11
218.35670241445879
 21
77.874667745579586
 31
0.0
  0
LINE
  5
1DE
  8
41
 10
218.35670241445879
 20
153.39471799547781
 30
0.0
 11
218.35670241445879
 21
154.26240305059139
 31
0.0
  0
LINE
  5
1DF
  8
41
 10
216.85670241445879
 20
154.6685353980854
 30
0.0
 11
216.85670241445879
 21
156.1685353980854
 31
0.0
  0
ARC
  5
1E0
  8
41
 10
218.05670241445881
 20
154.26240305059139
 30
0.0
 40
0.3
 50
0.000000000000007
 51
84.999999999999915
  0
LINE
  5
1E1
  8
41
 10
216.85670241445891
 20
154.6685353980854
 30
0.0
 11
218.08284913728301
 21
154.56126146001881
 31
0.0
  0
LINE
  5
1E2
  8
43
  6
DASHED
 10
179.65670241445881
 20
79.738851602005795
 30
0.0
 11
179.65670241445881
 21
116.0685353980854
 31
0.0
  0
LINE
  5
1E3
  8
41
 10
176.85670241445871
 20
77.649435258329902
 30
0.0
 11
176.85670241445871
 21
116.0685353980854
 31
0.0
  0
ARC
  5
1E4
  8
41
 10
177.85670241445871
 20
77.649435258329902
 30
0.0
 40
1.0
 50
180.0
 51
268.99999999999989
  0
ARC
  5
1E5
  8
43
  6
DASHED
 10
179.95670241445879
 20
79.738851602005795
 30
0.0
 40
0.3
 50
180.0
 51
269.0
  0
LINE
  5
1E6
  8
43
  6
DASHED
 10
179.65670241445881
 20
152.39821919416511
 30
0.0
 11
179.65670241445881
 21
116.0685353980854
 31
0.0
  0
LINE
  5
1E7
  8
41
 10
176.85670241445871
 20
138.96853539808561
 30
0.0
 11
176.85670241445871
 21
116.0685353980854
 31
0.0
  0
LINE
  5
1E8
  8
43
  6
DASHED
 10
179.95146669252759
 20
120.1593931255783
 30
0.0
 11
184.56193813639001
 21
120.0736805276976
 31
0.0
  0
LINE
  5
1E9
  8
43
  6
DASHED
 10
179.95146669252759
 20
111.9776776705925
 30
0.0
 11
184.56193813639001
 21
112.0633902684733
 31
0.0
  0
LINE
  5
1EA
  8
43
  6
DASHED
 10
184.85670241445871
 20
116.0685353980854
 30
0.0
 11
184.85670241445879
 21
112.3633445770203
 31
0.0
  0
ARC
  5
1EB
  8
43
  6
DASHED
 10
184.5567024144587
 20
112.3633445770203
 30
0.0
 40
0.3
 50
271.00000000000011
 51
0.000000000000007
  0
ARC
  5
1EC
  8
43
  6
DASHED
 10
184.5567024144587
 20
119.7737262191506
 30
0.0
 40
0.3
 50
0.000000000000007
 51
88.999999999999872
  0
LINE
  5
1ED
  8
43
  6
DASHED
 10
184.85670241445871
 20
116.0685353980854
 30
0.0
 11
184.85670241445879
 21
119.7737262191506
 31
0.0
  0
ARC
  5
1EE
  8
43
  6
DASHED
 10
179.95670241445879
 20
97.512672992349891
 30
0.0
 40
0.3
 50
180.0
 51
269.0
  0
ARC
  5
1EF
  8
43
  6
DASHED
 10
179.95670241445879
 20
111.6777233620456
 30
0.0
 40
0.3
 50
91.000000000000128
 51
180.0
  0
ARC
  5
1F0
  8
43
  6
DASHED
 10
179.95670241445879
 20
120.45934743412531
 30
0.0
 40
0.3
 50
180.0
 51
268.99999999999977
  0
LINE
  5
1F1
  8
41
 10
176.85670241445871
 20
146.32033280095641
 30
0.0
 11
176.85670241445871
 21
143.1685353980854
 31
0.0
  0
ARC
  5
1F2
  8
43
  6
DASHED
 10
179.95670241445879
 20
134.62439780382101
 30
0.0
 40
0.3
 50
91.0
 51
180.0
  0
LINE
  5
1F3
  8
41
 10
176.85670241445871
 20
143.1685353980854
 30
0.0
 11
176.85670241445871
 21
138.96853539808561
 31
0.0
  0
ARC
  5
1F4
  8
41
 10
177.8567024144586
 20
155.1685353980854
 30
0.0
 40
1.0
 50
90.0
 51
180.0
  0
ARC
  5
1F5
  8
43
  6
DASHED
 10
179.95670241445879
 20
152.39821919416511
 30
0.0
 40
0.3
 50
91.0
 51
180.0
  0
LINE
  5
1F6
  8
41
 10
176.85670241445871
 20
154.1685353980854
 30
0.0
 11
176.8567024144586
 21
155.1685353980854
 31
0.0
  0
LINE
  5
1F7
  8
41
 10
176.85670241445871
 20
154.16853539808551
 30
0.0
 11
176.85670241445871
 21
146.32033280095641
 31
0.0
  0
LINE
  5
1F8
  8
23
  6
DASHED
 10
64.446694069642703
 20
223.77431891951781
 30
0.0
 11
65.117059952752555
 21
185.3690831975866
 31
0.0
  0
ARC
  5
1F9
  8
23
  6
DASHED
 10
65.417014261299485
 20
185.3743189195178
 30
0.0
 40
0.3
 50
181.0
 51
270.0
  0
LINE
  5
1FA
  8
23
  6
DASHED
 10
141.0466940696422
 20
223.77431891951781
 30
0.0
 11
140.37632818653239
 21
185.3690831975866
 31
0.0
  0
ARC
  5
1FB
  8
23
  6
DASHED
 10
140.0763738779855
 20
185.3743189195178
 30
0.0
 40
0.3
 50
270.0
 51
358.99999999999989
  0
LINE
  5
1FC
  8
23
  6
DASHED
 10
140.0763738779855
 20
47.062751876653152
 30
0.0
 11
102.7466940696425
 21
47.062751876653117
 31
0.0
  0
LINE
  5
1FD
  8
21
 10
141.07287666703499
 20
8.3627518766531068
 30
0.0
 11
64.420511472249956
 21
8.3627518766531068
 31
0.0
  0
LINE
  5
1FE
  8
21
 10
63.03435275283163
 20
9.8627518766531068
 30
0.0
 11
142.45903538645331
 21
9.8627518766531068
 31
0.0
  0
LINE
  5
1FF
  8
21
 10
72.270346017488976
 20
49.862751876653128
 30
0.0
 11
142.16579420939809
 21
49.862751876653078
 31
0.0
  0
LINE
  5
200
  8
23
  6
DASHED
 10
65.417014261299485
 20
47.062751876653152
 30
0.0
 11
102.7466940696424
 21
47.062751876653117
 31
0.0
  0
LINE
  5
201
  8
23
  6
DASHED
 10
64.446694069642703
 20
8.3627518766531352
 30
0.0
 11
65.117059952752555
 21
46.767987598584313
 31
0.0
  0
LINE
  5
202
  8
23
  6
DASHED
 10
73.332852789060667
 20
8.3627518766531068
 30
0.0
 11
74.003218672170533
 21
46.767987598584277
 31
0.0
  0
LINE
  5
203
  8
21
 10
61.646694069642479
 20
48.862751876653128
 30
0.0
 11
61.646694069642479
 21
9.8627518766531637
 31
0.0
  0
LINE
  5
204
  8
21
 10
63.646694069642528
 20
49.862751876653128
 30
0.0
 11
72.270346017488976
 21
49.862751876653128
 31
0.0
  0
LINE
  5
205
  8
21
 10
63.646694069642479
 20
49.862751876653128
 30
0.0
 11
62.646694069642479
 21
49.862751876653128
 31
0.0
  0
ARC
  5
206
  8
21
 10
62.646694069642521
 20
48.862751876653128
 30
0.0
 40
1.0
 50
90.000000000000028
 51
180.0
  0
ARC
  5
207
  8
23
  6
DASHED
 10
65.417014261299485
 20
46.762751876653127
 30
0.0
 40
0.3
 50
90.000000000000028
 51
178.99999999999989
  0
LINE
  5
208
  8
21
 10
63.646694069642479
 20
49.862751876653128
 30
0.0
 11
63.646694069642528
 21
49.862751876653128
 31
0.0
  0
ARC
  5
209
  8
23
  6
DASHED
 10
74.303172980717449
 20
46.762751876653113
 30
0.0
 40
0.3
 50
90.000000000000028
 51
178.99999999999989
  0
LINE
  5
20A
  8
21
 10
63.03435275283163
 20
9.8627518766531068
 30
0.0
 11
61.646694069642557
 21
9.8627518766531068
 31
0.0
  0
LINE
  5
20B
  8
21
 10
63.141626690898242
 20
8.6366051538288104
 30
0.0
 11
63.03435275283163
 21
9.8627518766531068
 31
0.0
  0
ARC
  5
20C
  8
21
 10
63.440485100325759
 20
8.6627518766531466
 30
0.0
 40
0.3
 50
184.9999999999998
 51
270.0
  0
LINE
  5
20D
  8
21
 10
64.420511472249956
 20
8.3627518766531068
 30
0.0
 11
63.440485100325759
 21
8.3627518766531068
 31
0.0
  0
LINE
  5
20E
  8
23
  6
DASHED
 10
102.7466940696424
 20
41.862751876653157
 30
0.0
 11
99.041503248577328
 21
41.862751876653128
 31
0.0
  0
LINE
  5
20F
  8
23
  6
DASHED
 10
98.655836342149598
 20
46.767987598584313
 30
0.0
 11
98.741548940030441
 21
42.157516154721947
 31
0.0
  0
ARC
  5
210
  8
23
  6
DASHED
 10
99.041503248577328
 20
42.16275187665314
 30
0.0
 40
0.3
 50
181.00000000000011
 51
270.0
  0
LINE
  5
211
  8
23
 10
102.7466940696424
 20
1.0354465521778591
 30
0.0
 11
102.7466940696424
 21
57.201324960008712
 31
0.0
  0
ARC
  5
212
  8
23
  6
DASHED
 10
106.4518848907076
 20
42.16275187665314
 30
0.0
 40
0.3
 50
270.0
 51
358.99999999999977
  0
LINE
  5
213
  8
23
  6
DASHED
 10
106.8375517971354
 20
46.767987598584313
 30
0.0
 11
106.7518391992545
 21
42.157516154721947
 31
0.0
  0
LINE
  5
214
  8
23
  6
DASHED
 10
102.7466940696424
 20
41.862751876653157
 30
0.0
 11
106.4518848907076
 21
41.862751876653128
 31
0.0
  0
LINE
  5
215
  8
23
  6
DASHED
 10
141.0466940696422
 20
8.3627518766531352
 30
0.0
 11
140.37632818653239
 21
46.767987598584313
 31
0.0
  0
LINE
  5
216
  8
23
  6
DASHED
 10
132.16053535022431
 20
8.3627518766531068
 30
0.0
 11
131.49016946711441
 21
46.767987598584277
 31
0.0
  0
LINE
  5
217
  8
21
 10
143.16564190455449
 20
48.880204283090372
 30
0.0
 11
143.84669406964241
 21
9.8627518766531068
 31
0.0
  0
ARC
  5
218
  8
23
  6
DASHED
 10
131.1902151585675
 20
46.762751876653113
 30
0.0
 40
0.3
 50
1.0000000000001039
 51
90.000000000000028
  0
ARC
  5
219
  8
23
  6
DASHED
 10
140.0763738779855
 20
46.762751876653127
 30
0.0
 40
0.3
 50
1.0000000000000531
 51
90.000000000000028
  0
ARC
  5
21A
  8
21
 10
142.16579420939809
 20
48.862751876653078
 30
0.0
 40
1.0
 50
1.0000000000000531
 51
90.000000000000028
  0
LINE
  5
21B
  8
21
 10
141.07287666703499
 20
8.3627518766531068
 30
0.0
 11
142.05290303895919
 21
8.3627518766531068
 31
0.0
  0
LINE
  5
21C
  8
21
 10
142.45903538645331
 20
9.8627518766531068
 30
0.0
 11
143.84669406964241
 21
9.8627518766531068
 31
0.0
  0
ARC
  5
21D
  8
21
 10
142.05290303895919
 20
8.6627518766531466
 30
0.0
 40
0.3
 50
270.0
 51
355.00000000000011
  0
LINE
  5
21E
  8
21
 10
142.3517614483867
 20
8.6366051538288104
 30
0.0
 11
142.45903538645331
 21
9.8627518766531068
 31
0.0
  0
ENDSEC
  0
EOF
