  0
SECTION
  2
HEADER
  9
$ACADVER
  1
AC1009
  9
$INSBASE
 10
0.0
 20
0.0
 30
0.0
  9
$EXTMIN
 10
-117.2034705094765
 20
30.665800594916611
 30
-0.0015258207003583
  9
$EXTMAX
 10
207.7396450296973
 20
221.49765906370521
 30
0.0000000349246037
  9
$LIMMIN
 10
-10.0
 20
5.0
  9
$LIMMAX
 10
415.0
 20
842.66622410985099
  9
$ORTHOMODE
 70
     1
  9
$REGENMODE
 70
     1
  9
$FILLMODE
 70
     1
  9
$QTEXTMODE
 70
     0
  9
$MIRRTEXT
 70
     1
  9
$DRAGMODE
 70
     2
  9
$LTSCALE
 40
7.0
  9
$OSMODE
 70
    37
  9
$ATTMODE
 70
     1
  9
$TEXTSIZE
 40
2.5
  9
$TRACEWID
 40
1.0
  9
$TEXTSTYLE
  7
TKKISO
  9
$CLAYER
  8
1
  9
$CELTYPE
  6
BYLAYER
  9
$CECOLOR
 62
   256
  9
$DIMSCALE
 40
1.0
  9
$DIMASZ
 40
2.5
  9
$DIMEXO
 40
0.0625
  9
$DIMDLI
 40
10.0
  9
$DIMRND
 40
0.0
  9
$DIMDLE
 40
0.0
  9
$DIMEXE
 40
1.0
  9
$DIMTP
 40
0.0
  9
$DIMTM
 40
0.0
  9
$DIMTXT
 40
2.5
  9
$DIMCEN
 40
-2.0
  9
$DIMTSZ
 40
0.0
  9
$DIMTOL
 70
     0
  9
$DIMLIM
 70
     0
  9
$DIMTIH
 70
     0
  9
$DIMTOH
 70
     0
  9
$DIMSE1
 70
     0
  9
$DIMSE2
 70
     0
  9
$DIMTAD
 70
     1
  9
$DIMZIN
 70
     0
  9
$DIMBLK
  1

  9
$DIMASO
 70
     1
  9
$DIMSHO
 70
     1
  9
$DIMPOST
  1

  9
$DIMAPOST
  1

  9
$DIMALT
 70
     0
  9
$DIMALTD
 70
     2
  9
$DIMALTF
 40
25.399999999999999
  9
$DIMLFAC
 40
1.0
  9
$DIMTOFL
 70
     1
  9
$DIMTVP
 40
0.0
  9
$DIMTIX
 70
     0
  9
$DIMSOXD
 70
     1
  9
$DIMSAH
 70
     1
  9
$DIMBLK1
  1

  9
$DIMBLK2
  1

  9
$DIMSTYLE
  2
STANDARD
  9
$DIMCLRD
 70
     1
  9
$DIMCLRE
 70
     1
  9
$DIMCLRT
 70
     3
  9
$DIMTFAC
 40
1.0
  9
$DIMGAP
 40
0.09
  9
$LUNITS
 70
     2
  9
$LUPREC
 70
     1
  9
$SKETCHINC
 40
0.1
  9
$FILLETRAD
 40
0.0
  9
$AUNITS
 70
     0
  9
$AUPREC
 70
     1
  9
$MENU
  1
caesar
  9
$ELEVATION
 40
0.0
  9
$PELEVATION
 40
0.0
  9
$THICKNESS
 40
0.0
  9
$LIMCHECK
 70
     0
  9
$BLIPMODE
 70
     0
  9
$CHAMFERA
 40
5.0
  9
$CHAMFERB
 40
5.0
  9
$SKPOLY
 70
     0
  9
$TDCREATE
 40
2448723.9838693282
  9
$TDUPDATE
 40
2453620.4667105549
  9
$TDINDWG
 40
1.0663443981
  9
$TDUSRTIMER
 40
1.0663443981
  9
$USRTIMER
 70
     1
  9
$ANGBASE
 50
0.0
  9
$ANGDIR
 70
     0
  9
$PDMODE
 70
     0
  9
$PDSIZE
 40
0.0
  9
$PLINEWID
 40
0.0
  9
$COORDS
 70
     2
  9
$SPLFRAME
 70
     0
  9
$SPLINETYPE
 70
     6
  9
$SPLINESEGS
 70
     8
  9
$ATTDIA
 70
     0
  9
$ATTREQ
 70
     1
  9
$HANDLING
 70
-16383
  9
$HANDSEED
  5
29E
  9
$SURFTAB1
 70
     6
  9
$SURFTAB2
 70
     6
  9
$SURFTYPE
 70
     6
  9
$SURFU
 70
     6
  9
$SURFV
 70
     6
  9
$UCSNAME
  2

  9
$UCSORG
 10
0.0
 20
0.0
 30
0.0
  9
$UCSXDIR
 10
1.0
 20
0.0
 30
0.0
  9
$UCSYDIR
 10
0.0
 20
1.0
 30
0.0
  9
$PUCSNAME
  2

  9
$PUCSORG
 10
0.0
 20
0.0
 30
0.0
  9
$PUCSXDIR
 10
1.0
 20
0.0
 30
0.0
  9
$PUCSYDIR
 10
0.0
 20
1.0
 30
0.0
  9
$USERI1
 70
   103
  9
$USERI2
 70
     0
  9
$USERI3
 70
     0
  9
$USERI4
 70
     0
  9
$USERI5
 70
     0
  9
$USERR1
 40
1.0
  9
$USERR2
 40
-10.0
  9
$USERR3
 40
2.5
  9
$USERR4
 40
0.0
  9
$USERR5
 40
0.0
  9
$WORLDVIEW
 70
     1
  9
$SHADEDGE
 70
     3
  9
$SHADEDIF
 70
    70
  9
$TILEMODE
 70
     1
  9
$MAXACTVP
 70
    16
  9
$PLIMCHECK
 70
     0
  9
$PEXTMIN
 10
1.0000000000000000E+020
 20
1.0000000000000000E+020
 30
1.0000000000000000E+020
  9
$PEXTMAX
 10
-1.0000000000000000E+020
 20
-1.0000000000000000E+020
 30
-1.0000000000000000E+020
  9
$PLIMMIN
 10
0.0
 20
0.0
  9
$PLIMMAX
 10
12.0
 20
9.0
  9
$UNITMODE
 70
     0
  9
$VISRETAIN
 70
     0
  9
$PLINEGEN
 70
     0
  9
$PSLTSCALE
 70
     0
  0
ENDSEC
  0
SECTION
  2
TABLES
  0
TABLE
  2
VPORT
 70
     2
  0
VPORT
  2
*ACTIVE
 70
     0
 10
0.0
 20
0.0
 11
1.0
 21
1.0
 12
45.268087260110399
 22
126.0817298293109
 13
0.0
 23
0.0
 14
5.0
 24
5.0
 15
10.0
 25
10.0
 16
0.0
 26
0.0
 36
1.0
 17
0.0
 27
0.0
 37
0.0
 40
209.74545346175719
 41
1.5552208835341359
 42
50.0
 43
0.0
 44
0.0
 50
0.0
 51
0.0
 71
     0
 72
  2000
 73
     1
 74
     0
 75
     0
 76
     0
 77
     0
 78
     0
  0
ENDTAB
  0
TABLE
  2
LTYPE
 70
     3
  0
LTYPE
  2
CONTINUOUS
 70
     0
  3
Solid line
 72
    65
 73
     0
 40
0.0
  0
LTYPE
  2
DASHED
 70
     0
  3
__ __ __ __ __ __ __ __ __ __ __ __ __ __ __
 72
    65
 73
     2
 40
0.75
 49
0.5
 49
-0.25
  0
LTYPE
  2
CENTER
 70
     0
  3
____ _ ____ _ ____ _ ____ _ ____ _ ____ _ ____ 
 72
    65
 73
     4
 40
2.0
 49
1.25
 49
-0.25
 49
0.25
 49
-0.25
  0
ENDTAB
  0
TABLE
  2
LAYER
 70
    11
  0
LAYER
  2
0
 70
     0
 62
     6
  6
CONTINUOUS
  0
LAYER
  2
DEFPOINTS
 70
     0
 62
    -7
  6
CONTINUOUS
  0
LAYER
  2
L20
 70
     0
 62
     3
  6
CONTINUOUS
  0
LAYER
  2
1
 70
     0
 62
     7
  6
CONTINUOUS
  0
LAYER
  2
41
 70
     0
 62
     7
  6
CONTINUOUS
  0
LAYER
  2
43
 70
     0
 62
     1
  6
CENTER
  0
LAYER
  2
51
 70
     0
 62
     7
  6
CONTINUOUS
  0
LAYER
  2
52
 70
     0
 62
     1
  6
CONTINUOUS
  0
LAYER
  2
53
 70
     0
 62
     1
  6
CENTER
  0
LAYER
  2
61
 70
     0
 62
     7
  6
CONTINUOUS
  0
LAYER
  2
63
 70
     0
 62
     1
  6
CENTER
  0
ENDTAB
  0
TABLE
  2
STYLE
 70
     3
  0
STYLE
  2
STANDARD
 70
     0
 40
0.0
 41
1.0
 50
0.0
 71
     0
 42
9.5
  3
caeiso
  4

  0
STYLE
  2
ROMANS
 70
     0
 40
0.0
 41
0.8
 50
0.0
 71
     0
 42
2.5
  3
romans
  4

  0
STYLE
  2
TKKISO
 70
     0
 40
0.0
 41
1.0
 50
0.0
 71
     0
 42
2.5
  3
caeiso
  4

  0
ENDTAB
  0
TABLE
  2
VIEW
 70
     0
  0
ENDTAB
  0
TABLE
  2
UCS
 70
     0
  0
ENDTAB
  0
TABLE
  2
APPID
 70
     2
  0
APPID
  2
ACAD
 70
     0
  0
APPID
  2
DCO15
 70
     0
  0
ENDTAB
  0
TABLE
  2
DIMSTYLE
 70
     1
  0
DIMSTYLE
  2
STANDARD
 70
     0
  3

  4

  5

  6

  7

 40
1.0
 41
0.18
 42
0.0625
 43
0.38
 44
0.18
 45
0.0
 46
0.0
 47
0.0
 48
0.0
140
0.18
141
0.09
142
0.0
143
25.399999999999999
144
1.0
145
0.0
146
1.0
147
0.09
 71
     0
 72
     0
 73
     1
 74
     1
 75
     0
 76
     0
 77
     0
 78
     0
170
     0
171
     2
172
     0
173
     0
174
     0
175
     0
176
     0
177
     0
178
     0
  0
ENDTAB
  0
ENDSEC
  0
SECTION
  2
BLOCKS
  0
BLOCK
  8
0
  2
$MODEL_SPACE
 70
     0
 10
0.0
 20
0.0
 30
0.0
  3
$MODEL_SPACE
  1

  0
ENDBLK
  5
7E
  8
0
  0
BLOCK
 67
     1
  8
0
  2
$PAPER_SPACE
 70
     0
 10
0.0
 20
0.0
 30
0.0
  3
$PAPER_SPACE
  1

  0
ENDBLK
  5
7C
 67
     1
  8
0
  0
ENDSEC
  0
SECTION
  2
ENTITIES
  0
LINE
  5
7F
  8
51
 10
-108.087230683163
 20
85.978549703361338
 30
0.0
 11
-38.087230683163
 21
85.978549703361338
 31
0.0
  0
LINE
  5
80
  8
51
 10
-114.18723068316299
 20
126.0785497033613
 30
0.0
 11
-114.18723068316299
 21
92.078549703361347
 31
0.0
  0
LINE
  5
81
  8
51
 10
-31.987230683163091
 20
126.0785497033613
 30
0.0
 11
-31.98723068316303
 21
92.078549703361347
 31
0.0
  0
LINE
  5
82
  8
63
 10
103.9360536559855
 20
169.22541212583499
 30
0.0
 11
103.9360536559855
 21
81.29650639313121
 31
0.0
  0
LINE
  5
83
  8
63
 10
57.065680266429752
 20
126.0785497033613
 30
0.0
 11
149.71938762003151
 21
126.0785497033613
 31
0.0
  0
ARC
  5
84
  8
51
 10
-108.087230683163
 20
92.078549703361347
 30
0.0
 40
6.0999999999999988
 50
180.0
 51
270.0
  0
ARC
  5
85
  8
51
 10
-38.087230683163
 20
92.078549703361347
 30
0.0
 40
6.0999999999999988
 50
270.0
 51
0.0000000000000254
  0
ARC
  5
86
  8
61
 10
138.93605365598549
 20
160.07854970336129
 30
0.0
 40
6.0999999999999988
 50
0.0000000000000254
 51
90.000000000000057
  0
ARC
  5
87
  8
61
 10
138.93605365598549
 20
92.078549703361375
 30
0.0
 40
6.0999999999999988
 50
270.0
 51
0.0000000000000254
  0
ARC
  5
88
  8
61
 10
68.936053655985532
 20
92.078549703361375
 30
0.0
 40
6.0999999999999988
 50
180.0
 51
270.0
  0
ARC
  5
89
  8
61
 10
68.936053655985532
 20
160.07854970336129
 30
0.0
 40
6.0999999999999988
 50
90.000000000000057
 51
180.0
  0
LINE
  5
8A
  8
61
 10
145.0360536559854
 20
160.07854970336129
 30
0.0
 11
145.0360536559854
 21
92.078549703361347
 31
0.0
  0
LINE
  5
8B
  8
61
 10
62.836053655985552
 20
160.07854970336129
 30
0.0
 11
62.836053655985552
 21
92.078549703361375
 31
0.0
  0
LINE
  5
8C
  8
61
 10
68.936053655985518
 20
85.978549703361338
 30
0.0
 11
138.93605365598549
 21
85.978549703361338
 31
0.0
  0
LINE
  5
8D
  8
61
 10
68.936053655985518
 20
166.17854970336131
 30
0.0
 11
138.93605365598549
 21
166.1785497033614
 31
0.0
  0
ARC
  5
8E
  8
61
 10
138.93605365598549
 20
160.0785497033614
 30
0.0
 40
2.1000000000000001
 50
290.92483242762461
 51
249.0751675723767
  0
LINE
  5
8F
  8
61
 10
68.936053655985518
 20
164.67854970336131
 30
0.0
 11
138.9360536559854
 21
164.67854970336131
 31
0.0
  0
LINE
  5
90
  8
61
 10
143.5360536559854
 20
160.07854970336129
 30
0.0
 11
143.53605365598551
 21
92.078549703361375
 31
0.0
  0
LINE
  5
91
  8
61
 10
64.336053655985495
 20
160.07854970336129
 30
0.0
 11
64.336053655985609
 21
92.078549703361375
 31
0.0
  0
LINE
  5
92
  8
61
 10
68.936053655985631
 20
87.478549703361352
 30
0.0
 11
138.93605365598549
 21
87.478549703361352
 31
0.0
  0
CIRCLE
  5
93
  8
61
 10
138.93605365598549
 20
160.07854970336129
 30
0.0
 40
4.0499999999999989
  0
ARC
  5
94
  8
61
 10
138.9360536559854
 20
160.07854970336129
 30
0.0
 40
4.5999999999999988
 50
0.0000000000000382
 51
90.0
  0
ARC
  5
95
  8
61
 10
68.936053655985532
 20
160.07854970336129
 30
0.0
 40
4.5999999999999988
 50
90.000000000000028
 51
180.0
  0
ARC
  5
96
  8
61
 10
68.936053655985646
 20
92.078549703361375
 30
0.0
 40
4.5999999999999988
 50
180.0
 51
270.0
  0
ARC
  5
97
  8
61
 10
138.93605365598549
 20
92.078549703361375
 30
0.0
 40
4.5999999999999988
 50
270.0
 51
0.0000000000000382
  0
ARC
  5
98
  8
61
 10
68.936053655985532
 20
160.07854970336129
 30
0.0
 40
2.1000000000000001
 50
110.9248324276425
 51
69.075167572361607
  0
CIRCLE
  5
99
  8
61
 10
68.936053655985532
 20
160.07854970336129
 30
0.0
 40
4.0499999999999989
  0
CIRCLE
  5
9A
  8
61
 10
68.936053655985532
 20
92.078549703361318
 30
0.0
 40
4.0499999999999989
  0
ARC
  5
9B
  8
61
 10
68.936053655985532
 20
92.078549703361375
 30
0.0
 40
2.1000000000000001
 50
110.92483242763279
 51
69.075167572361494
  0
ARC
  5
9C
  8
61
 10
138.93605365598549
 20
92.078549703361375
 30
0.0
 40
2.1000000000000001
 50
290.92483242762597
 51
249.07516757237099
  0
CIRCLE
  5
9D
  8
61
 10
138.93605365598549
 20
92.078549703361375
 30
0.0
 40
4.0499999999999989
  0
LINE
  5
9E
  8
52
 10
-113.18723068316299
 20
126.0785497033613
 30
0.0
 11
-113.18723068316299
 21
108.27854970336131
 31
0.0
  0
LINE
  5
9F
  8
52
 10
-110.68723068316299
 20
126.0785497033613
 30
0.0
 11
-110.68723068316299
 21
108.27854970336131
 31
0.0
  0
LINE
  5
A0
  8
51
 10
-109.887230683163
 20
126.0785497033613
 30
0.0
 11
-109.887230683163
 21
108.27854970336131
 31
0.0
  0
LINE
  5
A1
  8
52
 10
-104.3872306831632
 20
90.478549703361367
 30
0.0
 11
-104.3872306831631
 21
101.0785497033613
 31
0.0
  0
LINE
  5
A2
  8
52
 10
-101.8872306831632
 20
90.478549703361367
 30
0.0
 11
-101.8872306831631
 21
101.0785497033613
 31
0.0
  0
LINE
  5
A3
  8
51
 10
-101.0872306831632
 20
90.478549703361352
 30
0.0
 11
-101.0872306831632
 21
101.0785497033613
 31
0.0
  0
LINE
  5
A4
  8
52
 10
-105.18723068316319
 20
90.478549703361367
 30
0.0
 11
-105.18723068316319
 21
101.0785497033613
 31
0.0
  0
LINE
  5
A5
  8
52
 10
-109.68723068316299
 20
104.77854970336131
 30
0.0
 11
-108.0872306831632
 21
104.77854970336131
 31
0.0
  0
LINE
  5
A6
  8
52
 10
-109.6872304224991
 20
103.9785497033613
 30
0.0
 11
-108.0872306831632
 21
103.9785497033614
 31
0.0
  0
LINE
  5
A7
  8
52
 10
-109.68723068316299
 20
107.27854970336131
 30
0.0
 11
-108.0872306831632
 21
107.27854970336131
 31
0.0
  0
LINE
  5
A8
  8
51
 10
-109.68723068316299
 20
108.0785497033613
 30
0.0
 11
-108.0872306831633
 21
108.0785497033613
 31
0.0
  0
LINE
  5
A9
  8
52
 10
-113.18723068316299
 20
105.2191379952056
 30
0.0
 11
-113.18723068316309
 21
92.078549703361347
 31
0.0
  0
ARC
  5
AA
  8
52
 10
-108.0872306831631
 20
101.0785497033613
 30
0.0
 40
2.8999999999999999
 50
359.99999999999972
 51
90.000000000000952
  0
ARC
  5
AB
  8
52
 10
-108.0872306831631
 20
101.0785497033613
 30
0.0
 40
3.7000000000000002
 50
359.99999999999972
 51
90.000000000001023
  0
ARC
  5
AC
  8
52
 10
-108.0872306831631
 20
101.0785497033613
 30
0.0
 40
6.2000000000000002
 50
359.99999999999972
 51
90.000000000001023
  0
ARC
  5
AD
  8
51
 10
-108.0872306831632
 20
101.0785497033613
 30
0.0
 40
7.0
 50
359.99999999999972
 51
90.000000000001023
  0
ARC
  5
AE
  8
51
 10
-109.68723068316299
 20
108.27854970336131
 30
0.0
 40
0.2
 50
180.0
 51
270.00000000000102
  0
ARC
  5
AF
  8
52
 10
-109.68723068316299
 20
108.27854970336131
 30
0.0
 40
1.0
 50
180.0
 51
270.00000000000051
  0
ARC
  5
B0
  8
52
 10
-109.68723068316299
 20
108.27854970336131
 30
0.0
 40
3.5
 50
180.0
 51
270.00000000000102
  0
ARC
  5
B1
  8
52
 10
-109.68723068316299
 20
108.27854970336131
 30
0.0
 40
4.2999999999999989
 50
222.8334280660678
 51
270.00000580913252
  0
ARC
  5
B2
  8
52
 10
-112.98723068316301
 20
105.2191379952056
 30
0.0
 40
0.2
 50
42.833428066067782
 51
180.0
  0
LINE
  5
B3
  8
52
 10
-108.087230683163
 20
86.978549703361367
 30
0.0
 11
-103.9466423913189
 21
86.978549703361367
 31
0.0
  0
ARC
  5
B4
  8
52
 10
-108.087230683163
 20
92.078549703361347
 30
0.0
 40
5.0999999999999988
 50
180.0
 51
270.0
  0
ARC
  5
B5
  8
52
 10
-108.0872306831629
 20
92.078549703361389
 30
0.0
 40
2.0
 50
131.94539301029349
 51
164.4270040006291
  0
LINE
  5
B6
  8
52
 10
-106.13054006072829
 20
92.492508406697084
 30
0.0
 11
-107.3372306831631
 21
90.402458939623088
 31
0.0
  0
ARC
  5
B7
  8
52
 10
-108.087230683163
 20
92.078549703361347
 30
0.0
 40
2.0
 50
11.945393010294589
 51
48.054606989706173
  0
LINE
  5
B8
  8
52
 10
-106.7503866187392
 20
93.566114138068698
 30
0.0
 11
-109.42407474760481
 21
93.566114138068727
 31
0.0
  0
LINE
  5
B9
  8
52
 10
-108.8372306831629
 20
90.577587809046079
 30
0.0
 11
-110.0138090913135
 21
92.615481391051574
 31
0.0
  0
LINE
  5
BA
  8
52
 10
-100.8872306831632
 20
89.478549703361367
 30
0.0
 11
-73.087230683163057
 21
89.478549703361367
 31
0.0
  0
LINE
  5
BB
  8
51
 10
-100.8872306831632
 20
90.278549703361335
 30
0.0
 11
-73.087230683163057
 21
90.278549703361335
 31
0.0
  0
ARC
  5
BC
  8
51
 10
-100.8872306831632
 20
90.478549703361352
 30
0.0
 40
0.2
 50
179.99999999999969
 51
270.0
  0
ARC
  5
BD
  8
52
 10
-100.8872306831632
 20
90.478549703361367
 30
0.0
 40
1.0
 50
179.9999999999996
 51
270.0
  0
ARC
  5
BE
  8
52
 10
-100.8872306831632
 20
90.478549703361367
 30
0.0
 40
3.5000000000000142
 50
179.99999999999969
 51
270.00001379475299
  0
ARC
  5
BF
  8
52
 10
-100.8872306831632
 20
90.478549703361367
 30
0.0
 40
4.3000000000000247
 50
179.99998518157989
 51
227.1665719339322
  0
LINE
  5
C0
  8
52
 10
-100.8872298404897
 20
86.978549703361452
 30
0.0
 11
-73.087230683163057
 21
86.978549703361409
 31
0.0
  0
ARC
  5
C1
  8
52
 10
-103.9466423913189
 20
87.178549703361355
 30
0.0
 40
0.2
 50
270.0
 51
47.166571933932438
  0
ARC
  5
C2
  8
52
 10
-42.227818975007089
 20
87.178549703361355
 30
0.0
 40
0.2
 50
132.83342806606751
 51
270.0
  0
LINE
  5
C3
  8
52
 10
-45.287231525836368
 20
86.978549703361452
 30
0.0
 11
-73.087230683163057
 21
86.978549703361409
 31
0.0
  0
ARC
  5
C4
  8
52
 10
-45.287230683162882
 20
90.478549703361367
 30
0.0
 40
4.3000000000000247
 50
312.83342806606771
 51
0.0000148184200113
  0
ARC
  5
C5
  8
52
 10
-45.287230683162882
 20
90.478549703361367
 30
0.0
 40
3.5000000000000142
 50
269.9999862052469
 51
0.000000000000236
  0
ARC
  5
C6
  8
52
 10
-45.287230683162882
 20
90.478549703361367
 30
0.0
 40
1.0
 50
270.0
 51
0.0000000000003124
  0
ARC
  5
C7
  8
51
 10
-45.287230683162811
 20
90.478549703361352
 30
0.0
 40
0.2
 50
270.0
 51
0.000000000000236
  0
LINE
  5
C8
  8
51
 10
-45.287230683162811
 20
90.278549703361335
 30
0.0
 11
-73.087230683163
 21
90.278549703361335
 31
0.0
  0
LINE
  5
C9
  8
52
 10
-45.287230683162882
 20
89.478549703361367
 30
0.0
 11
-73.087230683163
 21
89.478549703361367
 31
0.0
  0
LINE
  5
CA
  8
52
 10
-38.837230683162943
 20
93.579511597676628
 30
0.0
 11
-40.013809091313583
 21
91.541618015671105
 31
0.0
  0
LINE
  5
CB
  8
52
 10
-36.750386618739242
 20
90.590985268653981
 30
0.0
 11
-39.424074747604827
 21
90.590985268653967
 31
0.0
  0
ARC
  5
CC
  8
52
 10
-38.087230683163057
 20
92.078549703361347
 30
0.0
 40
2.0
 50
311.9453930102938
 51
348.05460698970541
  0
LINE
  5
CD
  8
52
 10
-36.130540060728379
 20
91.664591000025595
 30
0.0
 11
-37.337230683163
 21
93.754640467099335
 31
0.0
  0
ARC
  5
CE
  8
52
 10
-38.087230683163
 20
92.078549703361276
 30
0.0
 40
2.0
 50
195.5729959993709
 51
228.05460698970651
  0
ARC
  5
CF
  8
52
 10
-38.087230683163
 20
92.078549703361347
 30
0.0
 40
5.0999999999999988
 50
270.0
 51
0.000000000000007
  0
LINE
  5
D0
  8
52
 10
-38.087230683163
 20
86.978549703361367
 30
0.0
 11
-42.227818975007089
 21
86.978549703361367
 31
0.0
  0
ARC
  5
D1
  8
52
 10
-33.187230683163023
 20
105.2191379952056
 30
0.0
 40
0.2
 50
0.000000000000007
 51
137.1665719339322
  0
ARC
  5
D2
  8
52
 10
-36.487230683163027
 20
108.27854970336131
 30
0.0
 40
4.2999999999999989
 50
269.99999419086748
 51
317.16657193393212
  0
ARC
  5
D3
  8
52
 10
-36.487230683163027
 20
108.27854970336131
 30
0.0
 40
3.5
 50
269.99999999999898
 51
0.000000000000007
  0
ARC
  5
D4
  8
52
 10
-36.487230683163027
 20
108.27854970336131
 30
0.0
 40
1.0
 50
269.99999999999949
 51
0.000000000000007
  0
ARC
  5
D5
  8
51
 10
-36.487230683163027
 20
108.27854970336131
 30
0.0
 40
0.2
 50
269.99999999999898
 51
0.000000000000007
  0
ARC
  5
D6
  8
51
 10
-38.087230683162879
 20
101.0785497033613
 30
0.0
 40
7.0
 50
89.999999999998977
 51
180.00000000000031
  0
ARC
  5
D7
  8
52
 10
-38.087230683162879
 20
101.0785497033613
 30
0.0
 40
6.2000000000000002
 50
89.999999999998977
 51
180.00000000000031
  0
ARC
  5
D8
  8
52
 10
-38.087230683162879
 20
101.0785497033613
 30
0.0
 40
3.7000000000000002
 50
89.999999999998977
 51
180.00000000000031
  0
ARC
  5
D9
  8
52
 10
-38.087230683162879
 20
101.0785497033613
 30
0.0
 40
2.8999999999999999
 50
89.999999999999048
 51
180.00000000000031
  0
LINE
  5
DA
  8
52
 10
-32.987230683163027
 20
105.2191379952056
 30
0.0
 11
-32.987230683163027
 21
92.078549703361361
 31
0.0
  0
LINE
  5
DB
  8
51
 10
-36.487230683163027
 20
108.0785497033613
 30
0.0
 11
-38.087230683162772
 21
108.0785497033613
 31
0.0
  0
LINE
  5
DC
  8
52
 10
-36.487230683163027
 20
107.27854970336131
 30
0.0
 11
-38.087230683162772
 21
107.27854970336131
 31
0.0
  0
LINE
  5
DD
  8
52
 10
-36.487230943827001
 20
103.9785497033613
 30
0.0
 11
-38.087230683162879
 21
103.9785497033614
 31
0.0
  0
LINE
  5
DE
  8
52
 10
-36.487230683163091
 20
104.77854970336131
 30
0.0
 11
-38.087230683162879
 21
104.77854970336131
 31
0.0
  0
LINE
  5
DF
  8
52
 10
-40.987230683162863
 20
90.478549703361367
 30
0.0
 11
-40.987230683162913
 21
101.0785497033613
 31
0.0
  0
LINE
  5
E0
  8
51
 10
-45.087230683162829
 20
90.478549703361352
 30
0.0
 11
-45.087230683162879
 21
101.0785497033613
 31
0.0
  0
LINE
  5
E1
  8
52
 10
-44.287230683162868
 20
90.478549703361367
 30
0.0
 11
-44.287230683162932
 21
101.0785497033613
 31
0.0
  0
LINE
  5
E2
  8
52
 10
-41.787230683162868
 20
90.478549703361367
 30
0.0
 11
-41.787230683162932
 21
101.0785497033613
 31
0.0
  0
LINE
  5
E3
  8
51
 10
-36.287230683163038
 20
126.0785497033613
 30
0.0
 11
-36.287230683163038
 21
108.27854970336131
 31
0.0
  0
LINE
  5
E4
  8
52
 10
-35.487230683163027
 20
126.0785497033613
 30
0.0
 11
-35.487230683163027
 21
108.27854970336131
 31
0.0
  0
LINE
  5
E5
  8
52
 10
-32.987230683163027
 20
126.0785497033613
 30
0.0
 11
-32.987230683163027
 21
108.27854970336131
 31
0.0
  0
LINE
  5
E6
  8
52
 10
-32.987230683163027
 20
126.0785497033613
 30
0.0
 11
-32.987230683163027
 21
143.8785497033613
 31
0.0
  0
LINE
  5
E7
  8
52
 10
-35.487230683163027
 20
126.0785497033613
 30
0.0
 11
-35.487230683163027
 21
143.8785497033613
 31
0.0
  0
LINE
  5
E8
  8
51
 10
-36.287230683163038
 20
126.0785497033613
 30
0.0
 11
-36.287230683163038
 21
143.8785497033613
 31
0.0
  0
LINE
  5
E9
  8
52
 10
-41.787230683162868
 20
161.6785497033612
 30
0.0
 11
-41.787230683162932
 21
151.07854970336129
 31
0.0
  0
LINE
  5
EA
  8
52
 10
-44.287230683162868
 20
161.6785497033612
 30
0.0
 11
-44.287230683162932
 21
151.07854970336129
 31
0.0
  0
LINE
  5
EB
  8
51
 10
-45.087230683162829
 20
161.67854970336131
 30
0.0
 11
-45.087230683162879
 21
151.07854970336129
 31
0.0
  0
LINE
  5
EC
  8
52
 10
-40.987230683162863
 20
161.6785497033612
 30
0.0
 11
-40.987230683162913
 21
151.07854970336129
 31
0.0
  0
LINE
  5
ED
  8
52
 10
-36.487230683163091
 20
147.3785497033613
 30
0.0
 11
-38.087230683162879
 21
147.37854970336119
 31
0.0
  0
LINE
  5
EE
  8
52
 10
-36.487230943827001
 20
148.17854970336131
 30
0.0
 11
-38.087230683162879
 21
148.1785497033612
 31
0.0
  0
LINE
  5
EF
  8
52
 10
-36.487230683163027
 20
144.8785497033613
 30
0.0
 11
-38.087230683162772
 21
144.8785497033613
 31
0.0
  0
LINE
  5
F0
  8
51
 10
-36.487230683163027
 20
144.07854970336129
 30
0.0
 11
-38.087230683162772
 21
144.07854970336129
 31
0.0
  0
LINE
  5
F1
  8
52
 10
-32.987230683163027
 20
146.93796141151699
 30
0.0
 11
-32.987230683163027
 21
160.07854970336129
 31
0.0
  0
ARC
  5
F2
  8
52
 10
-38.087230683162879
 20
151.0785497033612
 30
0.0
 40
2.8999999999999999
 50
179.9999999999996
 51
270.00000000000091
  0
ARC
  5
F3
  8
52
 10
-38.087230683162879
 20
151.07854970336129
 30
0.0
 40
3.7000000000000002
 50
179.9999999999996
 51
270.00000000000102
  0
ARC
  5
F4
  8
52
 10
-38.087230683162879
 20
151.07854970336129
 30
0.0
 40
6.2000000000000002
 50
179.9999999999996
 51
270.00000000000102
  0
ARC
  5
F5
  8
51
 10
-38.087230683162879
 20
151.07854970336129
 30
0.0
 40
7.0
 50
179.9999999999996
 51
270.00000000000102
  0
ARC
  5
F6
  8
51
 10
-36.487230683163027
 20
143.8785497033613
 30
0.0
 40
0.2
 50
0.000000000000007
 51
90.000000000000966
  0
ARC
  5
F7
  8
53
 10
-36.487230683163027
 20
143.8785497033613
 30
0.0
 40
1.0
 50
0.000000000000007
 51
90.000000000000469
  0
ARC
  5
F8
  8
52
 10
-36.487230683163027
 20
143.8785497033613
 30
0.0
 40
3.5
 50
0.000000000000007
 51
90.000000000000966
  0
ARC
  5
F9
  8
52
 10
-36.487230683163027
 20
143.8785497033613
 30
0.0
 40
4.2999999999999989
 50
42.83342806606786
 51
90.000005809132503
  0
ARC
  5
FA
  8
52
 10
-33.187230683163023
 20
146.93796141151699
 30
0.0
 40
0.2
 50
222.8334280660678
 51
0.000000000000007
  0
LINE
  5
FB
  8
52
 10
-38.087230683163
 20
165.17854970336131
 30
0.0
 11
-42.227818975007089
 21
165.17854970336131
 31
0.0
  0
ARC
  5
FC
  8
52
 10
-38.087230683163
 20
160.07854970336129
 30
0.0
 40
5.0999999999999988
 50
0.000000000000007
 51
89.999999999999957
  0
LINE
  5
FD
  8
52
 10
-45.287230683162882
 20
162.6785497033612
 30
0.0
 11
-73.087230683163
 21
162.67854970336131
 31
0.0
  0
LINE
  5
FE
  8
51
 10
-45.287230683162811
 20
161.8785497033613
 30
0.0
 11
-73.087230683163
 21
161.8785497033613
 31
0.0
  0
ARC
  5
FF
  8
51
 10
-45.287230683162811
 20
161.67854970336131
 30
0.0
 40
0.2
 50
359.99999999999972
 51
89.999999999999957
  0
ARC
  5
100
  8
52
 10
-45.287230683162882
 20
161.6785497033612
 30
0.0
 40
1.0
 50
359.99999999999972
 51
89.999999999999957
  0
ARC
  5
101
  8
52
 10
-45.287230683162882
 20
161.6785497033612
 30
0.0
 40
3.5000000000000142
 50
359.99999999999972
 51
90.000013794753087
  0
ARC
  5
102
  8
52
 10
-45.287230683162882
 20
161.6785497033612
 30
0.0
 40
4.3000000000000247
 50
359.99998518157997
 51
47.166571933932261
  0
LINE
  5
103
  8
52
 10
-45.287231525836368
 20
165.1785497033612
 30
0.0
 11
-73.087230683163057
 21
165.1785497033612
 31
0.0
  0
ARC
  5
104
  8
52
 10
-42.227818975007089
 20
164.97854970336121
 30
0.0
 40
0.2
 50
89.999999999999957
 51
227.1665719339324
  0
ARC
  5
105
  8
52
 10
-103.9466423913189
 20
164.97854970336121
 30
0.0
 40
0.2
 50
312.8334280660676
 51
90.000000000000028
  0
LINE
  5
106
  8
52
 10
-100.8872298404897
 20
165.1785497033612
 30
0.0
 11
-73.087230683163057
 21
165.1785497033612
 31
0.0
  0
ARC
  5
107
  8
52
 10
-100.8872306831632
 20
161.6785497033612
 30
0.0
 40
4.3000000000000247
 50
132.83342806606771
 51
180.00001481842
  0
ARC
  5
108
  8
52
 10
-100.8872306831632
 20
161.6785497033612
 30
0.0
 40
3.5000000000000142
 50
89.999986205246898
 51
180.0000000000002
  0
ARC
  5
109
  8
52
 10
-100.8872306831632
 20
161.6785497033612
 30
0.0
 40
1.0
 50
90.000000000000028
 51
180.00000000000031
  0
ARC
  5
10A
  8
51
 10
-100.8872306831632
 20
161.67854970336131
 30
0.0
 40
0.2
 50
90.000000000000028
 51
180.0000000000002
  0
LINE
  5
10B
  8
51
 10
-100.8872306831632
 20
161.8785497033613
 30
0.0
 11
-73.087230683163057
 21
161.8785497033613
 31
0.0
  0
LINE
  5
10C
  8
52
 10
-100.8872306831632
 20
162.6785497033612
 30
0.0
 11
-73.087230683163057
 21
162.67854970336131
 31
0.0
  0
ARC
  5
10D
  8
52
 10
-108.087230683163
 20
160.07854970336129
 30
0.0
 40
5.0999999999999988
 50
90.000000000000028
 51
180.0
  0
LINE
  5
10E
  8
52
 10
-108.087230683163
 20
165.17854970336131
 30
0.0
 11
-103.9466423913189
 21
165.17854970336131
 31
0.0
  0
ARC
  5
10F
  8
52
 10
-112.98723068316301
 20
146.93796141151699
 30
0.0
 40
0.2
 50
180.0
 51
317.16657193393218
  0
ARC
  5
110
  8
52
 10
-109.68723068316299
 20
143.8785497033613
 30
0.0
 40
4.2999999999999989
 50
89.999994190867454
 51
137.16657193393209
  0
ARC
  5
111
  8
52
 10
-109.68723068316299
 20
143.8785497033613
 30
0.0
 40
3.5
 50
89.999999999998977
 51
180.0
  0
ARC
  5
112
  8
52
 10
-109.68723068316299
 20
143.8785497033613
 30
0.0
 40
1.0
 50
89.999999999999503
 51
180.0
  0
ARC
  5
113
  8
51
 10
-109.68723068316299
 20
143.8785497033613
 30
0.0
 40
0.2
 50
89.999999999998977
 51
180.0
  0
ARC
  5
114
  8
51
 10
-108.0872306831632
 20
151.07854970336129
 30
0.0
 40
7.0
 50
269.99999999999898
 51
0.0000000000003194
  0
ARC
  5
115
  8
52
 10
-108.0872306831631
 20
151.07854970336129
 30
0.0
 40
6.2000000000000002
 50
269.99999999999898
 51
0.0000000000003194
  0
ARC
  5
116
  8
52
 10
-108.0872306831631
 20
151.07854970336129
 30
0.0
 40
3.7000000000000002
 50
269.99999999999898
 51
0.0000000000003194
  0
ARC
  5
117
  8
52
 10
-108.0872306831631
 20
151.0785497033612
 30
0.0
 40
2.8999999999999999
 50
269.99999999999898
 51
0.0000000000003194
  0
LINE
  5
118
  8
52
 10
-113.18723068316299
 20
146.93796141151699
 30
0.0
 11
-113.1872306831626
 21
160.07854970336129
 31
0.0
  0
LINE
  5
119
  8
51
 10
-109.68723068316299
 20
144.07854970336129
 30
0.0
 11
-108.0872306831633
 21
144.07854970336129
 31
0.0
  0
LINE
  5
11A
  8
52
 10
-109.68723068316299
 20
144.8785497033613
 30
0.0
 11
-108.0872306831632
 21
144.8785497033613
 31
0.0
  0
LINE
  5
11B
  8
52
 10
-109.6872304224991
 20
148.17854970336131
 30
0.0
 11
-108.0872306831632
 21
148.1785497033612
 31
0.0
  0
LINE
  5
11C
  8
52
 10
-109.68723068316299
 20
147.3785497033613
 30
0.0
 11
-108.0872306831632
 21
147.37854970336119
 31
0.0
  0
LINE
  5
11D
  8
52
 10
-105.18723068316319
 20
161.6785497033612
 30
0.0
 11
-105.18723068316319
 21
151.07854970336129
 31
0.0
  0
LINE
  5
11E
  8
51
 10
-101.0872306831632
 20
161.67854970336131
 30
0.0
 11
-101.0872306831632
 21
151.07854970336129
 31
0.0
  0
LINE
  5
11F
  8
52
 10
-101.8872306831632
 20
161.6785497033612
 30
0.0
 11
-101.8872306831631
 21
151.07854970336129
 31
0.0
  0
LINE
  5
120
  8
52
 10
-104.3872306831632
 20
161.6785497033612
 30
0.0
 11
-104.3872306831631
 21
151.07854970336129
 31
0.0
  0
LINE
  5
121
  8
51
 10
-109.887230683163
 20
126.0785497033613
 30
0.0
 11
-109.887230683163
 21
143.8785497033613
 31
0.0
  0
LINE
  5
122
  8
52
 10
-110.68723068316299
 20
126.0785497033613
 30
0.0
 11
-110.68723068316299
 21
143.8785497033613
 31
0.0
  0
LINE
  5
123
  8
52
 10
-113.18723068316299
 20
126.0785497033613
 30
0.0
 11
-113.18723068316299
 21
143.8785497033613
 31
0.0
  0
ARC
  5
124
  8
51
 10
-38.087230683163
 20
160.07854970336129
 30
0.0
 40
6.0999999999999988
 50
0.0
 51
90.000000000000028
  0
ARC
  5
125
  8
51
 10
-108.087230683163
 20
160.07854970336129
 30
0.0
 40
6.0999999999999988
 50
90.000000000000028
 51
180.0
  0
LINE
  5
126
  8
51
 10
-31.987230683163091
 20
126.0785497033613
 30
0.0
 11
-31.98723068316303
 21
160.07854970336129
 31
0.0
  0
LINE
  5
127
  8
51
 10
-114.18723068316299
 20
126.0785497033613
 30
0.0
 11
-114.18723068316299
 21
160.07854970336129
 31
0.0
  0
LINE
  5
128
  8
51
 10
-108.087230683163
 20
166.17854970336131
 30
0.0
 11
-38.087230683163
 21
166.17854970336131
 31
0.0
  0
ARC
  5
129
  8
52
 10
-38.087230683163
 20
160.07854970336129
 30
0.0
 40
2.0
 50
195.5729959993709
 51
228.05460698970651
  0
LINE
  5
12A
  8
52
 10
-36.130540060728379
 20
159.66459100002561
 30
0.0
 11
-37.33723068316305
 21
161.75464046709951
 31
0.0
  0
ARC
  5
12B
  8
52
 10
-38.087230683163057
 20
160.07854970336129
 30
0.0
 40
2.0
 50
311.9453930102938
 51
348.05460698970541
  0
LINE
  5
12C
  8
52
 10
-36.750386618739242
 20
158.5909852686539
 30
0.0
 11
-39.424074747604827
 21
158.5909852686539
 31
0.0
  0
LINE
  5
12D
  8
52
 10
-38.83723068316305
 20
161.5795115976764
 30
0.0
 11
-40.013809091313583
 21
159.54161801567111
 31
0.0
  0
LINE
  5
12E
  8
52
 10
-108.8372306831629
 20
158.57758780904601
 30
0.0
 11
-110.0138090913135
 21
160.6154813910515
 31
0.0
  0
LINE
  5
12F
  8
52
 10
-106.7503866187392
 20
161.5661141380686
 30
0.0
 11
-109.42407474760481
 21
161.5661141380686
 31
0.0
  0
ARC
  5
130
  8
52
 10
-108.087230683163
 20
160.0785497033612
 30
0.0
 40
2.0
 50
11.945393010294589
 51
48.054606989706173
  0
LINE
  5
131
  8
52
 10
-106.13054006072829
 20
160.492508406697
 30
0.0
 11
-107.3372306831631
 21
158.40245893962299
 31
0.0
  0
ARC
  5
132
  8
52
 10
-108.0872306831629
 20
160.07854970336129
 30
0.0
 40
2.0
 50
131.94539301029349
 51
164.4270040006291
  0
LINE
  5
133
  8
52
 10
-108.087230683163
 20
154.5940773671137
 30
0.0
 11
-105.18723068316319
 21
154.59407736711381
 31
0.0
  0
LINE
  5
134
  8
52
 10
-38.087230683163057
 20
154.5940773671137
 30
0.0
 11
-40.987230683162913
 21
154.59407736711381
 31
0.0
  0
LINE
  5
135
  8
52
 10
-38.087230683163057
 20
97.563022039608896
 30
0.0
 11
-40.987230683162913
 21
97.563022039608867
 31
0.0
  0
LINE
  5
136
  8
52
 10
-108.087230683163
 20
97.563022039608896
 30
0.0
 11
-105.18723068316319
 21
97.563022039608867
 31
0.0
  0
ARC
  5
140
  8
52
 10
-108.087230683163
 20
160.07854970336129
 30
0.0
 40
5.5
 50
210.72279077947229
 51
270.0
  0
ARC
  5
141
  8
52
 10
-112.98723068316269
 20
157.16650574764799
 30
0.0
 40
0.2
 50
30.722790779464429
 51
180.0
  0
ARC
  5
142
  8
52
 10
-38.087230683163057
 20
160.07854970336129
 30
0.0
 40
5.5
 50
265.69362770454052
 51
329.27720922054442
  0
ARC
  5
143
  8
52
 10
-33.187230683163023
 20
157.16650574764981
 30
0.0
 40
0.2
 50
0.0
 51
149.27720922054459
  0
ARC
  5
144
  8
52
 10
-38.087230683163
 20
92.078549703361361
 30
0.0
 40
5.4844723362475341
 50
30.458411404434401
 51
90.000000000000583
  0
ARC
  5
145
  8
52
 10
-108.087230683163
 20
92.078549703361347
 30
0.0
 40
5.5
 50
85.693627704702863
 51
149.2772092205405
  0
ARC
  5
146
  8
52
 10
-112.98723068316301
 20
94.990593659073298
 30
0.0
 40
0.2
 50
180.0
 51
329.277209220543
  0
ARC
  5
147
  8
52
 10
-33.187230683163023
 20
94.960081542777118
 30
0.0
 40
0.2
 50
210.45841140444011
 51
0.0
  0
ARC
  5
148
  8
52
 10
-38.087230683163057
 20
160.07854970336129
 30
0.0
 40
3.8999999999999999
 50
78.912510789026385
 51
101.0874892109757
  0
LINE
  5
149
  8
52
 10
-37.33723068316305
 20
161.75464046709939
 30
0.0
 11
-37.33723068316305
 21
163.9057549500121
 31
0.0
  0
LINE
  5
14A
  8
52
 10
-38.837230683162993
 20
161.5795115976764
 30
0.0
 11
-38.83723068316305
 21
163.9057549500121
 31
0.0
  0
LINE
  5
14B
  8
52
 10
-108.8372306831629
 20
158.57758780904601
 30
0.0
 11
-108.837230683163
 21
156.25134445671051
 31
0.0
  0
ARC
  5
14C
  8
52
 10
-108.087230683163
 20
160.0785497033614
 30
0.0
 40
3.8999999999999999
 50
258.91251078902633
 51
281.08748921097572
  0
LINE
  5
14D
  8
52
 10
-107.3372306831631
 20
158.40245893962299
 30
0.0
 11
-107.337230683163
 21
156.25134445671051
 31
0.0
  0
LINE
  5
14E
  8
52
 10
-38.837230683162943
 20
93.579511597676628
 30
0.0
 11
-38.837230683162993
 21
95.905754950012224
 31
0.0
  0
LINE
  5
14F
  8
52
 10
-37.337230683163
 20
93.754640467099335
 30
0.0
 11
-37.337230683163
 21
95.905754950012224
 31
0.0
  0
ARC
  5
150
  8
52
 10
-38.087230683163
 20
92.078549703361361
 30
0.0
 40
3.8999999999999999
 50
78.912510789026385
 51
101.0874892109757
  0
LINE
  5
151
  8
52
 10
-107.3372306831631
 20
90.402458939623088
 30
0.0
 11
-107.337230683163
 21
88.251344456710569
 31
0.0
  0
ARC
  5
152
  8
52
 10
-108.087230683163
 20
92.078549703361432
 30
0.0
 40
3.8999999999999999
 50
258.91251078902633
 51
281.08748921097572
  0
LINE
  5
153
  8
52
 10
-108.8372306831629
 20
90.577587809046079
 30
0.0
 11
-108.837230683163
 21
88.251344456710569
 31
0.0
  0
LINE
  5
154
  8
61
 10
69.686053655985518
 20
161.75464046709939
 30
0.0
 11
69.686053655985518
 21
163.90575495001221
 31
0.0
  0
LINE
  5
155
  8
61
 10
68.186053655985575
 20
161.7546404670997
 30
0.0
 11
68.186053655985518
 21
163.90575495001221
 31
0.0
  0
ARC
  5
156
  8
61
 10
68.936053655985518
 20
160.07854970336129
 30
0.0
 40
3.8999999999999999
 50
78.912510789026385
 51
101.0874892109757
  0
LINE
  5
157
  8
61
 10
69.686053655985575
 20
93.754640467099378
 30
0.0
 11
69.686053655985575
 21
95.905754950012252
 31
0.0
  0
ARC
  5
158
  8
61
 10
68.936053655985575
 20
92.078549703361389
 30
0.0
 40
3.8999999999999999
 50
78.912510789026385
 51
101.0874892109757
  0
LINE
  5
159
  8
61
 10
68.186053655985631
 20
93.754640467099819
 30
0.0
 11
68.186053655985575
 21
95.905754950012252
 31
0.0
  0
LINE
  5
15A
  8
61
 10
139.6860536559854
 20
158.4024589396231
 30
0.0
 11
139.68605365598549
 21
156.25134445671051
 31
0.0
  0
LINE
  5
15B
  8
61
 10
138.1860536559856
 20
158.40245893962299
 30
0.0
 11
138.18605365598549
 21
156.25134445671051
 31
0.0
  0
ARC
  5
15C
  8
61
 10
138.93605365598549
 20
160.0785497033614
 30
0.0
 40
3.8999999999999999
 50
258.91251078902633
 51
281.08748921097572
  0
LINE
  5
15D
  8
61
 10
139.6860536559854
 20
90.402458939623045
 30
0.0
 11
139.68605365598549
 21
88.251344456710612
 31
0.0
  0
LINE
  5
15E
  8
61
 10
138.1860536559856
 20
90.402458939623003
 30
0.0
 11
138.18605365598549
 21
88.251344456710612
 31
0.0
  0
ARC
  5
15F
  8
61
 10
138.93605365598549
 20
92.078549703361475
 30
0.0
 40
3.8999999999999999
 50
258.91251078902633
 51
281.08748921097572
  0
LINE
  5
160
  8
61
 10
140.41833299963079
 20
161.5661141380686
 30
0.0
 11
137.4537743123401
 21
161.5661141380686
 31
0.0
  0
LINE
  5
161
  8
61
 10
140.96546191803071
 20
160.61845905310889
 30
0.0
 11
139.6860536559854
 21
158.4024589396231
 31
0.0
  0
LINE
  5
162
  8
61
 10
136.90664539394029
 20
160.61845905310889
 30
0.0
 11
138.18605365598549
 21
158.4024589396231
 31
0.0
  0
LINE
  5
163
  8
61
 10
140.41833299963079
 20
93.566114138068684
 30
0.0
 11
137.4537743123401
 21
93.566114138068684
 31
0.0
  0
LINE
  5
164
  8
61
 10
140.96546191803071
 20
92.618459053108964
 30
0.0
 11
139.6860536559854
 21
90.402458939623045
 31
0.0
  0
LINE
  5
165
  8
61
 10
136.90664539394029
 20
92.618459053108964
 30
0.0
 11
138.1860536559856
 21
90.402458939623003
 31
0.0
  0
LINE
  5
166
  8
61
 10
66.906645393940309
 20
91.538640353613786
 30
0.0
 11
68.186053655985631
 21
93.754640467099819
 31
0.0
  0
LINE
  5
167
  8
61
 10
67.453774312340144
 20
90.59098526865408
 30
0.0
 11
70.418332999630834
 21
90.59098526865408
 31
0.0
  0
LINE
  5
168
  8
61
 10
70.96546191803067
 20
91.538640353613786
 30
0.0
 11
69.686053655985575
 21
93.754640467099378
 31
0.0
  0
LINE
  5
169
  8
61
 10
66.906645393940309
 20
159.5386403536138
 30
0.0
 11
68.186053655985575
 21
161.7546404670997
 31
0.0
  0
LINE
  5
16A
  8
61
 10
67.453774312340144
 20
158.59098526865401
 30
0.0
 11
70.418332999630834
 21
158.59098526865401
 31
0.0
  0
LINE
  5
16B
  8
61
 10
70.96546191803067
 20
159.5386403536138
 30
0.0
 11
69.686053655985518
 21
161.75464046709939
 31
0.0
  0
LINE
  5
1AB
  8
43
 10
33.844503585415481
 20
126.0639463440143
 30
0.0
 11
0.1679150266175782
 21
126.0639463440143
 31
0.0
  0
LINE
  5
1AD
  8
43
  6
DASHED
 10
7.6618243761442271
 20
161.7666083035912
 30
0.0
 11
7.6618243761442377
 21
126.0639463440143
 31
0.0
  0
ARC
  5
1AE
  8
43
  6
DASHED
 10
7.8618243761442272
 20
144.0498210122806
 30
0.0
 40
0.2
 50
89.499999999999119
 51
180.0
  0
ARC
  5
1AF
  8
43
  6
DASHED
 10
7.8618243761442272
 20
108.07807167574801
 30
0.0
 40
0.2
 50
180.0
 51
270.5000000000008
  0
LINE
  5
1B0
  8
43
  6
DASHED
 10
7.6618243761442271
 20
90.361284384437482
 30
0.0
 11
7.6618243761442377
 21
126.0639463440144
 31
0.0
  0
LINE
  5
1B2
  8
41
 10
5.6618243761441809
 20
165.9588649509316
 30
0.0
 11
5.6618243761441809
 21
86.169027737097338
 31
0.0
  0
LINE
  5
1B3
  8
41
 10
29.161824376144182
 20
162.66468591828149
 30
0.0
 11
29.16182437614421
 21
89.46394634401446
 31
0.0
  0
LINE
  5
1B4
  8
41
 10
30.16182437614421
 20
126.0639463440144
 30
0.0
 11
30.16182437614421
 21
162.2595784800869
 31
0.0
  0
LINE
  5
1B5
  8
41
 10
29.765314990343541
 20
162.65956767934529
 30
0.0
 11
29.161824376144182
 21
162.66468591828149
 31
0.0
  0
LINE
  5
1B6
  8
41
 10
29.16182437614421
 20
162.66394634401439
 30
0.0
 11
29.16182437614421
 21
165.16394634401439
 31
0.0
  0
LINE
  5
1B7
  8
41
 10
29.16182437614421
 20
165.16394634401439
 30
0.0
 11
29.16182437614421
 21
166.16394634401439
 31
0.0
  0
ARC
  5
1B8
  8
41
 10
29.761824376144201
 20
162.25958291011969
 30
0.0
 40
0.4
 50
359.18882344927448
 51
89.500000000001663
  0
ARC
  5
1B9
  8
41
 10
29.761824376144201
 20
89.868309777909246
 30
0.0
 40
0.4
 50
270.49999999999829
 51
0.8111765507254795
  0
LINE
  5
1BA
  8
41
 10
29.16182437614421
 20
86.963946344014516
 30
0.0
 11
29.16182437614421
 21
85.963946344014516
 31
0.0
  0
LINE
  5
1BB
  8
41
 10
29.16182437614421
 20
89.46394634401446
 30
0.0
 11
29.16182437614421
 21
86.963946344014516
 31
0.0
  0
LINE
  5
1BC
  8
41
 10
29.765314990343541
 20
89.468325008683564
 30
0.0
 11
29.161824376144182
 21
89.463206769747387
 31
0.0
  0
LINE
  5
1BD
  8
41
 10
5.6618243761441809
 20
86.169027737097338
 30
0.0
 11
4.1618243761442102
 21
87.669027737097295
 31
0.0
  0
LINE
  5
1BE
  8
41
 10
4.1618243761441809
 20
164.45886495093151
 30
0.0
 11
5.6618243761442102
 21
165.9588649509316
 31
0.0
  0
LINE
  5
1BF
  8
41
 10
30.16182437614421
 20
126.0639463440144
 30
0.0
 11
30.16182437614421
 21
89.868314207941978
 31
0.0
  0
LINE
  5
1C0
  8
41
 10
4.1618243761442102
 20
164.4588649509316
 30
0.0
 11
4.1618243761442102
 21
87.669027737097295
 31
0.0
  0
LINE
  5
1C1
  8
41
 10
5.6618243761441809
 20
86.169027737097338
 30
0.0
 11
29.16182437614421
 21
85.963946344014516
 31
0.0
  0
LINE
  5
1C2
  8
41
 10
5.6618243761441809
 20
165.9588649509316
 30
0.0
 11
29.16182437614421
 21
166.16394634401439
 31
0.0
  0
TEXT
  5
1C3
  8
L20
 10
-61.879052128444727
 20
205.61518464224079
 30
0.0
 40
5.0
  1
FIBOX EURONORD II
 41
0.8
  7
ROMANS
  0
LINE
  5
1C5
  8
53
 10
-73.087230683163028
 20
169.17854970336131
 30
0.0
 11
-73.087230683163057
 21
82.978549703361352
 31
0.0
  0
LINE
  5
1C6
  8
53
 10
-28.987230683163091
 20
126.0785497033613
 30
0.0
 11
-117.18723068316299
 21
126.0785497033613
 31
0.0
  0
TEXT
  5
1C9
  8
L20
 10
-61.879052128444727
 20
193.7905205665881
 30
0.0
 40
5.0
  1
80x82x25 COVER
 41
0.8
  7
ROMANS
  0
LINE
  5
1CB
  8
43
  6
DASHED
 10
7.863569683243905
 20
144.2498133968935
 30
0.0
 11
30.16182437614421
 21
144.4444073175631
 31
0.0
  0
LINE
  5
1CC
  8
43
  6
DASHED
 10
7.863569683243905
 20
107.87807929113519
 30
0.0
 11
30.16182437614421
 21
107.6834853704656
 31
0.0
  0
LINE
  5
1CD
  8
43
  6
DASHED
 10
7.863569683243905
 20
161.9666006882041
 30
0.0
 11
30.16182437614421
 21
162.1611946088737
 31
0.0
  0
ARC
  5
1CE
  8
43
  6
DASHED
 10
7.8618243761442272
 20
161.7666083035912
 30
0.0
 40
0.2
 50
89.499999999999119
 51
180.0
  0
LINE
  5
1CF
  8
43
  6
DASHED
 10
7.863569683243905
 20
90.161291999824627
 30
0.0
 11
30.16182437614421
 21
89.966698079155037
 31
0.0
  0
ARC
  5
1D0
  8
43
  6
DASHED
 10
7.8618243761442272
 20
90.361284384437482
 30
0.0
 40
0.2
 50
180.0
 51
270.5000000000008
  0
LINE
  5
1D1
  8
43
  6
DASHED
 10
200.00853762872711
 20
161.9666006882041
 30
0.0
 11
177.7102829358268
 21
162.1611946088737
 31
0.0
  0
LINE
  5
1D2
  8
41
 10
203.7102829358268
 20
164.4588649509316
 30
0.0
 11
203.7102829358268
 21
87.669027737097295
 31
0.0
  0
LINE
  5
1D3
  8
41
 10
177.7102829358268
 20
126.0639463440144
 30
0.0
 11
177.7102829358268
 21
162.2595784800869
 31
0.0
  0
LINE
  5
1D4
  8
41
 10
178.71028293582691
 20
162.66468591828149
 30
0.0
 11
178.7102829358268
 21
89.46394634401446
 31
0.0
  0
LINE
  5
1D5
  8
41
 10
202.21028293582691
 20
165.9588649509316
 30
0.0
 11
202.21028293582691
 21
86.169027737097338
 31
0.0
  0
LINE
  5
1D6
  8
43
  6
DASHED
 10
200.00853762872711
 20
90.161291999824627
 30
0.0
 11
177.7102829358268
 21
89.966698079155037
 31
0.0
  0
LINE
  5
1D7
  8
43
  6
DASHED
 10
200.00853762872711
 20
107.87807929113519
 30
0.0
 11
177.7102829358268
 21
107.6834853704656
 31
0.0
  0
LINE
  5
1D8
  8
43
  6
DASHED
 10
200.00853762872711
 20
144.2498133968935
 30
0.0
 11
177.7102829358268
 21
144.4444073175631
 31
0.0
  0
LINE
  5
1D9
  8
41
 10
202.21028293582691
 20
86.169027737097338
 30
0.0
 11
178.7102829358268
 21
85.963946344014516
 31
0.0
  0
LINE
  5
1DA
  8
43
 10
174.02760372655561
 20
126.0639463440143
 30
0.0
 11
207.70419228535351
 21
126.0639463440143
 31
0.0
  0
LINE
  5
1DB
  8
43
  6
DASHED
 10
200.2102829358268
 20
90.361284384437482
 30
0.0
 11
200.2102829358268
 21
126.0639463440144
 31
0.0
  0
LINE
  5
1DC
  8
41
 10
202.21028293582691
 20
86.169027737097338
 30
0.0
 11
203.7102829358268
 21
87.669027737097295
 31
0.0
  0
ARC
  5
1DD
  8
43
  6
DASHED
 10
200.01028293582681
 20
90.361284384437482
 30
0.0
 40
0.2
 50
269.49999999999898
 51
0.000000000000007
  0
LINE
  5
1DE
  8
43
  6
DASHED
 10
200.2102829358268
 20
161.7666083035912
 30
0.0
 11
200.2102829358268
 21
126.0639463440143
 31
0.0
  0
ARC
  5
1DF
  8
43
  6
DASHED
 10
200.01028293582681
 20
108.07807167574801
 30
0.0
 40
0.2
 50
269.49999999999898
 51
0.000000000000007
  0
ARC
  5
1E0
  8
43
  6
DASHED
 10
200.01028293582681
 20
144.0498210122806
 30
0.0
 40
0.2
 50
0.000000000000007
 51
90.500000000000867
  0
ARC
  5
1E1
  8
43
  6
DASHED
 10
200.01028293582681
 20
161.7666083035912
 30
0.0
 40
0.2
 50
0.000000000000007
 51
90.500000000000867
  0
LINE
  5
1E2
  8
41
 10
177.7102829358268
 20
126.0639463440144
 30
0.0
 11
177.7102829358268
 21
89.868314207941978
 31
0.0
  0
ARC
  5
1E3
  8
41
 10
178.1102829358268
 20
89.868309777909246
 30
0.0
 40
0.4
 50
179.18882344927451
 51
269.50000000000159
  0
LINE
  5
1E4
  8
41
 10
178.10679232162749
 20
89.468325008683564
 30
0.0
 11
178.71028293582691
 21
89.463206769747387
 31
0.0
  0
LINE
  5
1E5
  8
41
 10
178.7102829358268
 20
89.46394634401446
 30
0.0
 11
178.7102829358268
 21
86.963946344014516
 31
0.0
  0
LINE
  5
1E6
  8
41
 10
178.7102829358268
 20
86.963946344014516
 30
0.0
 11
178.7102829358268
 21
85.963946344014516
 31
0.0
  0
LINE
  5
1E7
  8
41
 10
202.21028293582691
 20
165.9588649509316
 30
0.0
 11
178.7102829358268
 21
166.16394634401439
 31
0.0
  0
LINE
  5
1E8
  8
41
 10
203.71028293582691
 20
164.45886495093151
 30
0.0
 11
202.21028293582691
 21
165.9588649509316
 31
0.0
  0
ARC
  5
1E9
  8
41
 10
178.1102829358268
 20
162.25958291011969
 30
0.0
 40
0.4
 50
90.499999999998323
 51
180.81117655072541
  0
LINE
  5
1EA
  8
41
 10
178.7102829358268
 20
165.16394634401439
 30
0.0
 11
178.7102829358268
 21
166.16394634401439
 31
0.0
  0
LINE
  5
1EB
  8
41
 10
178.7102829358268
 20
162.66394634401439
 30
0.0
 11
178.7102829358268
 21
165.16394634401439
 31
0.0
  0
LINE
  5
1EC
  8
41
 10
178.10679232162749
 20
162.65956767934529
 30
0.0
 11
178.71028293582691
 21
162.66468591828149
 31
0.0
  0
LINE
  5
1ED
  8
41
 10
64.041135049068345
 20
215.94521221014841
 30
0.0
 11
143.83097226290249
 21
215.94521221014841
 31
0.0
  0
LINE
  5
1EE
  8
41
 10
67.335314081718394
 20
192.44521221014841
 30
0.0
 11
140.5360536559854
 21
192.44521221014841
 31
0.0
  0
LINE
  5
1EF
  8
41
 10
103.9360536559854
 20
191.44521221014841
 30
0.0
 11
67.740421519912985
 21
191.44521221014841
 31
0.0
  0
LINE
  5
1F0
  8
41
 10
65.541135049068345
 20
217.44521221014841
 30
0.0
 11
142.33097226290261
 21
217.44521221014841
 31
0.0
  0
LINE
  5
1F1
  8
43
  6
DASHED
 10
68.033399311795819
 20
213.7434669030487
 30
0.0
 11
67.838805391126215
 21
191.44521221014841
 31
0.0
  0
LINE
  5
1F2
  8
41
 10
103.9360536559854
 20
191.44521221014841
 30
0.0
 11
140.13168579205791
 21
191.44521221014841
 31
0.0
  0
LINE
  5
1F3
  8
43
  6
DASHED
 10
139.6387156155624
 20
213.94521221014841
 30
0.0
 11
103.9360536559854
 21
213.94521221014841
 31
0.0
  0
LINE
  5
1F4
  8
41
 10
143.83097226290249
 20
215.94521221014841
 30
0.0
 11
144.03605365598531
 21
192.44521221014841
 31
0.0
  0
LINE
  5
1F5
  8
43
  6
DASHED
 10
139.83870800017519
 20
213.7434669030487
 30
0.0
 11
140.03330192084479
 21
191.44521221014841
 31
0.0
  0
LINE
  5
1F6
  8
41
 10
143.03605365598531
 20
192.44521221014841
 30
0.0
 11
144.03605365598531
 21
192.44521221014841
 31
0.0
  0
LINE
  5
1F7
  8
41
 10
140.5360536559854
 20
192.44521221014841
 30
0.0
 11
143.03605365598531
 21
192.44521221014841
 31
0.0
  0
LINE
  5
1F8
  8
41
 10
140.53167499131629
 20
191.84172159594911
 30
0.0
 11
140.5367932302525
 21
192.44521221014841
 31
0.0
  0
ARC
  5
1F9
  8
41
 10
140.13169022209061
 20
191.84521221014839
 30
0.0
 40
0.4
 50
269.18882344927448
 51
359.50000000000159
  0
ARC
  5
1FA
  8
43
  6
DASHED
 10
139.6387156155624
 20
213.7452122101484
 30
0.0
 40
0.2
 50
359.49999999999898
 51
90.000000000000028
  0
LINE
  5
1FB
  8
41
 10
143.83097226290249
 20
215.94521221014841
 30
0.0
 11
142.33097226290261
 21
217.44521221014841
 31
0.0
  0
LINE
  5
1FC
  8
43
 10
103.9360536559855
 20
187.7625330008772
 30
0.0
 11
103.9360536559855
 21
221.4391215596751
 31
0.0
  0
LINE
  5
1FD
  8
43
  6
DASHED
 10
75.848002671142339
 20
213.7434669030487
 30
0.0
 11
75.653408750472735
 21
191.44521221014841
 31
0.0
  0
LINE
  5
1FF
  8
43
  6
DASHED
 10
68.233391696408631
 20
213.94521221014841
 30
0.0
 11
103.9360536559855
 21
213.94521221014841
 31
0.0
  0
ARC
  5
201
  8
43
  6
DASHED
 10
76.047995055755152
 20
213.7452122101484
 30
0.0
 40
0.2
 50
90.000000000000028
 51
180.5000000000008
  0
ARC
  5
202
  8
43
  6
DASHED
 10
68.233391696408631
 20
213.7452122101484
 30
0.0
 40
0.2
 50
90.000000000000028
 51
180.5000000000008
  0
LINE
  5
203
  8
41
 10
64.041135049068345
 20
215.94521221014841
 30
0.0
 11
63.836053655985467
 21
192.44521221014841
 31
0.0
  0
LINE
  5
204
  8
41
 10
67.340432320654571
 20
191.84172159594911
 30
0.0
 11
67.335314081718394
 21
192.44521221014841
 31
0.0
  0
LINE
  5
205
  8
41
 10
67.336053655985467
 20
192.44521221014841
 30
0.0
 11
64.836053655985523
 21
192.44521221014841
 31
0.0
  0
LINE
  5
206
  8
41
 10
64.836053655985523
 20
192.44521221014841
 30
0.0
 11
63.836053655985523
 21
192.44521221014841
 31
0.0
  0
ARC
  5
207
  8
41
 10
67.740417089880253
 20
191.84521221014839
 30
0.0
 40
0.4
 50
180.49999999999829
 51
270.81117655072541
  0
LINE
  5
208
  8
41
 10
65.541135049068345
 20
217.44521221014841
 30
0.0
 11
64.041135049068345
 21
215.94521221014841
 31
0.0
  0
LINE
  5
209
  8
43
  6
DASHED
 10
132.02410464082871
 20
213.7434669030487
 30
0.0
 11
132.21869856149829
 21
191.44521221014841
 31
0.0
  0
ARC
  5
20A
  8
43
  6
DASHED
 10
131.8241122562159
 20
213.7452122101484
 30
0.0
 40
0.2
 50
359.49999999999898
 51
89.999999999999986
  0
LINE
  5
27B
  8
41
 10
67.336053655985467
 20
59.711887196574189
 30
0.0
 11
64.836053655985523
 21
59.711887196574189
 31
0.0
  0
LINE
  5
27C
  8
41
 10
65.541135049068345
 20
34.711887196574217
 30
0.0
 11
142.33097226290261
 21
34.711887196574217
 31
0.0
  0
LINE
  5
27D
  8
41
 10
64.041135049068345
 20
36.21188719657416
 30
0.0
 11
143.83097226290249
 21
36.21188719657416
 31
0.0
  0
LINE
  5
27E
  8
41
 10
64.041135049068345
 20
36.21188719657416
 30
0.0
 11
63.836053655985467
 21
59.711887196574189
 31
0.0
  0
LINE
  5
27F
  8
41
 10
64.836053655985523
 20
59.711887196574189
 30
0.0
 11
63.836053655985523
 21
59.711887196574189
 31
0.0
  0
LINE
  5
280
  8
41
 10
65.541135049068345
 20
34.71188719657416
 30
0.0
 11
64.041135049068345
 21
36.211887196574217
 31
0.0
  0
LINE
  5
281
  8
43
  6
DASHED
 10
139.6387156155624
 20
38.211887196574217
 30
0.0
 11
103.9360536559854
 21
38.211887196574217
 31
0.0
  0
LINE
  5
282
  8
41
 10
103.9360536559854
 20
60.711887196574203
 30
0.0
 11
140.13168579205791
 21
60.711887196574203
 31
0.0
  0
LINE
  5
283
  8
41
 10
67.335314081718394
 20
59.71188719657416
 30
0.0
 11
140.5360536559854
 21
59.711887196574189
 31
0.0
  0
LINE
  5
284
  8
43
  6
DASHED
 10
68.233391696408631
 20
38.211887196574217
 30
0.0
 11
103.9360536559855
 21
38.211887196574217
 31
0.0
  0
LINE
  5
285
  8
41
 10
103.9360536559854
 20
60.711887196574203
 30
0.0
 11
67.740421519912985
 21
60.711887196574203
 31
0.0
  0
LINE
  5
286
  8
43
  6
DASHED
 10
75.848002671142339
 20
38.413632503673931
 30
0.0
 11
75.653408750472735
 21
60.711887196574253
 31
0.0
  0
LINE
  5
287
  8
43
  6
DASHED
 10
68.033399311795819
 20
38.413632503673881
 30
0.0
 11
67.838805391126215
 21
60.711887196574203
 31
0.0
  0
ARC
  5
288
  8
41
 10
67.740417089880253
 20
60.31188719657419
 30
0.0
 40
0.4
 50
89.188823449274537
 51
179.50000000000159
  0
LINE
  5
289
  8
41
 10
67.340432320654571
 20
60.315377810773533
 30
0.0
 11
67.335314081718394
 21
59.71188719657416
 31
0.0
  0
ARC
  5
28A
  8
43
  6
DASHED
 10
68.233391696408631
 20
38.411887196574213
 30
0.0
 40
0.2
 50
179.49999999999909
 51
270.0
  0
ARC
  5
28B
  8
43
  6
DASHED
 10
76.047995055755152
 20
38.41188719657427
 30
0.0
 40
0.2
 50
179.49999999999909
 51
270.0
  0
LINE
  5
28C
  8
43
 10
103.9360536559855
 20
64.394566405845467
 30
0.0
 11
103.9360536559855
 21
30.717977847047528
 31
0.0
  0
LINE
  5
28D
  8
43
  6
DASHED
 10
132.02410464082871
 20
38.413632503673931
 30
0.0
 11
132.21869856149829
 21
60.711887196574253
 31
0.0
  0
LINE
  5
28E
  8
43
  6
DASHED
 10
139.83870800017519
 20
38.413632503673881
 30
0.0
 11
140.03330192084479
 21
60.711887196574203
 31
0.0
  0
LINE
  5
28F
  8
41
 10
143.83097226290249
 20
36.21188719657416
 30
0.0
 11
144.03605365598531
 21
59.711887196574189
 31
0.0
  0
LINE
  5
290
  8
41
 10
143.03605365598531
 20
59.711887196574189
 30
0.0
 11
144.03605365598531
 21
59.711887196574189
 31
0.0
  0
ARC
  5
291
  8
41
 10
140.13169022209061
 20
60.31188719657419
 30
0.0
 40
0.4
 50
0.4999999999983545
 51
90.811176550725492
  0
LINE
  5
292
  8
41
 10
140.53167499131629
 20
60.315377810773533
 30
0.0
 11
140.5367932302525
 21
59.71188719657416
 31
0.0
  0
LINE
  5
293
  8
41
 10
140.5360536559854
 20
59.711887196574189
 30
0.0
 11
143.03605365598531
 21
59.711887196574189
 31
0.0
  0
ARC
  5
294
  8
43
  6
DASHED
 10
131.8241122562159
 20
38.41188719657427
 30
0.0
 40
0.2
 50
270.0
 51
0.500000000000899
  0
LINE
  5
295
  8
41
 10
143.83097226290249
 20
36.21188719657416
 30
0.0
 11
142.33097226290261
 21
34.711887196574217
 31
0.0
  0
ARC
  5
296
  8
43
  6
DASHED
 10
139.6387156155624
 20
38.411887196574213
 30
0.0
 40
0.2
 50
270.0
 51
0.500000000000899
  0
ENDSEC
  0
EOF
