  0
SECTION
  2
HEADER
  9
$ACADVER
  1
AC1009
  9
$INSBASE
 10
0.0
 20
0.0
 30
0.0
  9
$EXTMIN
 10
-117.2197108313523
 20
23.508008144238829
 30
-0.0000000349181948
  9
$EXTMAX
 10
206.5152033525373
 20
228.65545151438269
 30
0.0000000814935746
  9
$LIMMIN
 10
-10.0
 20
5.0
  9
$LIMMAX
 10
415.0
 20
842.66622410985099
  9
$ORTHOMODE
 70
     1
  9
$REGENMODE
 70
     1
  9
$FILLMODE
 70
     1
  9
$QTEXTMODE
 70
     0
  9
$MIRRTEXT
 70
     1
  9
$DRAGMODE
 70
     2
  9
$LTSCALE
 40
7.0
  9
$OSMODE
 70
    37
  9
$ATTMODE
 70
     1
  9
$TEXTSIZE
 40
2.5
  9
$TRACEWID
 40
1.0
  9
$TEXTSTYLE
  7
TKKISO
  9
$CLAYER
  8
1
  9
$CELTYPE
  6
BYLAYER
  9
$CECOLOR
 62
   256
  9
$DIMSCALE
 40
1.0
  9
$DIMASZ
 40
2.5
  9
$DIMEXO
 40
0.0625
  9
$DIMDLI
 40
10.0
  9
$DIMRND
 40
0.0
  9
$DIMDLE
 40
0.0
  9
$DIMEXE
 40
1.0
  9
$DIMTP
 40
0.0
  9
$DIMTM
 40
0.0
  9
$DIMTXT
 40
2.5
  9
$DIMCEN
 40
-2.0
  9
$DIMTSZ
 40
0.0
  9
$DIMTOL
 70
     0
  9
$DIMLIM
 70
     0
  9
$DIMTIH
 70
     0
  9
$DIMTOH
 70
     0
  9
$DIMSE1
 70
     0
  9
$DIMSE2
 70
     0
  9
$DIMTAD
 70
     1
  9
$DIMZIN
 70
     0
  9
$DIMBLK
  1

  9
$DIMASO
 70
     1
  9
$DIMSHO
 70
     1
  9
$DIMPOST
  1

  9
$DIMAPOST
  1

  9
$DIMALT
 70
     0
  9
$DIMALTD
 70
     2
  9
$DIMALTF
 40
25.399999999999999
  9
$DIMLFAC
 40
1.0
  9
$DIMTOFL
 70
     1
  9
$DIMTVP
 40
0.0
  9
$DIMTIX
 70
     0
  9
$DIMSOXD
 70
     1
  9
$DIMSAH
 70
     1
  9
$DIMBLK1
  1

  9
$DIMBLK2
  1

  9
$DIMSTYLE
  2
STANDARD
  9
$DIMCLRD
 70
     1
  9
$DIMCLRE
 70
     1
  9
$DIMCLRT
 70
     3
  9
$DIMTFAC
 40
1.0
  9
$DIMGAP
 40
0.09
  9
$LUNITS
 70
     2
  9
$LUPREC
 70
     1
  9
$SKETCHINC
 40
0.1
  9
$FILLETRAD
 40
0.0
  9
$AUNITS
 70
     0
  9
$AUPREC
 70
     1
  9
$MENU
  1
caesar
  9
$ELEVATION
 40
0.0
  9
$PELEVATION
 40
0.0
  9
$THICKNESS
 40
0.0
  9
$LIMCHECK
 70
     0
  9
$BLIPMODE
 70
     0
  9
$CHAMFERA
 40
5.0
  9
$CHAMFERB
 40
5.0
  9
$SKPOLY
 70
     0
  9
$TDCREATE
 40
2448723.9838693282
  9
$TDUPDATE
 40
2453620.4670393509
  9
$TDINDWG
 40
1.2098976389
  9
$TDUSRTIMER
 40
1.2098976389
  9
$USRTIMER
 70
     1
  9
$ANGBASE
 50
0.0
  9
$ANGDIR
 70
     0
  9
$PDMODE
 70
     0
  9
$PDSIZE
 40
0.0
  9
$PLINEWID
 40
0.0
  9
$COORDS
 70
     2
  9
$SPLFRAME
 70
     0
  9
$SPLINETYPE
 70
     6
  9
$SPLINESEGS
 70
     8
  9
$ATTDIA
 70
     0
  9
$ATTREQ
 70
     1
  9
$HANDLING
 70
-16383
  9
$HANDSEED
  5
6E0
  9
$SURFTAB1
 70
     6
  9
$SURFTAB2
 70
     6
  9
$SURFTYPE
 70
     6
  9
$SURFU
 70
     6
  9
$SURFV
 70
     6
  9
$UCSNAME
  2

  9
$UCSORG
 10
0.0
 20
0.0
 30
0.0
  9
$UCSXDIR
 10
1.0
 20
0.0
 30
0.0
  9
$UCSYDIR
 10
0.0
 20
1.0
 30
0.0
  9
$PUCSNAME
  2

  9
$PUCSORG
 10
0.0
 20
0.0
 30
0.0
  9
$PUCSXDIR
 10
1.0
 20
0.0
 30
0.0
  9
$PUCSYDIR
 10
0.0
 20
1.0
 30
0.0
  9
$USERI1
 70
   103
  9
$USERI2
 70
     0
  9
$USERI3
 70
     0
  9
$USERI4
 70
     0
  9
$USERI5
 70
     0
  9
$USERR1
 40
1.0
  9
$USERR2
 40
-10.0
  9
$USERR3
 40
2.5
  9
$USERR4
 40
0.0
  9
$USERR5
 40
0.0
  9
$WORLDVIEW
 70
     1
  9
$SHADEDGE
 70
     3
  9
$SHADEDIF
 70
    70
  9
$TILEMODE
 70
     1
  9
$MAXACTVP
 70
    16
  9
$PLIMCHECK
 70
     0
  9
$PEXTMIN
 10
1.0000000000000000E+020
 20
1.0000000000000000E+020
 30
1.0000000000000000E+020
  9
$PEXTMAX
 10
-1.0000000000000000E+020
 20
-1.0000000000000000E+020
 30
-1.0000000000000000E+020
  9
$PLIMMIN
 10
0.0
 20
0.0
  9
$PLIMMAX
 10
12.0
 20
9.0
  9
$UNITMODE
 70
     0
  9
$VISRETAIN
 70
     0
  9
$PLINEGEN
 70
     0
  9
$PSLTSCALE
 70
     0
  0
ENDSEC
  0
SECTION
  2
TABLES
  0
TABLE
  2
VPORT
 70
     2
  0
VPORT
  2
*ACTIVE
 70
     0
 10
0.0
 20
0.0
 11
1.0
 21
1.0
 12
44.647746260592498
 22
126.0817298293107
 13
0.0
 23
0.0
 14
5.0
 24
5.0
 15
10.0
 25
10.0
 16
0.0
 26
0.0
 36
1.0
 17
0.0
 27
0.0
 37
0.0
 40
208.96557929603841
 41
1.5552208835341359
 42
50.0
 43
0.0
 44
0.0
 50
0.0
 51
0.0
 71
     0
 72
  2000
 73
     1
 74
     0
 75
     0
 76
     0
 77
     0
 78
     0
  0
ENDTAB
  0
TABLE
  2
LTYPE
 70
     3
  0
LTYPE
  2
CONTINUOUS
 70
     0
  3
Solid line
 72
    65
 73
     0
 40
0.0
  0
LTYPE
  2
DASHED
 70
     0
  3
__ __ __ __ __ __ __ __ __ __ __ __ __ __ __
 72
    65
 73
     2
 40
0.75
 49
0.5
 49
-0.25
  0
LTYPE
  2
CENTER
 70
     0
  3
____ _ ____ _ ____ _ ____ _ ____ _ ____ _ ____ 
 72
    65
 73
     4
 40
2.0
 49
1.25
 49
-0.25
 49
0.25
 49
-0.25
  0
ENDTAB
  0
TABLE
  2
LAYER
 70
    11
  0
LAYER
  2
0
 70
     0
 62
     6
  6
CONTINUOUS
  0
LAYER
  2
DEFPOINTS
 70
     0
 62
    -7
  6
CONTINUOUS
  0
LAYER
  2
L20
 70
     0
 62
     3
  6
CONTINUOUS
  0
LAYER
  2
1
 70
     0
 62
     7
  6
CONTINUOUS
  0
LAYER
  2
41
 70
     0
 62
     7
  6
CONTINUOUS
  0
LAYER
  2
43
 70
     0
 62
     1
  6
CENTER
  0
LAYER
  2
51
 70
     0
 62
     7
  6
CONTINUOUS
  0
LAYER
  2
52
 70
     0
 62
     1
  6
CONTINUOUS
  0
LAYER
  2
53
 70
     0
 62
     1
  6
CENTER
  0
LAYER
  2
61
 70
     0
 62
     7
  6
CONTINUOUS
  0
LAYER
  2
63
 70
     0
 62
     1
  6
CENTER
  0
ENDTAB
  0
TABLE
  2
STYLE
 70
     3
  0
STYLE
  2
STANDARD
 70
     0
 40
0.0
 41
1.0
 50
0.0
 71
     0
 42
9.5
  3
caeiso
  4

  0
STYLE
  2
ROMANS
 70
     0
 40
0.0
 41
0.8
 50
0.0
 71
     0
 42
2.5
  3
romans
  4

  0
STYLE
  2
TKKISO
 70
     0
 40
0.0
 41
1.0
 50
0.0
 71
     0
 42
2.5
  3
caeiso
  4

  0
ENDTAB
  0
TABLE
  2
VIEW
 70
     0
  0
ENDTAB
  0
TABLE
  2
UCS
 70
     0
  0
ENDTAB
  0
TABLE
  2
APPID
 70
     2
  0
APPID
  2
ACAD
 70
     0
  0
APPID
  2
DCO15
 70
     0
  0
ENDTAB
  0
TABLE
  2
DIMSTYLE
 70
     1
  0
DIMSTYLE
  2
STANDARD
 70
     0
  3

  4

  5

  6

  7

 40
1.0
 41
0.18
 42
0.0625
 43
0.38
 44
0.18
 45
0.0
 46
0.0
 47
0.0
 48
0.0
140
0.18
141
0.09
142
0.0
143
25.399999999999999
144
1.0
145
0.0
146
1.0
147
0.09
 71
     0
 72
     0
 73
     1
 74
     1
 75
     0
 76
     0
 77
     0
 78
     0
170
     0
171
     2
172
     0
173
     0
174
     0
175
     0
176
     0
177
     0
178
     0
  0
ENDTAB
  0
ENDSEC
  0
SECTION
  2
BLOCKS
  0
BLOCK
  8
0
  2
$MODEL_SPACE
 70
     0
 10
0.0
 20
0.0
 30
0.0
  3
$MODEL_SPACE
  1

  0
ENDBLK
  5
7E
  8
0
  0
BLOCK
 67
     1
  8
0
  2
$PAPER_SPACE
 70
     0
 10
0.0
 20
0.0
 30
0.0
  3
$PAPER_SPACE
  1

  0
ENDBLK
  5
7C
 67
     1
  8
0
  0
BLOCK
  8
0
  2
A$C63064BA5
 70
     0
 10
0.0
 20
0.0
 30
0.0
  3
A$C63064BA5
  1

  0
LINE
  5
611
  8
0
  6
CONTINUOUS
 62
     7
 10
7.0319950298500649
 20
6.7426453666556077
 30
0.0
 11
5.7587817591282819
 21
4.5373752928945796
 31
0.0
  0
ARC
  5
612
  8
0
  6
CONTINUOUS
 62
     7
 10
4.0965963229315321
 20
4.0972975912654297
 30
0.0
 40
2.9500000000000171
 50
85.070227949341415
 51
214.9297720506566
  0
LINE
  5
613
  8
0
  6
CONTINUOUS
 62
     7
 10
3.64662207408304
 20
5.7568312556269339
 30
0.0
 11
4.919835344804766
 21
7.9621013293879619
 31
0.0
  0
ARC
  5
614
  8
0
  6
CONTINUOUS
 62
     7
 10
4.0965963229315321
 20
4.0972975912653729
 30
0.0
 40
4.0974499545946284
 50
79.159768857814015
 51
220.84023114218701
  0
ARC
  5
615
  8
0
  6
CONTINUOUS
 62
     7
 10
4.096596322931588
 20
4.0972975912655443
 30
0.0
 40
4.0974499545946284
 50
259.1597688578139
 51
40.8402311421871
  0
ARC
  5
616
  8
0
  6
CONTINUOUS
 62
     7
 10
4.0965963229315321
 20
4.0972975912654297
 30
0.0
 40
2.9500000000000042
 50
265.07022794934142
 51
34.929772050656688
  0
ARC
  5
617
  8
0
  6
CONTINUOUS
 62
     7
 10
4.0965963229315321
 20
4.0972975912654297
 30
0.0
 40
1.7194559627323469
 50
1.2838565197762779
 51
14.82929661042597
  0
LINE
  5
618
  8
0
  6
CONTINUOUS
 62
     7
 10
5.815620636794903
 20
4.1358231168584316
 30
0.0
 11
5.8217654164120631
 21
4.1342485724495068
 31
0.0
  0
ARC
  5
619
  8
0
  6
CONTINUOUS
 62
     7
 10
4.0965963229315321
 20
4.0972975912654297
 30
0.0
 40
1.725564770188071
 50
1.2270168853115819
 51
14.7455708687729
  0
ARC
  5
61A
  8
0
  6
CONTINUOUS
 62
     7
 10
4.0965963229315321
 20
4.0972975912654297
 30
0.0
 40
4.16945596273235
 50
226.2538174138283
 51
253.7461825861734
  0
LINE
  5
61B
  8
0
  6
CONTINUOUS
 62
     7
 10
1.161197616012998
 20
1.451949815875252
 30
0.0
 11
2.4344108867347241
 21
3.6572198896362802
 31
0.0
  0
ARC
  5
61C
  8
0
  6
CONTINUOUS
 62
     7
 10
1.4209914467022591
 20
1.301954970816382
 30
0.0
 40
0.2999854796664052
 50
149.99953570610231
 51
226.2542817073992
  0
ARC
  5
61D
  8
0
  6
CONTINUOUS
 62
     7
 10
4.0965963229315321
 20
4.0972975912654297
 30
0.0
 40
1.719455962732352
 50
105.17070338957519
 51
118.71614348025599
  0
ARC
  5
61E
  8
0
  6
CONTINUOUS
 62
     7
 10
4.0965963229315321
 20
4.0972975912654297
 30
0.0
 40
1.719455962732344
 50
181.2838565197502
 51
194.8292966104259
  0
LINE
  5
61F
  8
0
  6
CONTINUOUS
 62
     7
 10
2.377572009068103
 20
4.0587720656724846
 30
0.0
 11
3.2704482498574521
 21
5.605279079590729
 31
0.0
  0
LINE
  5
620
  8
0
  6
CONTINUOUS
 62
     7
 10
4.9227443960055552
 20
2.5893161029401308
 30
0.0
 11
4.9271803812716248
 21
2.5847818398954701
 31
0.0
  0
ARC
  5
621
  8
0
  6
CONTINUOUS
 62
     7
 10
4.0965963229315321
 20
4.0972975912654297
 30
0.0
 40
1.719455962732354
 50
285.17070338957518
 51
298.71614348025889
  0
ARC
  5
622
  8
0
  6
CONTINUOUS
 62
     7
 10
4.0965963229315321
 20
4.0972975912654297
 30
0.0
 40
1.7255647701880641
 50
285.25442913122782
 51
298.77298311613669
  0
LINE
  5
623
  8
0
  6
CONTINUOUS
 62
     7
 10
4.5465705717799656
 20
2.437763926903926
 30
0.0
 11
3.27335730105824
 21
0.2324938531428984
 31
0.0
  0
LINE
  5
624
  8
0
  6
CONTINUOUS
 62
     7
 10
4.5506024128429772
 20
2.432529665565994
 30
0.0
 11
4.4097473576063058
 21
2.188561553393185
 31
0.0
  0
LINE
  5
625
  8
0
  6
CONTINUOUS
 62
     7
 10
4.5465705717799656
 20
2.437763926903926
 30
0.0
 11
4.5506024128429772
 21
2.432529665565994
 31
0.0
  0
ARC
  5
626
  8
0
  6
CONTINUOUS
 62
     7
 10
3.0135610394586929
 20
0.3824844877237297
 30
0.0
 40
0.2999854796546085
 50
253.74571829138739
 51
330.00046429427169
  0
LINE
  5
627
  8
0
  6
CONTINUOUS
 62
     7
 10
5.815620636794903
 20
4.1358231168584316
 30
0.0
 11
4.9227443960055552
 21
2.5893161029401308
 31
0.0
  0
LINE
  5
628
  8
0
  6
CONTINUOUS
 62
     7
 10
5.8217654164120631
 20
4.1342485724495068
 30
0.0
 11
4.9271803812716248
 21
2.5847818398954701
 31
0.0
  0
ARC
  5
629
  8
0
  6
CONTINUOUS
 62
     7
 10
4.0965963229315321
 20
4.0972975912654297
 30
0.0
 40
4.16945596273235
 50
46.25381741382833
 51
73.746182586173475
  0
ARC
  5
62A
  8
0
  6
CONTINUOUS
 62
     7
 10
5.1796316064098269
 20
7.812110694791329
 30
0.0
 40
0.2999854796682246
 50
73.7457182932297
 51
150.00046429184991
  0
ARC
  5
62B
  8
0
  6
CONTINUOUS
 62
     7
 10
6.7722011991425566
 20
6.8926402117135694
 30
0.0
 40
0.29998547967963
 50
329.99953570866688
 51
46.25428170501047
  0
ENDBLK
  5
62D
  8
0
  0
ENDSEC
  0
SECTION
  2
ENTITIES
  0
LINE
  5
7F
  8
51
 10
-108.087230683163
 20
85.978549703361338
 30
0.0
 11
-38.087230683163
 21
85.978549703361338
 31
0.0
  0
LINE
  5
80
  8
51
 10
-114.18723068316299
 20
126.0785497033613
 30
0.0
 11
-114.18723068316299
 21
92.078549703361347
 31
0.0
  0
LINE
  5
81
  8
51
 10
-31.987230683163091
 20
126.0785497033613
 30
0.0
 11
-31.98723068316303
 21
92.078549703361347
 31
0.0
  0
LINE
  5
82
  8
63
 10
103.9360536559855
 20
169.22541212583499
 30
0.0
 11
103.9360536559855
 21
81.29650639313121
 31
0.0
  0
LINE
  5
83
  8
63
 10
57.065680266429752
 20
126.0785497033613
 30
0.0
 11
149.71938762003151
 21
126.0785497033613
 31
0.0
  0
ARC
  5
84
  8
51
 10
-108.087230683163
 20
92.078549703361347
 30
0.0
 40
6.0999999999999988
 50
180.0
 51
270.0
  0
ARC
  5
85
  8
51
 10
-38.087230683163
 20
92.078549703361347
 30
0.0
 40
6.0999999999999988
 50
270.0
 51
0.0000000000000254
  0
LINE
  5
8A
  8
61
 10
145.0360536559858
 20
160.17854970336131
 30
0.0
 11
145.0360536559858
 21
91.978549703360841
 31
0.0
  0
LINE
  5
8B
  8
61
 10
62.836053655985651
 20
160.17854970336131
 30
0.0
 11
62.836053655985651
 21
91.978549703360841
 31
0.0
  0
LINE
  5
8C
  8
61
 10
68.836053655985666
 20
85.978549703360827
 30
0.0
 11
139.0360536559858
 21
85.978549703360827
 31
0.0
  0
LINE
  5
8D
  8
61
 10
68.836053655985666
 20
166.17854970336131
 30
0.0
 11
139.0360536559858
 21
166.17854970336131
 31
0.0
  0
LINE
  5
8F
  8
61
 10
68.836053655985666
 20
164.695219500153
 30
0.0
 11
139.0360536559858
 21
164.695219500153
 31
0.0
  0
LINE
  5
90
  8
61
 10
143.5527234527776
 20
160.1785497033612
 30
0.0
 11
143.5527234527776
 21
91.978549703360841
 31
0.0
  0
LINE
  5
91
  8
61
 10
64.319383859193863
 20
160.1785497033612
 30
0.0
 11
64.319383859193863
 21
91.978549703360841
 31
0.0
  0
LINE
  5
92
  8
61
 10
68.836053655985666
 20
87.461879906569038
 30
0.0
 11
139.0360536559858
 21
87.461879906569038
 31
0.0
  0
LINE
  5
9E
  8
52
 10
-113.18723068316299
 20
126.0785497033613
 30
0.0
 11
-113.18723068316299
 21
108.27854970336131
 31
0.0
  0
LINE
  5
9F
  8
52
 10
-110.68723068316299
 20
126.0785497033613
 30
0.0
 11
-110.68723068316299
 21
108.27854970336131
 31
0.0
  0
LINE
  5
A0
  8
51
 10
-109.887230683163
 20
126.0785497033613
 30
0.0
 11
-109.887230683163
 21
108.27854970336131
 31
0.0
  0
LINE
  5
A1
  8
52
 10
-104.3872306831632
 20
90.478549703361367
 30
0.0
 11
-104.3872306831631
 21
101.0785497033613
 31
0.0
  0
LINE
  5
A2
  8
52
 10
-101.8872306831632
 20
90.478549703361367
 30
0.0
 11
-101.8872306831631
 21
101.0785497033613
 31
0.0
  0
LINE
  5
A3
  8
51
 10
-101.0872306831632
 20
90.478549703361352
 30
0.0
 11
-101.0872306831632
 21
101.0785497033613
 31
0.0
  0
LINE
  5
A4
  8
52
 10
-105.18723068316319
 20
90.478549703361367
 30
0.0
 11
-105.18723068316319
 21
101.0785497033613
 31
0.0
  0
LINE
  5
A5
  8
52
 10
-109.68723068316299
 20
104.77854970336131
 30
0.0
 11
-108.0872306831632
 21
104.77854970336131
 31
0.0
  0
LINE
  5
A6
  8
52
 10
-109.6872304224991
 20
103.9785497033613
 30
0.0
 11
-108.0872306831632
 21
103.9785497033614
 31
0.0
  0
LINE
  5
A7
  8
52
 10
-109.68723068316299
 20
107.27854970336131
 30
0.0
 11
-108.0872306831632
 21
107.27854970336131
 31
0.0
  0
LINE
  5
A8
  8
51
 10
-109.68723068316299
 20
108.0785497033613
 30
0.0
 11
-108.0872306831633
 21
108.0785497033613
 31
0.0
  0
LINE
  5
A9
  8
52
 10
-113.18723068316299
 20
105.2191379952056
 30
0.0
 11
-113.18723068316309
 21
92.078549703361347
 31
0.0
  0
ARC
  5
AA
  8
52
 10
-108.0872306831631
 20
101.0785497033613
 30
0.0
 40
2.8999999999999999
 50
359.99999999999972
 51
90.000000000000952
  0
ARC
  5
AB
  8
52
 10
-108.0872306831631
 20
101.0785497033613
 30
0.0
 40
3.7000000000000002
 50
359.99999999999972
 51
90.000000000001023
  0
ARC
  5
AC
  8
52
 10
-108.0872306831631
 20
101.0785497033613
 30
0.0
 40
6.2000000000000002
 50
359.99999999999972
 51
90.000000000001023
  0
ARC
  5
AD
  8
51
 10
-108.0872306831632
 20
101.0785497033613
 30
0.0
 40
7.0
 50
359.99999999999972
 51
90.000000000001023
  0
ARC
  5
AE
  8
51
 10
-109.68723068316299
 20
108.27854970336131
 30
0.0
 40
0.2
 50
180.0
 51
270.00000000000102
  0
ARC
  5
AF
  8
52
 10
-109.68723068316299
 20
108.27854970336131
 30
0.0
 40
1.0
 50
180.0
 51
270.00000000000051
  0
ARC
  5
B0
  8
52
 10
-109.68723068316299
 20
108.27854970336131
 30
0.0
 40
3.5
 50
180.0
 51
270.00000000000102
  0
ARC
  5
B1
  8
52
 10
-109.68723068316299
 20
108.27854970336131
 30
0.0
 40
4.2999999999999989
 50
222.8334280660678
 51
270.00000580913252
  0
ARC
  5
B2
  8
52
 10
-112.98723068316301
 20
105.2191379952056
 30
0.0
 40
0.2
 50
42.833428066067782
 51
180.0
  0
LINE
  5
B3
  8
52
 10
-108.087230683163
 20
86.978549703361367
 30
0.0
 11
-103.9466423913189
 21
86.978549703361367
 31
0.0
  0
ARC
  5
B4
  8
52
 10
-108.087230683163
 20
92.078549703361347
 30
0.0
 40
5.0999999999999988
 50
180.0
 51
270.0
  0
LINE
  5
BA
  8
52
 10
-100.8872306831632
 20
89.478549703361367
 30
0.0
 11
-73.087230683163057
 21
89.478549703361367
 31
0.0
  0
LINE
  5
BB
  8
51
 10
-100.8872306831632
 20
90.278549703361335
 30
0.0
 11
-73.087230683163057
 21
90.278549703361335
 31
0.0
  0
ARC
  5
BC
  8
51
 10
-100.8872306831632
 20
90.478549703361352
 30
0.0
 40
0.2
 50
179.99999999999969
 51
270.0
  0
ARC
  5
BD
  8
52
 10
-100.8872306831632
 20
90.478549703361367
 30
0.0
 40
1.0
 50
179.9999999999996
 51
270.0
  0
ARC
  5
BE
  8
52
 10
-100.8872306831632
 20
90.478549703361367
 30
0.0
 40
3.5000000000000142
 50
179.99999999999969
 51
270.00001379475299
  0
ARC
  5
BF
  8
52
 10
-100.8872306831632
 20
90.478549703361367
 30
0.0
 40
4.3000000000000247
 50
179.99998518157989
 51
227.1665719339322
  0
LINE
  5
C0
  8
52
 10
-100.8872298404897
 20
86.978549703361452
 30
0.0
 11
-73.087230683163057
 21
86.978549703361409
 31
0.0
  0
ARC
  5
C1
  8
52
 10
-103.9466423913189
 20
87.178549703361355
 30
0.0
 40
0.2
 50
270.0
 51
47.166571933932438
  0
ARC
  5
C2
  8
52
 10
-42.227818975007089
 20
87.178549703361355
 30
0.0
 40
0.2
 50
132.83342806606751
 51
270.0
  0
LINE
  5
C3
  8
52
 10
-45.287231525836368
 20
86.978549703361452
 30
0.0
 11
-73.087230683163057
 21
86.978549703361409
 31
0.0
  0
ARC
  5
C4
  8
52
 10
-45.287230683162882
 20
90.478549703361367
 30
0.0
 40
4.3000000000000247
 50
312.83342806606771
 51
0.0000148184200113
  0
ARC
  5
C5
  8
52
 10
-45.287230683162882
 20
90.478549703361367
 30
0.0
 40
3.5000000000000142
 50
269.9999862052469
 51
0.000000000000236
  0
ARC
  5
C6
  8
52
 10
-45.287230683162882
 20
90.478549703361367
 30
0.0
 40
1.0
 50
270.0
 51
0.0000000000003124
  0
ARC
  5
C7
  8
51
 10
-45.287230683162811
 20
90.478549703361352
 30
0.0
 40
0.2
 50
270.0
 51
0.000000000000236
  0
LINE
  5
C8
  8
51
 10
-45.287230683162811
 20
90.278549703361335
 30
0.0
 11
-73.087230683163
 21
90.278549703361335
 31
0.0
  0
LINE
  5
C9
  8
52
 10
-45.287230683162882
 20
89.478549703361367
 30
0.0
 11
-73.087230683163
 21
89.478549703361367
 31
0.0
  0
ARC
  5
CF
  8
52
 10
-38.087230683163
 20
92.078549703361347
 30
0.0
 40
5.0999999999999988
 50
270.0
 51
0.000000000000007
  0
LINE
  5
D0
  8
52
 10
-38.087230683163
 20
86.978549703361367
 30
0.0
 11
-42.227818975007089
 21
86.978549703361367
 31
0.0
  0
ARC
  5
D1
  8
52
 10
-33.187230683163023
 20
105.2191379952056
 30
0.0
 40
0.2
 50
0.000000000000007
 51
137.1665719339322
  0
ARC
  5
D2
  8
52
 10
-36.487230683163027
 20
108.27854970336131
 30
0.0
 40
4.2999999999999989
 50
269.99999419086748
 51
317.16657193393212
  0
ARC
  5
D3
  8
52
 10
-36.487230683163027
 20
108.27854970336131
 30
0.0
 40
3.5
 50
269.99999999999898
 51
0.000000000000007
  0
ARC
  5
D4
  8
52
 10
-36.487230683163027
 20
108.27854970336131
 30
0.0
 40
1.0
 50
269.99999999999949
 51
0.000000000000007
  0
ARC
  5
D5
  8
51
 10
-36.487230683163027
 20
108.27854970336131
 30
0.0
 40
0.2
 50
269.99999999999898
 51
0.000000000000007
  0
ARC
  5
D6
  8
51
 10
-38.087230683162879
 20
101.0785497033613
 30
0.0
 40
7.0
 50
89.999999999998977
 51
180.00000000000031
  0
ARC
  5
D7
  8
52
 10
-38.087230683162879
 20
101.0785497033613
 30
0.0
 40
6.2000000000000002
 50
89.999999999998977
 51
180.00000000000031
  0
ARC
  5
D8
  8
52
 10
-38.087230683162879
 20
101.0785497033613
 30
0.0
 40
3.7000000000000002
 50
89.999999999998977
 51
180.00000000000031
  0
ARC
  5
D9
  8
52
 10
-38.087230683162879
 20
101.0785497033613
 30
0.0
 40
2.8999999999999999
 50
89.999999999999048
 51
180.00000000000031
  0
LINE
  5
DA
  8
52
 10
-32.987230683163027
 20
105.2191379952056
 30
0.0
 11
-32.987230683163027
 21
92.078549703361361
 31
0.0
  0
LINE
  5
DB
  8
51
 10
-36.487230683163027
 20
108.0785497033613
 30
0.0
 11
-38.087230683162772
 21
108.0785497033613
 31
0.0
  0
LINE
  5
DC
  8
52
 10
-36.487230683163027
 20
107.27854970336131
 30
0.0
 11
-38.087230683162772
 21
107.27854970336131
 31
0.0
  0
LINE
  5
DD
  8
52
 10
-36.487230943827001
 20
103.9785497033613
 30
0.0
 11
-38.087230683162879
 21
103.9785497033614
 31
0.0
  0
LINE
  5
DE
  8
52
 10
-36.487230683163091
 20
104.77854970336131
 30
0.0
 11
-38.087230683162879
 21
104.77854970336131
 31
0.0
  0
LINE
  5
DF
  8
52
 10
-40.987230683162863
 20
90.478549703361367
 30
0.0
 11
-40.987230683162913
 21
101.0785497033613
 31
0.0
  0
LINE
  5
E0
  8
51
 10
-45.087230683162829
 20
90.478549703361352
 30
0.0
 11
-45.087230683162879
 21
101.0785497033613
 31
0.0
  0
LINE
  5
E1
  8
52
 10
-44.287230683162868
 20
90.478549703361367
 30
0.0
 11
-44.287230683162932
 21
101.0785497033613
 31
0.0
  0
LINE
  5
E2
  8
52
 10
-41.787230683162868
 20
90.478549703361367
 30
0.0
 11
-41.787230683162932
 21
101.0785497033613
 31
0.0
  0
LINE
  5
E3
  8
51
 10
-36.287230683163038
 20
126.0785497033613
 30
0.0
 11
-36.287230683163038
 21
108.27854970336131
 31
0.0
  0
LINE
  5
E4
  8
52
 10
-35.487230683163027
 20
126.0785497033613
 30
0.0
 11
-35.487230683163027
 21
108.27854970336131
 31
0.0
  0
LINE
  5
E5
  8
52
 10
-32.987230683163027
 20
126.0785497033613
 30
0.0
 11
-32.987230683163027
 21
108.27854970336131
 31
0.0
  0
LINE
  5
E6
  8
52
 10
-32.987230683163027
 20
126.0785497033613
 30
0.0
 11
-32.987230683163027
 21
143.8785497033613
 31
0.0
  0
LINE
  5
E7
  8
52
 10
-35.487230683163027
 20
126.0785497033613
 30
0.0
 11
-35.487230683163027
 21
143.8785497033613
 31
0.0
  0
LINE
  5
E8
  8
51
 10
-36.287230683163038
 20
126.0785497033613
 30
0.0
 11
-36.287230683163038
 21
143.8785497033613
 31
0.0
  0
LINE
  5
E9
  8
52
 10
-41.787230683162868
 20
161.6785497033612
 30
0.0
 11
-41.787230683162932
 21
151.07854970336129
 31
0.0
  0
LINE
  5
EA
  8
52
 10
-44.287230683162868
 20
161.6785497033612
 30
0.0
 11
-44.287230683162932
 21
151.07854970336129
 31
0.0
  0
LINE
  5
EB
  8
51
 10
-45.087230683162829
 20
161.67854970336131
 30
0.0
 11
-45.087230683162879
 21
151.07854970336129
 31
0.0
  0
LINE
  5
EC
  8
52
 10
-40.987230683162863
 20
161.6785497033612
 30
0.0
 11
-40.987230683162913
 21
151.07854970336129
 31
0.0
  0
LINE
  5
ED
  8
52
 10
-36.487230683163091
 20
147.3785497033613
 30
0.0
 11
-38.087230683162879
 21
147.37854970336119
 31
0.0
  0
LINE
  5
EE
  8
52
 10
-36.487230943827001
 20
148.17854970336131
 30
0.0
 11
-38.087230683162879
 21
148.1785497033612
 31
0.0
  0
LINE
  5
EF
  8
52
 10
-36.487230683163027
 20
144.8785497033613
 30
0.0
 11
-38.087230683162772
 21
144.8785497033613
 31
0.0
  0
LINE
  5
F0
  8
51
 10
-36.487230683163027
 20
144.07854970336129
 30
0.0
 11
-38.087230683162772
 21
144.07854970336129
 31
0.0
  0
LINE
  5
F1
  8
52
 10
-32.987230683163027
 20
146.93796141151699
 30
0.0
 11
-32.987230683163027
 21
160.07854970336129
 31
0.0
  0
ARC
  5
F2
  8
52
 10
-38.087230683162879
 20
151.0785497033612
 30
0.0
 40
2.8999999999999999
 50
179.9999999999996
 51
270.00000000000091
  0
ARC
  5
F3
  8
52
 10
-38.087230683162879
 20
151.07854970336129
 30
0.0
 40
3.7000000000000002
 50
179.9999999999996
 51
270.00000000000102
  0
ARC
  5
F4
  8
52
 10
-38.087230683162879
 20
151.07854970336129
 30
0.0
 40
6.2000000000000002
 50
179.9999999999996
 51
270.00000000000102
  0
ARC
  5
F5
  8
51
 10
-38.087230683162879
 20
151.07854970336129
 30
0.0
 40
7.0
 50
179.9999999999996
 51
270.00000000000102
  0
ARC
  5
F6
  8
51
 10
-36.487230683163027
 20
143.8785497033613
 30
0.0
 40
0.2
 50
0.000000000000007
 51
90.000000000000966
  0
ARC
  5
F7
  8
53
 10
-36.487230683163027
 20
143.8785497033613
 30
0.0
 40
1.0
 50
0.000000000000007
 51
90.000000000000469
  0
ARC
  5
F8
  8
52
 10
-36.487230683163027
 20
143.8785497033613
 30
0.0
 40
3.5
 50
0.000000000000007
 51
90.000000000000966
  0
ARC
  5
F9
  8
52
 10
-36.487230683163027
 20
143.8785497033613
 30
0.0
 40
4.2999999999999989
 50
42.83342806606786
 51
90.000005809132503
  0
ARC
  5
FA
  8
52
 10
-33.187230683163023
 20
146.93796141151699
 30
0.0
 40
0.2
 50
222.8334280660678
 51
0.000000000000007
  0
LINE
  5
FB
  8
52
 10
-38.087230683163
 20
165.17854970336131
 30
0.0
 11
-42.227818975007089
 21
165.17854970336131
 31
0.0
  0
ARC
  5
FC
  8
52
 10
-38.087230683163
 20
160.07854970336129
 30
0.0
 40
5.0999999999999988
 50
0.000000000000007
 51
89.999999999999957
  0
LINE
  5
FD
  8
52
 10
-45.287230683162882
 20
162.6785497033612
 30
0.0
 11
-73.087230683163
 21
162.67854970336131
 31
0.0
  0
LINE
  5
FE
  8
51
 10
-45.287230683162811
 20
161.8785497033613
 30
0.0
 11
-73.087230683163
 21
161.8785497033613
 31
0.0
  0
ARC
  5
FF
  8
51
 10
-45.287230683162811
 20
161.67854970336131
 30
0.0
 40
0.2
 50
359.99999999999972
 51
89.999999999999957
  0
ARC
  5
100
  8
52
 10
-45.287230683162882
 20
161.6785497033612
 30
0.0
 40
1.0
 50
359.99999999999972
 51
89.999999999999957
  0
ARC
  5
101
  8
52
 10
-45.287230683162882
 20
161.6785497033612
 30
0.0
 40
3.5000000000000142
 50
359.99999999999972
 51
90.000013794753087
  0
ARC
  5
102
  8
52
 10
-45.287230683162882
 20
161.6785497033612
 30
0.0
 40
4.3000000000000247
 50
359.99998518157997
 51
47.166571933932261
  0
LINE
  5
103
  8
52
 10
-45.287231525836368
 20
165.1785497033612
 30
0.0
 11
-73.087230683163057
 21
165.1785497033612
 31
0.0
  0
ARC
  5
104
  8
52
 10
-42.227818975007089
 20
164.97854970336121
 30
0.0
 40
0.2
 50
89.999999999999957
 51
227.1665719339324
  0
ARC
  5
105
  8
52
 10
-103.9466423913189
 20
164.97854970336121
 30
0.0
 40
0.2
 50
312.8334280660676
 51
90.000000000000028
  0
LINE
  5
106
  8
52
 10
-100.8872298404897
 20
165.1785497033612
 30
0.0
 11
-73.087230683163057
 21
165.1785497033612
 31
0.0
  0
ARC
  5
107
  8
52
 10
-100.8872306831632
 20
161.6785497033612
 30
0.0
 40
4.3000000000000247
 50
132.83342806606771
 51
180.00001481842
  0
ARC
  5
108
  8
52
 10
-100.8872306831632
 20
161.6785497033612
 30
0.0
 40
3.5000000000000142
 50
89.999986205246898
 51
180.0000000000002
  0
ARC
  5
109
  8
52
 10
-100.8872306831632
 20
161.6785497033612
 30
0.0
 40
1.0
 50
90.000000000000028
 51
180.00000000000031
  0
ARC
  5
10A
  8
51
 10
-100.8872306831632
 20
161.67854970336131
 30
0.0
 40
0.2
 50
90.000000000000028
 51
180.0000000000002
  0
LINE
  5
10B
  8
51
 10
-100.8872306831632
 20
161.8785497033613
 30
0.0
 11
-73.087230683163057
 21
161.8785497033613
 31
0.0
  0
LINE
  5
10C
  8
52
 10
-100.8872306831632
 20
162.6785497033612
 30
0.0
 11
-73.087230683163057
 21
162.67854970336131
 31
0.0
  0
ARC
  5
10D
  8
52
 10
-108.087230683163
 20
160.07854970336129
 30
0.0
 40
5.0999999999999988
 50
90.000000000000028
 51
180.0
  0
LINE
  5
10E
  8
52
 10
-108.087230683163
 20
165.17854970336131
 30
0.0
 11
-103.9466423913189
 21
165.17854970336131
 31
0.0
  0
ARC
  5
10F
  8
52
 10
-112.98723068316301
 20
146.93796141151699
 30
0.0
 40
0.2
 50
180.0
 51
317.16657193393218
  0
ARC
  5
110
  8
52
 10
-109.68723068316299
 20
143.8785497033613
 30
0.0
 40
4.2999999999999989
 50
89.999994190867454
 51
137.16657193393209
  0
ARC
  5
111
  8
52
 10
-109.68723068316299
 20
143.8785497033613
 30
0.0
 40
3.5
 50
89.999999999998977
 51
180.0
  0
ARC
  5
112
  8
52
 10
-109.68723068316299
 20
143.8785497033613
 30
0.0
 40
1.0
 50
89.999999999999503
 51
180.0
  0
ARC
  5
113
  8
51
 10
-109.68723068316299
 20
143.8785497033613
 30
0.0
 40
0.2
 50
89.999999999998977
 51
180.0
  0
ARC
  5
114
  8
51
 10
-108.0872306831632
 20
151.07854970336129
 30
0.0
 40
7.0
 50
269.99999999999898
 51
0.0000000000003194
  0
ARC
  5
115
  8
52
 10
-108.0872306831631
 20
151.07854970336129
 30
0.0
 40
6.2000000000000002
 50
269.99999999999898
 51
0.0000000000003194
  0
ARC
  5
116
  8
52
 10
-108.0872306831631
 20
151.07854970336129
 30
0.0
 40
3.7000000000000002
 50
269.99999999999898
 51
0.0000000000003194
  0
ARC
  5
117
  8
52
 10
-108.0872306831631
 20
151.0785497033612
 30
0.0
 40
2.8999999999999999
 50
269.99999999999898
 51
0.0000000000003194
  0
LINE
  5
118
  8
52
 10
-113.18723068316299
 20
146.93796141151699
 30
0.0
 11
-113.1872306831626
 21
160.07854970336129
 31
0.0
  0
LINE
  5
119
  8
51
 10
-109.68723068316299
 20
144.07854970336129
 30
0.0
 11
-108.0872306831633
 21
144.07854970336129
 31
0.0
  0
LINE
  5
11A
  8
52
 10
-109.68723068316299
 20
144.8785497033613
 30
0.0
 11
-108.0872306831632
 21
144.8785497033613
 31
0.0
  0
LINE
  5
11B
  8
52
 10
-109.6872304224991
 20
148.17854970336131
 30
0.0
 11
-108.0872306831632
 21
148.1785497033612
 31
0.0
  0
LINE
  5
11C
  8
52
 10
-109.68723068316299
 20
147.3785497033613
 30
0.0
 11
-108.0872306831632
 21
147.37854970336119
 31
0.0
  0
LINE
  5
11D
  8
52
 10
-105.18723068316319
 20
161.6785497033612
 30
0.0
 11
-105.18723068316319
 21
151.07854970336129
 31
0.0
  0
LINE
  5
11E
  8
51
 10
-101.0872306831632
 20
161.67854970336131
 30
0.0
 11
-101.0872306831632
 21
151.07854970336129
 31
0.0
  0
LINE
  5
11F
  8
52
 10
-101.8872306831632
 20
161.6785497033612
 30
0.0
 11
-101.8872306831631
 21
151.07854970336129
 31
0.0
  0
LINE
  5
120
  8
52
 10
-104.3872306831632
 20
161.6785497033612
 30
0.0
 11
-104.3872306831631
 21
151.07854970336129
 31
0.0
  0
LINE
  5
121
  8
51
 10
-109.887230683163
 20
126.0785497033613
 30
0.0
 11
-109.887230683163
 21
143.8785497033613
 31
0.0
  0
LINE
  5
122
  8
52
 10
-110.68723068316299
 20
126.0785497033613
 30
0.0
 11
-110.68723068316299
 21
143.8785497033613
 31
0.0
  0
LINE
  5
123
  8
52
 10
-113.18723068316299
 20
126.0785497033613
 30
0.0
 11
-113.18723068316299
 21
143.8785497033613
 31
0.0
  0
ARC
  5
124
  8
51
 10
-38.087230683163
 20
160.07854970336129
 30
0.0
 40
6.0999999999999988
 50
0.0
 51
90.000000000000028
  0
ARC
  5
125
  8
51
 10
-108.087230683163
 20
160.07854970336129
 30
0.0
 40
6.0999999999999988
 50
90.000000000000028
 51
180.0
  0
LINE
  5
126
  8
51
 10
-31.987230683163091
 20
126.0785497033613
 30
0.0
 11
-31.98723068316303
 21
160.07854970336129
 31
0.0
  0
LINE
  5
127
  8
51
 10
-114.18723068316299
 20
126.0785497033613
 30
0.0
 11
-114.18723068316299
 21
160.07854970336129
 31
0.0
  0
LINE
  5
128
  8
51
 10
-108.087230683163
 20
166.17854970336131
 30
0.0
 11
-38.087230683163
 21
166.17854970336131
 31
0.0
  0
LINE
  5
133
  8
52
 10
-108.087230683163
 20
154.5940773671137
 30
0.0
 11
-105.18723068316319
 21
154.59407736711381
 31
0.0
  0
LINE
  5
134
  8
52
 10
-38.087230683163057
 20
154.5940773671137
 30
0.0
 11
-40.987230683162913
 21
154.59407736711381
 31
0.0
  0
LINE
  5
135
  8
52
 10
-38.087230683163057
 20
97.563022039608896
 30
0.0
 11
-40.987230683162913
 21
97.563022039608867
 31
0.0
  0
LINE
  5
136
  8
52
 10
-107.6742377135776
 20
97.563022039609663
 30
0.0
 11
-105.18723068316319
 21
97.563022039608867
 31
0.0
  0
ARC
  5
140
  8
52
 10
-108.087230683163
 20
160.07854970336129
 30
0.0
 40
5.5
 50
210.72279077947229
 51
270.0
  0
ARC
  5
141
  8
52
 10
-112.98723068316269
 20
157.16650574764799
 30
0.0
 40
0.2
 50
30.722790779464429
 51
180.0
  0
ARC
  5
142
  8
52
 10
-38.087230683163057
 20
160.07854970336129
 30
0.0
 40
5.5
 50
265.69362770454052
 51
329.27720922054442
  0
ARC
  5
143
  8
52
 10
-33.187230683163023
 20
157.16650574764981
 30
0.0
 40
0.2
 50
0.0
 51
149.27720922054459
  0
ARC
  5
144
  8
52
 10
-38.087230683163
 20
92.078549703361361
 30
0.0
 40
5.4844723362475341
 50
30.458411404434401
 51
90.000000000000583
  0
ARC
  5
145
  8
52
 10
-108.087230683163
 20
92.078549703361347
 30
0.0
 40
5.5
 50
85.693627704702863
 51
149.2772092205405
  0
ARC
  5
146
  8
52
 10
-112.98723068316301
 20
94.990593659073298
 30
0.0
 40
0.2
 50
180.0
 51
329.277209220543
  0
ARC
  5
147
  8
52
 10
-33.187230683163023
 20
94.960081542777118
 30
0.0
 40
0.2
 50
210.45841140444011
 51
0.0
  0
LINE
  5
1AB
  8
43
 10
25.07221257670551
 20
126.0639463440131
 30
0.0
 11
1.395624017922656
 21
126.0639463440131
 31
0.0
  0
LINE
  5
1AD
  8
43
  6
DASHED
 10
8.8895333674493067
 20
161.76660830359
 30
0.0
 11
8.8895333674493173
 21
126.0639463440131
 31
0.0
  0
ARC
  5
1AE
  8
43
  6
DASHED
 10
9.0895333674493042
 20
144.04982101227941
 30
0.0
 40
0.2
 50
89.499999999999119
 51
180.0
  0
ARC
  5
1AF
  8
43
  6
DASHED
 10
9.0895333674493042
 20
108.0780716757468
 30
0.0
 40
0.2
 50
180.0
 51
270.5000000000008
  0
LINE
  5
1B0
  8
43
  6
DASHED
 10
8.8895333674493067
 20
90.361284384436274
 30
0.0
 11
8.8895333674493173
 21
126.0639463440132
 31
0.0
  0
LINE
  5
1B2
  8
41
 10
6.8895333674492596
 20
165.9588649509304
 30
0.0
 11
6.8895333674492596
 21
86.16902773709613
 31
0.0
  0
LINE
  5
1B3
  8
41
 10
20.38953336743424
 20
166.16394634401311
 30
0.0
 11
20.38953336743424
 21
85.963946344013266
 31
0.0
  0
LINE
  5
1B4
  8
41
 10
23.38953336744947
 20
126.0639463440132
 30
0.0
 11
23.38953336744947
 21
162.25957848008571
 31
0.0
  0
LINE
  5
1B5
  8
41
 10
22.9930239816488
 20
162.65956767934409
 30
0.0
 11
20.38953336743424
 21
162.68164803439541
 31
0.0
  0
ARC
  5
1B8
  8
41
 10
22.989533367449472
 20
162.25958291011841
 30
0.0
 40
0.4
 50
359.18882344927448
 51
89.500000000001663
  0
ARC
  5
1B9
  8
41
 10
22.989533367449472
 20
89.868309777907996
 30
0.0
 40
0.4
 50
270.49999999999829
 51
0.8111765507254795
  0
LINE
  5
1BC
  8
41
 10
22.9930239816488
 20
89.468325008682314
 30
0.0
 11
20.38953336743424
 21
89.446244653631027
 31
0.0
  0
LINE
  5
1BD
  8
41
 10
6.8895333674492596
 20
86.16902773709613
 30
0.0
 11
5.389533367449288
 21
87.669027737096087
 31
0.0
  0
LINE
  5
1BE
  8
41
 10
5.3895333674492596
 20
164.45886495093029
 30
0.0
 11
6.889533367449288
 21
165.9588649509304
 31
0.0
  0
LINE
  5
1BF
  8
41
 10
23.38953336744947
 20
126.0639463440132
 30
0.0
 11
23.38953336744947
 21
89.868314207940728
 31
0.0
  0
LINE
  5
1C0
  8
41
 10
5.389533367449288
 20
164.4588649509304
 30
0.0
 11
5.389533367449288
 21
87.669027737096087
 31
0.0
  0
LINE
  5
1C1
  8
41
 10
6.8895333674492596
 20
86.16902773709613
 30
0.0
 11
20.38953336743424
 21
85.963946344013266
 31
0.0
  0
LINE
  5
1C2
  8
41
 10
6.8895333674492596
 20
165.9588649509304
 30
0.0
 11
20.38953336743424
 21
166.16394634401311
 31
0.0
  0
TEXT
  5
1C3
  8
L20
 10
-61.879052128444727
 20
205.61518464224079
 30
0.0
 40
5.0
  1
FIBOX EURONORD II
 41
0.8
  7
ROMANS
  0
LINE
  5
1C5
  8
53
 10
-73.087230683163028
 20
169.17854970336131
 30
0.0
 11
-73.087230683163057
 21
82.978549703361352
 31
0.0
  0
LINE
  5
1C6
  8
53
 10
-28.987230683163091
 20
126.0785497033613
 30
0.0
 11
-117.18723068316299
 21
126.0785497033613
 31
0.0
  0
TEXT
  5
1C9
  8
L20
 10
-61.879052128444727
 20
193.7905205665881
 30
0.0
 40
5.0
  1
80x82x15 COVER
 41
0.8
  7
ROMANS
  0
LINE
  5
1CB
  8
43
  6
DASHED
 10
9.0912786745489846
 20
144.24981339689231
 30
0.0
 11
21.38953336743424
 21
144.44440731756191
 31
0.0
  0
LINE
  5
1CC
  8
43
  6
DASHED
 10
9.0912786745489846
 20
107.878079291134
 30
0.0
 11
21.38953336743424
 21
107.6834853704643
 31
0.0
  0
LINE
  5
1CD
  8
43
  6
DASHED
 10
9.0912786745489846
 20
161.96660068820279
 30
0.0
 11
21.38953336743424
 21
162.16119460887239
 31
0.0
  0
ARC
  5
1CE
  8
43
  6
DASHED
 10
9.0895333674493042
 20
161.76660830359
 30
0.0
 40
0.2
 50
89.499999999999119
 51
180.0
  0
LINE
  5
1CF
  8
43
  6
DASHED
 10
9.0912786745489846
 20
90.161291999823419
 30
0.0
 11
21.38953336743424
 21
89.966698079153787
 31
0.0
  0
ARC
  5
1D0
  8
43
  6
DASHED
 10
9.0895333674493042
 20
90.361284384436274
 30
0.0
 40
0.2
 50
180.0
 51
270.5000000000008
  0
ARC
  5
3CF
  8
0
  6
CONTINUOUS
 62
     7
 10
68.936053655985688
 20
160.0785497033614
 30
0.0
 40
4.16945596273235
 50
46.253817413827882
 51
73.746182586173475
  0
LINE
  5
3D1
  8
0
  6
CONTINUOUS
 62
     7
 10
70.65507796984906
 20
160.11707522895441
 30
0.0
 11
69.762201729059711
 21
158.5705682150361
 31
0.0
  0
ARC
  5
3D2
  8
0
  6
CONTINUOUS
 62
     7
 10
68.936053655985745
 20
160.07854970336149
 30
0.0
 40
4.0974499545946284
 50
259.1597688578143
 51
40.840231142186688
  0
ARC
  5
3D3
  8
0
  6
CONTINUOUS
 62
     7
 10
68.936053655985688
 20
160.0785497033614
 30
0.0
 40
2.9500000000000042
 50
265.07022794934147
 51
34.929772050656801
  0
ARC
  5
3D4
  8
0
  6
CONTINUOUS
 62
     7
 10
68.936053655985688
 20
160.07854970336129
 30
0.0
 40
4.0974499545946284
 50
79.159768857814313
 51
220.8402311421867
  0
ARC
  5
3D5
  8
0
  6
CONTINUOUS
 62
     7
 10
68.836053655985666
 20
160.1785497033612
 30
0.0
 40
4.5166697967918017
 50
90.0
 51
180.0
  0
ARC
  5
3D6
  8
0
  6
CONTINUOUS
 62
     7
 10
68.836053655985666
 20
160.17854970336131
 30
0.0
 40
6.0000000000000142
 50
90.0
 51
180.0
  0
ARC
  5
3D7
  8
0
  6
CONTINUOUS
 62
     7
 10
67.85301837251285
 20
156.3637365998197
 30
0.0
 40
0.2999854796546085
 50
253.74571829138691
 51
330.00046429427152
  0
LINE
  5
3DA
  8
0
  6
CONTINUOUS
 62
     7
 10
69.386027904834123
 20
158.4190160389999
 30
0.0
 11
68.112814634112397
 21
156.21374596523879
 31
0.0
  0
ARC
  5
3DC
  8
0
  6
CONTINUOUS
 62
     7
 10
68.936053655985688
 20
160.0785497033614
 30
0.0
 40
1.719455962732354
 50
285.17070338957518
 51
298.71614348025849
  0
LINE
  5
3DE
  8
0
  6
CONTINUOUS
 62
     7
 10
67.21702934212226
 20
160.0400241777684
 30
0.0
 11
68.109905582911608
 21
161.5865311916867
 31
0.0
  0
ARC
  5
3DF
  8
0
  6
CONTINUOUS
 62
     7
 10
68.936053655985688
 20
160.0785497033614
 30
0.0
 40
1.719455962732344
 50
181.2838565197502
 51
194.8292966104259
  0
ARC
  5
3E0
  8
0
  6
CONTINUOUS
 62
     7
 10
68.936053655985688
 20
160.0785497033614
 30
0.0
 40
1.719455962732352
 50
105.17070338957519
 51
118.71614348025621
  0
ARC
  5
3E1
  8
0
  6
CONTINUOUS
 62
     7
 10
70.019088939463984
 20
163.7933628068873
 30
0.0
 40
0.2999854796682246
 50
73.7457182932297
 51
150.00046429184991
  0
LINE
  5
3E2
  8
0
  6
CONTINUOUS
 62
     7
 10
68.486079407137197
 20
161.73808336772291
 30
0.0
 11
69.759292677858923
 21
163.94335344148391
 31
0.0
  0
ARC
  5
3E3
  8
0
  6
CONTINUOUS
 62
     7
 10
66.260448779756416
 20
157.2832070829123
 30
0.0
 40
0.2999854796664052
 50
149.99953570610251
 51
226.2542817073992
  0
LINE
  5
3E4
  8
0
  6
CONTINUOUS
 62
     7
 10
66.000654949067155
 20
157.4332019279712
 30
0.0
 11
67.273868219788881
 21
159.6384720017322
 31
0.0
  0
ARC
  5
3E5
  8
0
  6
CONTINUOUS
 62
     7
 10
68.936053655985688
 20
160.0785497033614
 30
0.0
 40
2.9500000000000171
 50
85.070227949341543
 51
214.92977205065699
  0
ARC
  5
3E6
  8
0
  6
CONTINUOUS
 62
     7
 10
68.936053655985688
 20
160.0785497033614
 30
0.0
 40
4.16945596273235
 50
226.25381741382799
 51
253.7461825861734
  0
LINE
  5
3E7
  8
0
  6
CONTINUOUS
 62
     7
 10
71.871452362904222
 20
162.72389747875161
 30
0.0
 11
70.598239092182439
 21
160.5186274049905
 31
0.0
  0
ARC
  5
3EA
  8
0
  6
CONTINUOUS
 62
     7
 10
68.936053655985688
 20
160.0785497033614
 30
0.0
 40
1.7194559627323469
 50
1.283856519776283
 51
14.82929661042597
  0
ARC
  5
3EB
  8
0
  6
CONTINUOUS
 62
     7
 10
71.611658532196714
 20
162.87389232380951
 30
0.0
 40
0.29998547967963
 50
329.99953570866671
 51
46.254281705010619
  0
ARC
  5
3EC
  8
0
  6
CONTINUOUS
 62
     7
 10
138.9360536559858
 20
160.0785497033614
 30
0.0
 40
4.16945596273235
 50
286.25381741382648
 51
313.74618258617193
  0
LINE
  5
3ED
  8
0
  6
CONTINUOUS
 62
     7
 10
140.6550779698492
 20
160.0400241777684
 30
0.0
 11
139.7622017290598
 21
161.5865311916867
 31
0.0
  0
ARC
  5
3EE
  8
0
  6
CONTINUOUS
 62
     7
 10
139.0360536559858
 20
160.17854970336131
 30
0.0
 40
6.0000000000000142
 50
0.0
 51
90.0
  0
ARC
  5
3EF
  8
0
  6
CONTINUOUS
 62
     7
 10
139.0360536559858
 20
160.1785497033612
 30
0.0
 40
4.5166697967918017
 50
0.0
 51
90.0
  0
ARC
  5
3F0
  8
0
  6
CONTINUOUS
 62
     7
 10
138.9360536559858
 20
160.07854970336129
 30
0.0
 40
4.0974499545946284
 50
319.15976885781322
 51
100.8402311421856
  0
ARC
  5
3F1
  8
0
  6
CONTINUOUS
 62
     7
 10
138.9360536559858
 20
160.0785497033614
 30
0.0
 40
2.9500000000000171
 50
325.07022794934289
 51
94.929772050658443
  0
ARC
  5
3F2
  8
0
  6
CONTINUOUS
 62
     7
 10
138.93605365598569
 20
160.07854970336149
 30
0.0
 40
4.0974499545946284
 50
139.1597688578133
 51
280.84023114218559
  0
LINE
  5
3F3
  8
0
  6
CONTINUOUS
 62
     7
 10
137.2170293421224
 20
160.11707522895441
 30
0.0
 11
138.10990558291169
 21
158.5705682150361
 31
0.0
  0
LINE
  5
3F4
  8
0
  6
CONTINUOUS
 62
     7
 10
137.21088456250521
 20
160.11550068454551
 30
0.0
 11
138.10546959764571
 21
158.56603395199139
 31
0.0
  0
ARC
  5
3F5
  8
0
  6
CONTINUOUS
 62
     7
 10
138.9360536559858
 20
160.0785497033614
 30
0.0
 40
1.7194559627323469
 50
165.17070338957399
 51
178.71614348022371
  0
LINE
  5
3F6
  8
0
  6
CONTINUOUS
 62
     7
 10
137.2170293421224
 20
160.11707522895441
 30
0.0
 11
137.21088456250521
 21
160.11550068454551
 31
0.0
  0
ARC
  5
3F7
  8
0
  6
CONTINUOUS
 62
     7
 10
138.9360536559858
 20
160.0785497033614
 30
0.0
 40
1.725564770188071
 50
165.25442913122691
 51
178.7729831146884
  0
LINE
  5
3F8
  8
0
  6
CONTINUOUS
 62
     7
 10
138.10990558291169
 20
158.5705682150361
 30
0.0
 11
138.10546959764571
 21
158.56603395199139
 31
0.0
  0
ARC
  5
3F9
  8
0
  6
CONTINUOUS
 62
     7
 10
138.9360536559858
 20
160.0785497033614
 30
0.0
 40
1.719455962732354
 50
241.28385651974139
 51
254.82929661042471
  0
ARC
  5
3FA
  8
0
  6
CONTINUOUS
 62
     7
 10
138.9360536559858
 20
160.0785497033614
 30
0.0
 40
1.7255647701880641
 50
241.227016883863
 51
254.74557086877249
  0
LINE
  5
3FB
  8
0
  6
CONTINUOUS
 62
     7
 10
138.48607940713731
 20
158.4190160389999
 30
0.0
 11
139.75929267785901
 21
156.21374596523879
 31
0.0
  0
LINE
  5
3FC
  8
0
  6
CONTINUOUS
 62
     7
 10
138.4820475660743
 20
158.41378177766191
 30
0.0
 11
138.622902621311
 21
158.1698136654891
 31
0.0
  0
LINE
  5
3FD
  8
0
  6
CONTINUOUS
 62
     7
 10
138.48607940713731
 20
158.4190160389999
 30
0.0
 11
138.4820475660743
 21
158.41378177766191
 31
0.0
  0
ARC
  5
3FE
  8
0
  6
CONTINUOUS
 62
     7
 10
140.01908893945861
 20
156.3637365998197
 30
0.0
 40
0.2999854796546085
 50
209.99953570572839
 51
286.25428170861301
  0
LINE
  5
3FF
  8
0
  6
CONTINUOUS
 62
     7
 10
139.38602790483421
 20
161.73808336772291
 30
0.0
 11
138.11281463411251
 21
163.94335344148391
 31
0.0
  0
ARC
  5
400
  8
0
  6
CONTINUOUS
 62
     7
 10
137.85301837250751
 20
163.7933628068873
 30
0.0
 40
0.2999854796682246
 50
29.999535708150109
 51
106.2542817067702
  0
ARC
  5
401
  8
0
  6
CONTINUOUS
 62
     7
 10
138.9360536559858
 20
160.0785497033614
 30
0.0
 40
1.719455962732352
 50
61.283856519743779
 51
74.829296610424763
  0
ARC
  5
402
  8
0
  6
CONTINUOUS
 62
     7
 10
136.26044877977469
 20
162.87389232380951
 30
0.0
 40
0.29998547967963
 50
133.7457182949893
 51
210.0004642913332
  0
ARC
  5
403
  8
0
  6
CONTINUOUS
 62
     7
 10
138.9360536559858
 20
160.0785497033614
 30
0.0
 40
2.9500000000000042
 50
145.07022794934321
 51
274.92977205065841
  0
ARC
  5
404
  8
0
  6
CONTINUOUS
 62
     7
 10
138.9360536559858
 20
160.0785497033614
 30
0.0
 40
4.16945596273235
 50
106.2538174138265
 51
133.7461825861721
  0
LINE
  5
405
  8
0
  6
CONTINUOUS
 62
     7
 10
136.00065494906721
 20
162.72389747875161
 30
0.0
 11
137.27386821978899
 21
160.5186274049905
 31
0.0
  0
LINE
  5
406
  8
0
  6
CONTINUOUS
 62
     7
 10
141.87145236290431
 20
157.4332019279712
 30
0.0
 11
140.59823909218261
 21
159.6384720017322
 31
0.0
  0
ARC
  5
407
  8
0
  6
CONTINUOUS
 62
     7
 10
141.61165853221499
 20
157.2832070829123
 30
0.0
 40
0.2999854796664052
 50
313.74571829260071
 51
30.000464293897458
  0
ARC
  5
408
  8
0
  6
CONTINUOUS
 62
     7
 10
138.9360536559858
 20
160.0785497033614
 30
0.0
 40
1.719455962732344
 50
345.17070338957399
 51
358.7161434802498
  0
ARC
  5
409
  8
0
  6
CONTINUOUS
 62
     7
 10
68.836053655985666
 20
91.978549703360841
 30
0.0
 40
6.0000000000000142
 50
180.0
 51
270.0
  0
ARC
  5
40A
  8
0
  6
CONTINUOUS
 62
     7
 10
68.936053655985688
 20
92.07854970336075
 30
0.0
 40
4.16945596273235
 50
286.25381741382648
 51
313.74618258617198
  0
LINE
  5
40B
  8
0
  6
CONTINUOUS
 62
     7
 10
70.65507796984906
 20
92.040024177767677
 30
0.0
 11
69.762201729059711
 21
93.586531191686049
 31
0.0
  0
LINE
  5
40C
  8
0
  6
CONTINUOUS
 62
     7
 10
70.661222749466205
 20
92.041598722176673
 30
0.0
 11
69.766637714325782
 21
93.59106545473071
 31
0.0
  0
ARC
  5
40D
  8
0
  6
CONTINUOUS
 62
     7
 10
68.936053655985688
 20
92.07854970336075
 30
0.0
 40
2.9500000000000042
 50
325.07022794934312
 51
94.929772050658443
  0
ARC
  5
40E
  8
0
  6
CONTINUOUS
 62
     7
 10
68.936053655985745
 20
92.078549703360636
 30
0.0
 40
4.0974499545946284
 50
319.15976885781322
 51
100.8402311421856
  0
ARC
  5
40F
  8
0
  6
CONTINUOUS
 62
     7
 10
68.836053655985666
 20
91.978549703360841
 30
0.0
 40
4.5166697967918017
 50
180.0
 51
270.0
  0
ARC
  5
410
  8
0
  6
CONTINUOUS
 62
     7
 10
68.936053655985688
 20
92.07854970336075
 30
0.0
 40
4.0974499545946284
 50
139.1597688578133
 51
280.84023114218559
  0
LINE
  5
411
  8
0
  6
CONTINUOUS
 62
     7
 10
69.386027904834123
 20
93.738083367722183
 30
0.0
 11
68.112814634112397
 21
95.943353441483282
 31
0.0
  0
LINE
  5
412
  8
0
  6
CONTINUOUS
 62
     7
 10
68.486079407137197
 20
90.419016038999189
 30
0.0
 11
69.759292677858923
 21
88.213745965238218
 31
0.0
  0
ARC
  5
413
  8
0
  6
CONTINUOUS
 62
     7
 10
70.019088939463984
 20
88.363736599834837
 30
0.0
 40
0.2999854796682246
 50
209.99953570815001
 51
286.25428170677031
  0
LINE
  5
414
  8
0
  6
CONTINUOUS
 62
     7
 10
67.21702934212226
 20
92.117075228953695
 30
0.0
 11
68.109905582911608
 21
90.570568215035394
 31
0.0
  0
ARC
  5
415
  8
0
  6
CONTINUOUS
 62
     7
 10
68.936053655985688
 20
92.07854970336075
 30
0.0
 40
1.719455962732344
 50
165.17070338957399
 51
178.71614348024971
  0
ARC
  5
416
  8
0
  6
CONTINUOUS
 62
     7
 10
68.936053655985688
 20
92.07854970336075
 30
0.0
 40
1.719455962732352
 50
241.28385651974381
 51
254.82929661042471
  0
LINE
  5
417
  8
0
  6
CONTINUOUS
 62
     7
 10
69.762201729059711
 20
93.586531191686049
 30
0.0
 11
69.766637714325782
 21
93.59106545473071
 31
0.0
  0
ARC
  5
418
  8
0
  6
CONTINUOUS
 62
     7
 10
68.936053655985688
 20
92.07854970336075
 30
0.0
 40
1.719455962732354
 50
61.283856519741462
 51
74.829296610424763
  0
ARC
  5
419
  8
0
  6
CONTINUOUS
 62
     7
 10
68.936053655985688
 20
92.07854970336075
 30
0.0
 40
1.7255647701880641
 50
61.227016883863172
 51
74.745570868772546
  0
LINE
  5
41A
  8
0
  6
CONTINUOUS
 62
     7
 10
69.390059745897133
 20
93.74331762906013
 30
0.0
 11
69.249204690660463
 21
93.987285741232995
 31
0.0
  0
LINE
  5
41B
  8
0
  6
CONTINUOUS
 62
     7
 10
69.386027904834123
 20
93.738083367722183
 30
0.0
 11
69.390059745897133
 21
93.74331762906013
 31
0.0
  0
ARC
  5
41C
  8
0
  6
CONTINUOUS
 62
     7
 10
67.85301837251285
 20
95.793362806902394
 30
0.0
 40
0.2999854796546085
 50
29.999535705728409
 51
106.25428170861299
  0
ARC
  5
41D
  8
0
  6
CONTINUOUS
 62
     7
 10
66.260448779756416
 20
94.873892323809756
 30
0.0
 40
0.2999854796664052
 50
133.74571829260071
 51
210.00046429389741
  0
ARC
  5
41E
  8
0
  6
CONTINUOUS
 62
     7
 10
68.936053655985688
 20
92.07854970336075
 30
0.0
 40
2.9500000000000171
 50
145.07022794934289
 51
274.92977205065841
  0
LINE
  5
41F
  8
0
  6
CONTINUOUS
 62
     7
 10
66.000654949067155
 20
94.723897478750928
 30
0.0
 11
67.273868219788881
 21
92.518627404989829
 31
0.0
  0
ARC
  5
420
  8
0
  6
CONTINUOUS
 62
     7
 10
68.936053655985688
 20
92.07854970336075
 30
0.0
 40
4.16945596273235
 50
106.2538174138265
 51
133.7461825861719
  0
LINE
  5
421
  8
0
  6
CONTINUOUS
 62
     7
 10
71.871452362904222
 20
89.433201927970586
 30
0.0
 11
70.598239092182439
 21
91.638472001731543
 31
0.0
  0
ARC
  5
422
  8
0
  6
CONTINUOUS
 62
     7
 10
68.936053655985688
 20
92.07854970336075
 30
0.0
 40
1.7194559627323469
 50
345.17070338957399
 51
358.71614348022359
  0
LINE
  5
423
  8
0
  6
CONTINUOUS
 62
     7
 10
70.65507796984906
 20
92.040024177767677
 30
0.0
 11
70.661222749466205
 21
92.041598722176673
 31
0.0
  0
ARC
  5
424
  8
0
  6
CONTINUOUS
 62
     7
 10
68.936053655985688
 20
92.07854970336075
 30
0.0
 40
1.725564770188071
 50
345.25442913122691
 51
358.77298311468832
  0
ARC
  5
425
  8
0
  6
CONTINUOUS
 62
     7
 10
71.611658532196714
 20
89.283207082912554
 30
0.0
 40
0.29998547967963
 50
313.74571829498927
 51
30.000464291333259
  0
ARC
  5
426
  8
0
  6
CONTINUOUS
 62
     7
 10
139.0360536559858
 20
91.978549703360841
 30
0.0
 40
6.0000000000000142
 50
270.0
 51
0.0
  0
LINE
  5
427
  8
0
  6
CONTINUOUS
 62
     7
 10
140.6550779698492
 20
92.117075228953695
 30
0.0
 11
139.7622017290598
 21
90.570568215035394
 31
0.0
  0
ARC
  5
428
  8
0
  6
CONTINUOUS
 62
     7
 10
138.9360536559858
 20
92.07854970336075
 30
0.0
 40
4.16945596273235
 50
46.253817413828031
 51
73.746182586173475
  0
ARC
  5
429
  8
0
  6
CONTINUOUS
 62
     7
 10
138.9360536559858
 20
92.07854970336075
 30
0.0
 40
2.9500000000000171
 50
265.07022794934147
 51
34.929772050657029
  0
ARC
  5
42A
  8
0
  6
CONTINUOUS
 62
     7
 10
138.9360536559858
 20
92.07854970336075
 30
0.0
 40
4.0974499545946284
 50
259.1597688578143
 51
40.840231142186688
  0
ARC
  5
42B
  8
0
  6
CONTINUOUS
 62
     7
 10
139.0360536559858
 20
91.978549703360841
 30
0.0
 40
4.5166697967918017
 50
270.0
 51
0.0
  0
ARC
  5
42C
  8
0
  6
CONTINUOUS
 62
     7
 10
138.93605365598569
 20
92.078549703360636
 30
0.0
 40
4.0974499545946284
 50
79.159768857814313
 51
220.8402311421867
  0
LINE
  5
42D
  8
0
  6
CONTINUOUS
 62
     7
 10
138.48607940713731
 20
93.738083367722183
 30
0.0
 11
139.75929267785901
 21
95.943353441483282
 31
0.0
  0
LINE
  5
42E
  8
0
  6
CONTINUOUS
 62
     7
 10
137.21088456250521
 20
92.041598722176673
 30
0.0
 11
138.10546959764571
 21
93.59106545473071
 31
0.0
  0
LINE
  5
42F
  8
0
  6
CONTINUOUS
 62
     7
 10
137.2170293421224
 20
92.040024177767677
 30
0.0
 11
138.10990558291169
 21
93.586531191686049
 31
0.0
  0
ARC
  5
430
  8
0
  6
CONTINUOUS
 62
     7
 10
138.9360536559858
 20
92.07854970336075
 30
0.0
 40
1.725564770188071
 50
181.2270168853116
 51
194.745570868773
  0
LINE
  5
431
  8
0
  6
CONTINUOUS
 62
     7
 10
137.2170293421224
 20
92.040024177767677
 30
0.0
 11
137.21088456250521
 21
92.041598722176673
 31
0.0
  0
ARC
  5
432
  8
0
  6
CONTINUOUS
 62
     7
 10
138.9360536559858
 20
92.07854970336075
 30
0.0
 40
1.7194559627323469
 50
181.28385651977621
 51
194.8292966104259
  0
LINE
  5
433
  8
0
  6
CONTINUOUS
 62
     7
 10
139.38602790483421
 20
90.419016038999189
 30
0.0
 11
138.11281463411251
 21
88.213745965238218
 31
0.0
  0
ARC
  5
434
  8
0
  6
CONTINUOUS
 62
     7
 10
137.85301837250751
 20
88.363736599834837
 30
0.0
 40
0.2999854796682246
 50
253.7457182932296
 51
330.00046429184971
  0
ARC
  5
435
  8
0
  6
CONTINUOUS
 62
     7
 10
138.9360536559858
 20
92.07854970336075
 30
0.0
 40
1.719455962732352
 50
285.17070338957518
 51
298.71614348025622
  0
LINE
  5
436
  8
0
  6
CONTINUOUS
 62
     7
 10
138.48607940713731
 20
93.738083367722183
 30
0.0
 11
138.4820475660743
 21
93.74331762906013
 31
0.0
  0
LINE
  5
437
  8
0
  6
CONTINUOUS
 62
     7
 10
138.4820475660743
 20
93.74331762906013
 30
0.0
 11
138.622902621311
 21
93.987285741232995
 31
0.0
  0
ARC
  5
438
  8
0
  6
CONTINUOUS
 62
     7
 10
138.9360536559858
 20
92.07854970336075
 30
0.0
 40
1.7255647701880641
 50
105.2544291312274
 51
118.7729831161368
  0
ARC
  5
439
  8
0
  6
CONTINUOUS
 62
     7
 10
138.9360536559858
 20
92.07854970336075
 30
0.0
 40
1.719455962732354
 50
105.17070338957519
 51
118.71614348025849
  0
LINE
  5
43A
  8
0
  6
CONTINUOUS
 62
     7
 10
138.10990558291169
 20
93.586531191686049
 30
0.0
 11
138.10546959764571
 21
93.59106545473071
 31
0.0
  0
ARC
  5
43B
  8
0
  6
CONTINUOUS
 62
     7
 10
140.01908893945861
 20
95.793362806902394
 30
0.0
 40
0.2999854796546085
 50
73.74571829138695
 51
150.00046429427161
  0
ARC
  5
43C
  8
0
  6
CONTINUOUS
 62
     7
 10
136.26044877977469
 20
89.283207082912554
 30
0.0
 40
0.29998547967963
 50
149.99953570866671
 51
226.25428170501061
  0
ARC
  5
43D
  8
0
  6
CONTINUOUS
 62
     7
 10
138.9360536559858
 20
92.07854970336075
 30
0.0
 40
2.9500000000000042
 50
85.070227949341543
 51
214.92977205065679
  0
ARC
  5
43E
  8
0
  6
CONTINUOUS
 62
     7
 10
138.9360536559858
 20
92.07854970336075
 30
0.0
 40
4.16945596273235
 50
226.25381741382779
 51
253.7461825861734
  0
LINE
  5
43F
  8
0
  6
CONTINUOUS
 62
     7
 10
136.00065494906721
 20
89.433201927970586
 30
0.0
 11
137.27386821978899
 21
91.638472001731543
 31
0.0
  0
ARC
  5
440
  8
0
  6
CONTINUOUS
 62
     7
 10
141.61165853221499
 20
94.873892323809756
 30
0.0
 40
0.2999854796664052
 50
329.99953570610251
 51
46.254281707399223
  0
LINE
  5
441
  8
0
  6
CONTINUOUS
 62
     7
 10
141.87145236290431
 20
94.723897478750928
 30
0.0
 11
140.59823909218261
 21
92.518627404989829
 31
0.0
  0
ARC
  5
442
  8
0
  6
CONTINUOUS
 62
     7
 10
138.9360536559858
 20
92.07854970336075
 30
0.0
 40
1.719455962732344
 50
1.283856519750221
 51
14.82929661042597
  0
LINE
  5
443
  8
41
 10
184.4825739445215
 20
126.0639463440132
 30
0.0
 11
184.4825739445215
 21
162.25957848008571
 31
0.0
  0
LINE
  5
444
  8
41
 10
187.4825739445368
 20
166.16394634401311
 30
0.0
 11
187.4825739445368
 21
85.963946344013266
 31
0.0
  0
LINE
  5
445
  8
41
 10
200.98257394452179
 20
165.9588649509304
 30
0.0
 11
200.98257394452179
 21
86.16902773709613
 31
0.0
  0
LINE
  5
446
  8
41
 10
202.4825739445217
 20
164.4588649509304
 30
0.0
 11
202.4825739445217
 21
87.669027737096087
 31
0.0
  0
LINE
  5
447
  8
43
  6
DASHED
 10
198.78082863742199
 20
161.96660068820279
 30
0.0
 11
186.4825739445368
 21
162.16119460887239
 31
0.0
  0
LINE
  5
448
  8
43
 10
182.7998947352655
 20
126.0639463440131
 30
0.0
 11
206.47648329404839
 21
126.0639463440131
 31
0.0
  0
LINE
  5
449
  8
41
 10
184.4825739445215
 20
126.0639463440132
 30
0.0
 11
184.4825739445215
 21
89.868314207940728
 31
0.0
  0
LINE
  5
44A
  8
43
  6
DASHED
 10
198.9825739445217
 20
90.361284384436274
 30
0.0
 11
198.9825739445217
 21
126.0639463440132
 31
0.0
  0
LINE
  5
44B
  8
41
 10
200.98257394452179
 20
86.16902773709613
 30
0.0
 11
187.4825739445368
 21
85.963946344013266
 31
0.0
  0
LINE
  5
44C
  8
43
  6
DASHED
 10
198.78082863742199
 20
90.161291999823419
 30
0.0
 11
186.4825739445368
 21
89.966698079153787
 31
0.0
  0
LINE
  5
44D
  8
41
 10
200.98257394452179
 20
86.16902773709613
 30
0.0
 11
202.4825739445217
 21
87.669027737096087
 31
0.0
  0
ARC
  5
44E
  8
43
  6
DASHED
 10
198.78257394452169
 20
90.361284384436274
 30
0.0
 40
0.2
 50
269.49999999999898
 51
0.000000000000007
  0
ARC
  5
44F
  8
41
 10
184.88257394452151
 20
89.868309777907996
 30
0.0
 40
0.4
 50
179.18882344927451
 51
269.50000000000159
  0
LINE
  5
450
  8
41
 10
184.8790833303222
 20
89.468325008682314
 30
0.0
 11
187.4825739445368
 21
89.446244653631027
 31
0.0
  0
LINE
  5
451
  8
43
  6
DASHED
 10
198.9825739445217
 20
161.76660830359
 30
0.0
 11
198.9825739445217
 21
126.0639463440131
 31
0.0
  0
LINE
  5
452
  8
43
  6
DASHED
 10
198.78082863742199
 20
107.878079291134
 30
0.0
 11
186.4825739445368
 21
107.6834853704643
 31
0.0
  0
ARC
  5
453
  8
43
  6
DASHED
 10
198.78257394452169
 20
108.0780716757468
 30
0.0
 40
0.2
 50
269.49999999999898
 51
0.000000000000007
  0
LINE
  5
454
  8
43
  6
DASHED
 10
198.78082863742199
 20
144.24981339689231
 30
0.0
 11
186.4825739445368
 21
144.44440731756191
 31
0.0
  0
ARC
  5
455
  8
43
  6
DASHED
 10
198.78257394452169
 20
144.04982101227941
 30
0.0
 40
0.2
 50
0.000000000000007
 51
90.500000000000867
  0
ARC
  5
456
  8
43
  6
DASHED
 10
198.78257394452169
 20
161.76660830359
 30
0.0
 40
0.2
 50
0.000000000000007
 51
90.500000000000867
  0
LINE
  5
457
  8
41
 10
200.98257394452179
 20
165.9588649509304
 30
0.0
 11
187.4825739445368
 21
166.16394634401311
 31
0.0
  0
LINE
  5
458
  8
41
 10
202.4825739445217
 20
164.45886495093029
 30
0.0
 11
200.98257394452179
 21
165.9588649509304
 31
0.0
  0
ARC
  5
459
  8
41
 10
184.88257394452151
 20
162.25958291011841
 30
0.0
 40
0.4
 50
90.499999999998323
 51
180.81117655072541
  0
LINE
  5
45A
  8
41
 10
184.8790833303222
 20
162.65956767934409
 30
0.0
 11
187.4825739445368
 21
162.68164803439541
 31
0.0
  0
LINE
  5
45B
  8
43
  6
DASHED
 10
68.033399311795762
 20
220.92332468479779
 30
0.0
 11
67.838805391126186
 21
208.62506999191251
 31
0.0
  0
LINE
  5
45C
  8
41
 10
65.541135049068231
 20
224.6250699918975
 30
0.0
 11
142.33097226290261
 21
224.6250699918975
 31
0.0
  0
LINE
  5
45D
  8
41
 10
64.041135049068231
 20
223.1250699918975
 30
0.0
 11
143.83097226290249
 21
223.1250699918975
 31
0.0
  0
LINE
  5
45E
  8
41
 10
63.836053655985467
 20
209.62506999191251
 30
0.0
 11
144.0360536559854
 21
209.62506999191251
 31
0.0
  0
LINE
  5
45F
  8
41
 10
103.9360536559854
 20
206.62506999189731
 30
0.0
 11
67.740421519912957
 21
206.62506999189731
 31
0.0
  0
LINE
  5
460
  8
43
  6
DASHED
 10
139.6387156155624
 20
221.12506999189739
 30
0.0
 11
103.9360536559854
 21
221.12506999189739
 31
0.0
  0
LINE
  5
461
  8
41
 10
103.9360536559854
 20
206.62506999189731
 30
0.0
 11
140.13168579205791
 21
206.62506999189731
 31
0.0
  0
LINE
  5
462
  8
41
 10
140.53167499131629
 20
207.021579377698
 30
0.0
 11
140.55375534636761
 21
209.62506999191251
 31
0.0
  0
LINE
  5
463
  8
43
  6
DASHED
 10
139.83870800017519
 20
220.92332468479779
 30
0.0
 11
140.03330192084491
 21
208.62506999191251
 31
0.0
  0
ARC
  5
464
  8
41
 10
140.13169022209061
 20
207.02506999189731
 30
0.0
 40
0.4
 50
269.18882344927448
 51
359.50000000000159
  0
LINE
  5
465
  8
41
 10
143.83097226290249
 20
223.1250699918975
 30
0.0
 11
144.0360536559854
 21
209.62506999191251
 31
0.0
  0
ARC
  5
466
  8
43
  6
DASHED
 10
139.63871561556229
 20
220.92506999189749
 30
0.0
 40
0.2
 50
359.49999999999898
 51
90.000000000000028
  0
LINE
  5
467
  8
41
 10
143.83097226290249
 20
223.1250699918975
 30
0.0
 11
142.33097226290261
 21
224.6250699918975
 31
0.0
  0
LINE
  5
468
  8
43
  6
DASHED
 10
76.130647576654582
 20
220.92332468479771
 30
0.0
 11
75.936053655985006
 21
208.62506999191251
 31
0.0
  0
LINE
  5
46A
  8
43
 10
103.9360536559855
 20
204.9423907826413
 30
0.0
 11
103.9360536559855
 21
228.61897934142419
 31
0.0
  0
LINE
  5
46B
  8
43
  6
DASHED
 10
68.233391696408574
 20
221.12506999189739
 30
0.0
 11
103.9360536559855
 21
221.12506999189739
 31
0.0
  0
ARC
  5
46D
  8
43
  6
DASHED
 10
76.330639961267408
 20
220.9250699918974
 30
0.0
 40
0.2
 50
90.000000000000028
 51
180.5000000000008
  0
ARC
  5
46E
  8
43
  6
DASHED
 10
68.233391696408589
 20
220.92506999189749
 30
0.0
 40
0.2
 50
90.000000000000028
 51
180.5000000000008
  0
LINE
  5
46F
  8
41
 10
67.340432320654543
 20
207.021579377698
 30
0.0
 11
67.318351965603213
 21
209.62506999191251
 31
0.0
  0
ARC
  5
470
  8
41
 10
67.740417089880239
 20
207.02506999189731
 30
0.0
 40
0.4
 50
180.49999999999829
 51
270.81117655072541
  0
LINE
  5
471
  8
41
 10
64.041135049068231
 20
223.1250699918975
 30
0.0
 11
63.836053655985467
 21
209.62506999191251
 31
0.0
  0
LINE
  5
472
  8
41
 10
65.541135049068288
 20
224.6250699918975
 30
0.0
 11
64.041135049068231
 21
223.1250699918975
 31
0.0
  0
LINE
  5
48B
  8
43
  6
DASHED
 10
131.74145973531651
 20
220.92332468479771
 30
0.0
 11
131.936053655986
 21
208.62506999191251
 31
0.0
  0
ARC
  5
48C
  8
43
  6
DASHED
 10
131.54146735070361
 20
220.9250699918974
 30
0.0
 40
0.2
 50
359.49999999999898
 51
89.999999999999986
  0
LINE
  5
48D
  8
41
 10
103.9360536559854
 20
45.532029414825331
 30
0.0
 11
140.13168579205791
 21
45.532029414825331
 31
0.0
  0
LINE
  5
48E
  8
43
  6
DASHED
 10
139.6387156155624
 20
31.032029414825161
 30
0.0
 11
103.9360536559854
 21
31.032029414825161
 31
0.0
  0
LINE
  5
48F
  8
41
 10
63.836053655985467
 20
42.53202941481009
 30
0.0
 11
144.0360536559854
 21
42.53202941481009
 31
0.0
  0
LINE
  5
490
  8
41
 10
64.041135049068231
 20
29.0320294148251
 30
0.0
 11
143.83097226290249
 21
29.0320294148251
 31
0.0
  0
LINE
  5
491
  8
41
 10
65.541135049068231
 20
27.5320294148251
 30
0.0
 11
142.33097226290261
 21
27.5320294148251
 31
0.0
  0
LINE
  5
492
  8
43
  6
DASHED
 10
68.233391696408574
 20
31.032029414825161
 30
0.0
 11
103.9360536559855
 21
31.032029414825161
 31
0.0
  0
LINE
  5
493
  8
41
 10
103.9360536559854
 20
45.532029414825331
 30
0.0
 11
67.740421519912957
 21
45.532029414825331
 31
0.0
  0
LINE
  5
494
  8
41
 10
64.041135049068231
 20
29.0320294148251
 30
0.0
 11
63.836053655985467
 21
42.53202941481009
 31
0.0
  0
LINE
  5
495
  8
43
  6
DASHED
 10
68.033399311795762
 20
31.233774721924821
 30
0.0
 11
67.838805391126186
 21
43.532029414810097
 31
0.0
  0
ARC
  5
496
  8
41
 10
67.740417089880239
 20
45.13202941482529
 30
0.0
 40
0.4
 50
89.188823449274537
 51
179.50000000000159
  0
LINE
  5
497
  8
41
 10
67.340432320654543
 20
45.135520029024633
 30
0.0
 11
67.318351965603213
 21
42.53202941481009
 31
0.0
  0
LINE
  5
498
  8
41
 10
65.541135049068288
 20
27.5320294148251
 30
0.0
 11
64.041135049068231
 21
29.0320294148251
 31
0.0
  0
ARC
  5
499
  8
43
  6
DASHED
 10
68.233391696408589
 20
31.232029414825149
 30
0.0
 40
0.2
 50
179.49999999999909
 51
270.0
  0
LINE
  5
49A
  8
43
 10
103.9360536559855
 20
47.214708624081361
 30
0.0
 11
103.9360536559855
 21
23.538120065298472
 31
0.0
  0
LINE
  5
49B
  8
43
  6
DASHED
 10
76.130647576654582
 20
31.23377472192487
 30
0.0
 11
75.936053655985006
 21
43.532029414810147
 31
0.0
  0
ARC
  5
49C
  8
43
  6
DASHED
 10
76.330639961267408
 20
31.232029414825199
 30
0.0
 40
0.2
 50
179.49999999999909
 51
270.0
  0
ARC
  5
49D
  8
41
 10
140.13169022209061
 20
45.13202941482529
 30
0.0
 40
0.4
 50
0.4999999999983545
 51
90.811176550725492
  0
LINE
  5
49E
  8
43
  6
DASHED
 10
139.83870800017519
 20
31.233774721924821
 30
0.0
 11
140.03330192084491
 21
43.532029414810097
 31
0.0
  0
LINE
  5
49F
  8
43
  6
DASHED
 10
131.74145973531651
 20
31.23377472192487
 30
0.0
 11
131.936053655986
 21
43.532029414810147
 31
0.0
  0
ARC
  5
4A0
  8
43
  6
DASHED
 10
131.54146735070361
 20
31.232029414825199
 30
0.0
 40
0.2
 50
270.0
 51
0.500000000000899
  0
ARC
  5
4A1
  8
43
  6
DASHED
 10
139.63871561556229
 20
31.232029414825149
 30
0.0
 40
0.2
 50
270.0
 51
0.500000000000899
  0
LINE
  5
4A2
  8
41
 10
143.83097226290249
 20
29.0320294148251
 30
0.0
 11
144.0360536559854
 21
42.53202941481009
 31
0.0
  0
LINE
  5
4A3
  8
41
 10
140.53167499131629
 20
45.135520029024633
 30
0.0
 11
140.55375534636761
 21
42.53202941481009
 31
0.0
  0
LINE
  5
4A4
  8
41
 10
143.83097226290249
 20
29.0320294148251
 30
0.0
 11
142.33097226290261
 21
27.5320294148251
 31
0.0
  0
ARC
  5
62E
  8
52
 10
-108.0872306831628
 20
160.0785497033614
 30
0.0
 40
4.16945596273235
 50
46.253817413827882
 51
73.746182586173475
  0
ARC
  5
62F
  8
52
 10
-107.00419539968451
 20
163.7933628068873
 30
0.0
 40
0.2999854796682246
 50
73.7457182932297
 51
150.00046429184991
  0
ARC
  5
630
  8
52
 10
-105.4116258069518
 20
162.8738923238096
 30
0.0
 40
0.29998547967963
 50
329.99953570866671
 51
46.254281705010619
  0
LINE
  5
631
  8
52
 10
-108.53720493201131
 20
161.73808336772299
 30
0.0
 11
-107.26399166128959
 21
163.94335344148399
 31
0.0
  0
LINE
  5
632
  8
52
 10
-105.1518319762443
 20
162.72389747875161
 30
0.0
 11
-106.42504524696611
 21
160.51862740499061
 31
0.0
  0
ARC
  5
633
  8
52
 10
-108.0872306831628
 20
160.0785497033614
 30
0.0
 40
1.7194559627323469
 50
1.283856519776283
 51
14.82929661042597
  0
ARC
  5
634
  8
52
 10
-108.0872306831628
 20
160.0785497033614
 30
0.0
 40
1.719455962732352
 50
105.17070338957519
 51
118.71614348025621
  0
ARC
  5
635
  8
52
 10
-108.0872306831628
 20
160.0785497033614
 30
0.0
 40
1.719455962732344
 50
181.2838565197502
 51
194.8292966104259
  0
LINE
  5
636
  8
52
 10
-109.8062549970263
 20
160.04002417776849
 30
0.0
 11
-108.9133787562369
 21
161.5865311916867
 31
0.0
  0
ARC
  5
637
  8
52
 10
-108.0872306831628
 20
160.0785497033614
 30
0.0
 40
1.719455962732354
 50
285.17070338957518
 51
298.71614348025849
  0
LINE
  5
638
  8
52
 10
-106.3682063692995
 20
160.11707522895441
 30
0.0
 11
-107.26108261008881
 21
158.5705682150361
 31
0.0
  0
ARC
  5
639
  8
52
 10
-108.0872306831628
 20
160.0785497033614
 30
0.0
 40
4.16945596273235
 50
226.25381741382799
 51
253.7461825861734
  0
LINE
  5
63A
  8
52
 10
-111.02262939008141
 20
157.43320192797131
 30
0.0
 11
-109.74941611935959
 21
159.63847200173231
 31
0.0
  0
ARC
  5
63B
  8
52
 10
-110.7628355593921
 20
157.28320708291241
 30
0.0
 40
0.2999854796664052
 50
149.99953570610251
 51
226.2542817073992
  0
LINE
  5
63C
  8
52
 10
-107.63725643431439
 20
158.4190160389999
 30
0.0
 11
-108.91046970503611
 21
156.2137459652389
 31
0.0
  0
ARC
  5
63D
  8
52
 10
-109.1702659666357
 20
156.3637365998197
 30
0.0
 40
0.2999854796546085
 50
253.74571829138691
 51
330.00046429427152
  0
LINE
  5
63E
  8
52
 10
-41.022629390081697
 20
162.72389747875161
 30
0.0
 11
-39.749416119359921
 21
160.51862740499061
 31
0.0
  0
LINE
  5
63F
  8
52
 10
-37.637256434314679
 20
161.73808336772299
 30
0.0
 11
-38.910469705036398
 21
163.94335344148399
 31
0.0
  0
LINE
  5
640
  8
52
 10
-39.806254997026542
 20
160.11707522895441
 30
0.0
 11
-38.913378756237186
 21
158.5705682150361
 31
0.0
  0
ARC
  5
641
  8
52
 10
-38.08723068316317
 20
160.0785497033614
 30
0.0
 40
1.719455962732354
 50
241.28385651974139
 51
254.82929661042471
  0
LINE
  5
642
  8
52
 10
-36.368206369299742
 20
160.04002417776849
 30
0.0
 11
-37.26108261008909
 21
161.5865311916867
 31
0.0
  0
ARC
  5
643
  8
52
 10
-38.08723068316317
 20
160.0785497033614
 30
0.0
 40
1.719455962732344
 50
345.17070338957399
 51
358.7161434802498
  0
ARC
  5
644
  8
52
 10
-38.08723068316317
 20
160.0785497033614
 30
0.0
 40
1.719455962732352
 50
61.283856519743757
 51
74.829296610424763
  0
ARC
  5
645
  8
52
 10
-38.08723068316317
 20
160.0785497033614
 30
0.0
 40
1.7194559627323469
 50
165.17070338957399
 51
178.71614348022371
  0
ARC
  5
646
  8
52
 10
-38.08723068316317
 20
160.0785497033614
 30
0.0
 40
4.16945596273235
 50
106.2538174138265
 51
133.7461825861721
  0
ARC
  5
647
  8
52
 10
-39.170265966641459
 20
163.7933628068873
 30
0.0
 40
0.2999854796682246
 50
29.999535708150098
 51
106.2542817067702
  0
ARC
  5
648
  8
52
 10
-40.762835559374189
 20
162.8738923238096
 30
0.0
 40
0.29998547967963
 50
133.7457182949893
 51
210.0004642913332
  0
LINE
  5
649
  8
52
 10
-35.15183197624463
 20
157.43320192797131
 30
0.0
 11
-36.425045246966363
 21
159.63847200173231
 31
0.0
  0
ARC
  5
64A
  8
52
 10
-38.08723068316317
 20
160.0785497033614
 30
0.0
 40
4.16945596273235
 50
286.25381741382648
 51
313.74618258617193
  0
ARC
  5
64B
  8
52
 10
-35.411625806933898
 20
157.28320708291241
 30
0.0
 40
0.2999854796664052
 50
313.74571829260071
 51
30.00046429389748
  0
ARC
  5
64C
  8
52
 10
-37.004195399690332
 20
156.3637365998197
 30
0.0
 40
0.2999854796546085
 50
209.99953570572839
 51
286.25428170861301
  0
LINE
  5
64D
  8
52
 10
-38.537204932011598
 20
158.4190160389999
 30
0.0
 11
-37.263991661289879
 21
156.2137459652389
 31
0.0
  0
ARC
  5
64E
  8
52
 10
-108.0872306831628
 20
92.078549703361176
 30
0.0
 40
4.16945596273235
 50
286.25381741382648
 51
313.74618258617198
  0
ARC
  5
64F
  8
52
 10
-107.00419539968451
 20
88.363736599835264
 30
0.0
 40
0.2999854796682246
 50
209.99953570815009
 51
286.25428170677031
  0
ARC
  5
650
  8
52
 10
-105.4116258069518
 20
89.283207082913037
 30
0.0
 40
0.29998547967963
 50
313.74571829498927
 51
30.000464291333291
  0
LINE
  5
651
  8
52
 10
-105.1518319762443
 20
89.433201927970998
 30
0.0
 11
-106.42504524696611
 21
91.638472001732026
 31
0.0
  0
LINE
  5
652
  8
52
 10
-108.53720493201131
 20
90.419016038999672
 30
0.0
 11
-107.26399166128959
 21
88.213745965238644
 31
0.0
  0
LINE
  5
653
  8
52
 10
-111.02262939008141
 20
94.723897478751354
 30
0.0
 11
-109.74941611935959
 21
92.518627404990326
 31
0.0
  0
LINE
  5
654
  8
52
 10
-106.3682063692995
 20
92.040024177768174
 30
0.0
 11
-107.26108261008881
 21
93.586531191686475
 31
0.0
  0
LINE
  5
655
  8
52
 10
-109.8062549970263
 20
92.117075228954121
 30
0.0
 11
-108.9133787562369
 21
90.570568215035877
 31
0.0
  0
ARC
  5
656
  8
52
 10
-108.0872306831628
 20
92.078549703361176
 30
0.0
 40
1.719455962732344
 50
165.17070338957399
 51
178.71614348024971
  0
ARC
  5
657
  8
52
 10
-108.0872306831628
 20
92.078549703361176
 30
0.0
 40
1.719455962732352
 50
241.28385651974381
 51
254.82929661042471
  0
ARC
  5
658
  8
52
 10
-108.0872306831628
 20
92.078549703361176
 30
0.0
 40
1.7194559627323469
 50
345.17070338957399
 51
358.71614348022359
  0
ARC
  5
659
  8
52
 10
-110.7628355593921
 20
94.873892323810225
 30
0.0
 40
0.2999854796664052
 50
133.74571829260071
 51
210.00046429389741
  0
LINE
  5
65A
  8
52
 10
-107.63725643431439
 20
93.738083367722695
 30
0.0
 11
-108.91046970503611
 21
95.943353441483708
 31
0.0
  0
ARC
  5
65B
  8
52
 10
-108.0872306831628
 20
92.078549703361176
 30
0.0
 40
1.719455962732354
 50
61.283856519741462
 51
74.829296610424777
  0
ARC
  5
65C
  8
52
 10
-108.0872306831628
 20
92.078549703361176
 30
0.0
 40
4.16945596273235
 50
106.2538174138265
 51
133.7461825861719
  0
ARC
  5
65D
  8
52
 10
-109.1702659666357
 20
95.793362806902877
 30
0.0
 40
0.2999854796546085
 50
29.999535705728441
 51
106.25428170861299
  0
LINE
  5
65E
  8
52
 10
-38.537204932011598
 20
93.738083367722695
 30
0.0
 11
-37.263991661289879
 21
95.943353441483708
 31
0.0
  0
ARC
  5
65F
  8
52
 10
-38.08723068316317
 20
92.078549703361176
 30
0.0
 40
1.719455962732354
 50
105.17070338957519
 51
118.71614348025849
  0
ARC
  5
660
  8
52
 10
-35.411625806933898
 20
94.873892323810225
 30
0.0
 40
0.2999854796664052
 50
329.99953570610251
 51
46.254281707399272
  0
ARC
  5
661
  8
52
 10
-38.08723068316317
 20
92.078549703361176
 30
0.0
 40
4.16945596273235
 50
46.253817413828017
 51
73.746182586173504
  0
LINE
  5
662
  8
52
 10
-35.15183197624463
 20
94.723897478751354
 30
0.0
 11
-36.425045246966363
 21
92.518627404990326
 31
0.0
  0
ARC
  5
663
  8
52
 10
-37.004195399690332
 20
95.793362806902877
 30
0.0
 40
0.2999854796546085
 50
73.745718291386964
 51
150.0004642942715
  0
LINE
  5
664
  8
52
 10
-37.637256434314679
 20
90.419016038999672
 30
0.0
 11
-38.910469705036398
 21
88.213745965238644
 31
0.0
  0
LINE
  5
665
  8
52
 10
-41.022629390081697
 20
89.433201927970998
 30
0.0
 11
-39.749416119359921
 21
91.638472001732026
 31
0.0
  0
ARC
  5
666
  8
52
 10
-38.08723068316317
 20
92.078549703361176
 30
0.0
 40
1.7194559627323469
 50
181.28385651977621
 51
194.8292966104259
  0
LINE
  5
667
  8
52
 10
-39.806254997026542
 20
92.040024177768174
 30
0.0
 11
-38.913378756237186
 21
93.586531191686475
 31
0.0
  0
ARC
  5
668
  8
52
 10
-38.08723068316317
 20
92.078549703361176
 30
0.0
 40
1.719455962732352
 50
285.17070338957518
 51
298.71614348025622
  0
ARC
  5
669
  8
52
 10
-38.08723068316317
 20
92.078549703361176
 30
0.0
 40
1.719455962732344
 50
1.2838565197502321
 51
14.82929661042597
  0
LINE
  5
66A
  8
52
 10
-36.368206369299742
 20
92.117075228954121
 30
0.0
 11
-37.26108261008909
 21
90.570568215035877
 31
0.0
  0
ARC
  5
66B
  8
52
 10
-40.762835559374189
 20
89.283207082913037
 30
0.0
 40
0.29998547967963
 50
149.9995357086666
 51
226.25428170501061
  0
ARC
  5
66C
  8
52
 10
-39.170265966641459
 20
88.363736599835264
 30
0.0
 40
0.2999854796682246
 50
253.7457182932296
 51
330.00046429184982
  0
ARC
  5
66D
  8
52
 10
-38.08723068316317
 20
92.078549703361176
 30
0.0
 40
4.16945596273235
 50
226.25381741382779
 51
253.7461825861734
  0
ENDSEC
  0
EOF
