  0
SECTION
  2
HEADER
  9
$ACADVER
  1
AC1009
  9
$INSBASE
 10
0.0
 20
0.0
 30
0.0
  9
$EXTMIN
 10
-106.02601839939391
 20
-32.785457292635101
 30
-0.0000000000000053
  9
$EXTMAX
 10
280.38834648634992
 20
162.85765966479681
 30
0.0000000000000099
  9
$LIMMIN
 10
0.0
 20
0.0
  9
$LIMMAX
 10
420.0
 20
297.0
  9
$ORTHOMODE
 70
     1
  9
$REGENMODE
 70
     1
  9
$FILLMODE
 70
     1
  9
$QTEXTMODE
 70
     0
  9
$MIRRTEXT
 70
     1
  9
$DRAGMODE
 70
     2
  9
$LTSCALE
 40
7.0
  9
$OSMODE
 70
    37
  9
$ATTMODE
 70
     1
  9
$TEXTSIZE
 40
3.5
  9
$TRACEWID
 40
0.05
  9
$TEXTSTYLE
  7
STANDARD
  9
$CLAYER
  8
L1
  9
$CELTYPE
  6
CONTINUOUS
  9
$CECOLOR
 62
   256
  9
$DIMSCALE
 40
1.0
  9
$DIMASZ
 40
3.5
  9
$DIMEXO
 40
0.1
  9
$DIMDLI
 40
0.38
  9
$DIMRND
 40
0.0
  9
$DIMDLE
 40
0.0
  9
$DIMEXE
 40
0.18
  9
$DIMTP
 40
0.0
  9
$DIMTM
 40
0.0
  9
$DIMTXT
 40
3.5
  9
$DIMCEN
 40
1.0
  9
$DIMTSZ
 40
0.0
  9
$DIMTOL
 70
     0
  9
$DIMLIM
 70
     0
  9
$DIMTIH
 70
     0
  9
$DIMTOH
 70
     0
  9
$DIMSE1
 70
     0
  9
$DIMSE2
 70
     0
  9
$DIMTAD
 70
     1
  9
$DIMZIN
 70
     8
  9
$DIMBLK
  1

  9
$DIMASO
 70
     1
  9
$DIMSHO
 70
     1
  9
$DIMPOST
  1

  9
$DIMAPOST
  1

  9
$DIMALT
 70
     0
  9
$DIMALTD
 70
     2
  9
$DIMALTF
 40
25.399999999999999
  9
$DIMLFAC
 40
1.0
  9
$DIMTOFL
 70
     1
  9
$DIMTVP
 40
0.0
  9
$DIMTIX
 70
     0
  9
$DIMSOXD
 70
     0
  9
$DIMSAH
 70
     0
  9
$DIMBLK1
  1

  9
$DIMBLK2
  1

  9
$DIMSTYLE
  2
FIBOX
  9
$DIMCLRD
 70
     1
  9
$DIMCLRE
 70
     1
  9
$DIMCLRT
 70
     2
  9
$DIMTFAC
 40
1.0
  9
$DIMGAP
 40
1.0
  9
$LUNITS
 70
     2
  9
$LUPREC
 70
     2
  9
$SKETCHINC
 40
1.0
  9
$FILLETRAD
 40
1.7
  9
$AUNITS
 70
     0
  9
$AUPREC
 70
     2
  9
$MENU
  1
CAESAR
  9
$ELEVATION
 40
0.0
  9
$PELEVATION
 40
0.0
  9
$THICKNESS
 40
0.0
  9
$LIMCHECK
 70
     0
  9
$BLIPMODE
 70
     0
  9
$CHAMFERA
 40
5.0
  9
$CHAMFERB
 40
5.0
  9
$SKPOLY
 70
     0
  9
$TDCREATE
 40
2449716.6372743049
  9
$TDUPDATE
 40
2453620.467203923
  9
$TDINDWG
 40
0.2199211574
  9
$TDUSRTIMER
 40
0.2199211574
  9
$USRTIMER
 70
     1
  9
$ANGBASE
 50
0.0
  9
$ANGDIR
 70
     0
  9
$PDMODE
 70
     0
  9
$PDSIZE
 40
0.0
  9
$PLINEWID
 40
0.0
  9
$COORDS
 70
     2
  9
$SPLFRAME
 70
     0
  9
$SPLINETYPE
 70
     6
  9
$SPLINESEGS
 70
     8
  9
$ATTDIA
 70
     0
  9
$ATTREQ
 70
     1
  9
$HANDLING
 70
-16383
  9
$HANDSEED
  5
1EEBF
  9
$SURFTAB1
 70
     6
  9
$SURFTAB2
 70
     6
  9
$SURFTYPE
 70
     6
  9
$SURFU
 70
     6
  9
$SURFV
 70
     6
  9
$UCSNAME
  2

  9
$UCSORG
 10
0.0
 20
0.0
 30
0.0
  9
$UCSXDIR
 10
1.0
 20
0.0
 30
0.0
  9
$UCSYDIR
 10
0.0
 20
1.0
 30
0.0
  9
$PUCSNAME
  2

  9
$PUCSORG
 10
0.0
 20
0.0
 30
0.0
  9
$PUCSXDIR
 10
1.0
 20
0.0
 30
0.0
  9
$PUCSYDIR
 10
0.0
 20
1.0
 30
0.0
  9
$USERI1
 70
     0
  9
$USERI2
 70
     0
  9
$USERI3
 70
     0
  9
$USERI4
 70
     0
  9
$USERI5
 70
     0
  9
$USERR1
 40
1.0
  9
$USERR2
 40
0.0
  9
$USERR3
 40
3.5
  9
$USERR4
 40
0.0
  9
$USERR5
 40
0.0
  9
$WORLDVIEW
 70
     1
  9
$SHADEDGE
 70
     3
  9
$SHADEDIF
 70
    70
  9
$TILEMODE
 70
     1
  9
$MAXACTVP
 70
    16
  9
$PLIMCHECK
 70
     0
  9
$PEXTMIN
 10
1.0000000000000000E+020
 20
1.0000000000000000E+020
 30
1.0000000000000000E+020
  9
$PEXTMAX
 10
-1.0000000000000000E+020
 20
-1.0000000000000000E+020
 30
-1.0000000000000000E+020
  9
$PLIMMIN
 10
0.0
 20
0.0
  9
$PLIMMAX
 10
420.0
 20
297.0
  9
$UNITMODE
 70
     0
  9
$VISRETAIN
 70
     0
  9
$PLINEGEN
 70
     0
  9
$PSLTSCALE
 70
     0
  0
ENDSEC
  0
SECTION
  2
TABLES
  0
TABLE
  2
VPORT
 70
     2
  0
VPORT
  2
*ACTIVE
 70
     0
 10
0.0
 20
0.0
 11
1.0
 21
1.0
 12
87.181164043478006
 22
65.036101186080899
 13
0.0
 23
0.0
 14
1.0
 24
1.0
 15
10.0
 25
10.0
 16
0.0
 26
0.0
 36
1.0
 17
0.0
 27
0.0
 37
0.0
 40
249.42413706046449
 41
1.5552208835341359
 42
50.0
 43
0.0
 44
0.0
 50
0.0
 51
0.0
 71
     0
 72
  1000
 73
     1
 74
     0
 75
     0
 76
     0
 77
     0
 78
     0
  0
ENDTAB
  0
TABLE
  2
LTYPE
 70
     3
  0
LTYPE
  2
CONTINUOUS
 70
     0
  3
Solid line
 72
    65
 73
     0
 40
0.0
  0
LTYPE
  2
CENTER
 70
     0
  3
____ _ ____ _ ____ _ ____ _ ____ _ ____ _ ____ 
 72
    65
 73
     4
 40
2.0
 49
1.25
 49
-0.25
 49
0.25
 49
-0.25
  0
LTYPE
  2
DASHED
 70
     0
  3
__ __ __ __ __ __ __ __ __ __ __ __ __ __ __
 72
    65
 73
     2
 40
0.75
 49
0.5
 49
-0.25
  0
ENDTAB
  0
TABLE
  2
LAYER
 70
     7
  0
LAYER
  2
0
 70
     0
 62
     7
  6
CONTINUOUS
  0
LAYER
  2
DEFPOINTS
 70
     0
 62
     7
  6
CONTINUOUS
  0
LAYER
  2
L20
 70
     0
 62
     3
  6
CONTINUOUS
  0
LAYER
  2
43
 70
     0
 62
     1
  6
CENTER
  0
LAYER
  2
51
 70
     0
 62
     7
  6
CONTINUOUS
  0
LAYER
  2
63
 70
     0
 62
     1
  6
CENTER
  0
LAYER
  2
L1
 70
     0
 62
     2
  6
CONTINUOUS
  0
ENDTAB
  0
TABLE
  2
STYLE
 70
     3
  0
STYLE
  2
STANDARD
 70
     0
 40
0.0
 41
1.0
 50
0.0
 71
     0
 42
3.5
  3
CAEISO
  4

  0
STYLE
  2
SIMPLEX
 70
     0
 40
0.0
 41
1.0
 50
0.0
 71
     0
 42
0.2
  3
KIRJAIN
  4

  0
STYLE
  2
TKKISO
 70
     0
 40
0.0
 41
1.0
 50
0.0
 71
     0
 42
2.5
  3
caeiso
  4

  0
ENDTAB
  0
TABLE
  2
VIEW
 70
     0
  0
ENDTAB
  0
TABLE
  2
UCS
 70
     0
  0
ENDTAB
  0
TABLE
  2
APPID
 70
    18
  0
APPID
  2
ACAD
 70
     0
  0
APPID
  2
AD_DRAW
 70
     0
  0
APPID
  2
DESIGNERASSEMBLIES
 70
     0
  0
APPID
  2
MCAD_NO_VIS
 70
     0
  0
APPID
  2
ASURF_PCURVE_APPNAME
 70
     0
  0
APPID
  2
ACAD_TEMP_GRAPHIC
 70
     0
  0
APPID
  2
GENIUS_GENDIM_13
 70
     0
  0
APPID
  2
GENIUS_GENDTOL_13
 70
     0
  0
APPID
  2
GENIUS_GE3DTOL_13
 70
     0
  0
APPID
  2
ACATTRIBSERVICES
 70
     0
  0
APPID
  2
ACADM_DIM_EDIT
 70
     0
  0
APPID
  2
AD_SKETCHDIM
 70
     0
  0
APPID
  2
AVE_RENDER
 70
     0
  0
APPID
  2
AVE_ENTITY_MATERIAL
 70
     0
  0
APPID
  2
AVE_FINISH
 70
     0
  0
APPID
  2
AVE_MATERIAL
 70
     0
  0
APPID
  2
AVE_GLOBAL
 70
     0
  0
APPID
  2
DCO15
 70
     0
  0
ENDTAB
  0
TABLE
  2
DIMSTYLE
 70
     2
  0
DIMSTYLE
  2
FIBOX
 70
     0
  3

  4

  5

  6

  7

 40
1.0
 41
3.5
 42
0.1
 43
0.38
 44
0.18
 45
0.0
 46
0.0
 47
0.0
 48
0.0
140
3.5
141
1.0
142
0.0
143
25.399999999999999
144
1.0
145
0.0
146
1.0
147
1.0
 71
     0
 72
     0
 73
     0
 74
     0
 75
     0
 76
     0
 77
     1
 78
     8
170
     0
171
     2
172
     1
173
     0
174
     0
175
     0
176
     1
177
     1
178
     2
  0
DIMSTYLE
  2
STANDARD
 70
     0
  3

  4

  5

  6

  7

 40
1.0
 41
0.18
 42
0.0625
 43
0.38
 44
0.18
 45
0.0
 46
0.0
 47
0.0
 48
0.0
140
0.18
141
0.09
142
0.0
143
25.399999999999999
144
1.0
145
0.0
146
1.0
147
0.09
 71
     0
 72
     0
 73
     1
 74
     1
 75
     0
 76
     0
 77
     0
 78
     0
170
     0
171
     2
172
     0
173
     0
174
     0
175
     0
176
     0
177
     0
178
     0
  0
ENDTAB
  0
ENDSEC
  0
SECTION
  2
BLOCKS
  0
BLOCK
  8
0
  2
$MODEL_SPACE
 70
     0
 10
0.0
 20
0.0
 30
0.0
  3
$MODEL_SPACE
  1

  0
ENDBLK
  5
7F47
  8
0
  0
BLOCK
 67
     1
  8
0
  2
$PAPER_SPACE
 70
     0
 10
0.0
 20
0.0
 30
0.0
  3
$PAPER_SPACE
  1

  0
ENDBLK
  5
7F45
 67
     1
  8
0
  0
ENDSEC
  0
SECTION
  2
ENTITIES
  0
TEXT
  5
85BF
  8
L20
 10
-69.962065333504285
 20
135.9751073821208
 30
0.0
 40
3.0
  1
FIBOX EURONORD II 
  7
TKKISO
  0
TEXT
  5
85C4
  8
L20
 10
-69.962065333504285
 20
130.085774686647
 30
0.0
 40
3.0
  1
66x98x29 Base
  7
TKKISO
  0
POLYLINE
  5
DAAD
  8
51
 66
     1
 10
0.0
 20
0.0
 30
0.0
  0
VERTEX
  5
1ED4D
  8
51
 10
-91.354198065994666
 20
98.043318230688001
 30
0.0
  0
VERTEX
  5
1ED4E
  8
51
 10
-5.5541980659946537
 20
98.043318230688001
 30
0.0
 42
-0.4142135623730952
  0
VERTEX
  5
1ED4F
  8
51
 10
0.5458019340053398
 20
91.943318230688007
 30
0.0
  0
VERTEX
  5
1ED50
  8
51
 10
0.5458019340053398
 20
38.143318230687989
 30
0.0
 42
-0.4142135623730965
  0
VERTEX
  5
1ED51
  8
51
 10
-5.5541980659946537
 20
32.043318230688008
 30
0.0
  0
VERTEX
  5
1ED52
  8
51
 10
-91.354198065994666
 20
32.043318230688008
 30
0.0
 42
-0.4142135623730944
  0
VERTEX
  5
1ED53
  8
51
 10
-97.45419806599466
 20
38.143318230687989
 30
0.0
  0
VERTEX
  5
1ED54
  8
51
 10
-97.45419806599466
 20
91.943318230688007
 30
0.0
 42
-0.4142135623730953
  0
VERTEX
  5
1ED55
  8
51
 10
-91.354198065994666
 20
98.043318230688001
 30
0.0
 42
0.9999999999999998
  0
SEQEND
  5
1ED56
  8
51
  0
POLYLINE
  5
DAAE
  8
51
 66
     1
 10
0.0
 20
0.0
 30
0.0
  0
VERTEX
  5
1ED57
  8
51
 10
-91.354198065994865
 20
96.051146326289782
 30
0.0
  0
VERTEX
  5
1ED58
  8
51
 10
-87.657597691434276
 20
96.051146326289782
 30
0.0
 42
-0.4142135623730327
  0
VERTEX
  5
1ED59
  8
51
 10
-87.457628152403004
 20
95.851176787258566
 30
0.0
  0
VERTEX
  5
1ED5A
  8
51
 10
-87.457628152403004
 20
88.246717856127432
 30
0.0
 42
-0.4142135623731161
  0
VERTEX
  5
1ED5B
  8
51
 10
-87.657597691434276
 20
88.046748317096174
 30
0.0
  0
VERTEX
  5
1ED5C
  8
51
 10
-95.262056622565339
 20
88.046748317096174
 30
0.0
 42
-0.4142135902742871
  0
VERTEX
  5
1ED5D
  8
51
 10
-95.462026161596626
 20
88.246717875176685
 30
0.0
  0
VERTEX
  5
1ED5E
  8
51
 10
-95.46202616159664
 20
91.943318230687979
 30
0.0
 42
-0.4142135623730956
  0
VERTEX
  5
1ED5F
  8
51
 10
-91.354198065994865
 20
96.051146326289782
 30
0.0
 42
-1.0000000000000031
  0
SEQEND
  5
1ED60
  8
51
  0
CIRCLE
  5
DAAF
  8
51
 10
-91.354198065994666
 20
91.943318230688007
 30
0.0
 40
1.240539220861387
  0
CIRCLE
  5
DAB0
  8
51
 10
-91.354198065994836
 20
83.043318230688001
 30
0.0
 40
2.0511249079240201
  0
CIRCLE
  5
DAB1
  8
51
 10
-91.354198065994865
 20
83.043318230688001
 30
0.0
 40
3.2075252143248738
  0
LINE
  5
DAB2
  8
63
  6
CENTER
 10
-106.017996655768
 20
65.043318230688001
 30
0.0
 11
9.9755722573765322
 21
65.043318230688001
 31
0.0
  0
LINE
  5
DAB3
  8
63
  6
CENTER
 10
-48.45419806599466
 20
101.6908672696762
 30
0.0
 11
-48.45419806599466
 21
23.183561931993651
 31
0.0
  0
CIRCLE
  5
DAB4
  8
51
 10
-91.354198065994865
 20
47.043318230688001
 30
0.0
 40
3.2075252143248738
  0
CIRCLE
  5
DAB5
  8
51
 10
-91.354198065994836
 20
47.043318230688001
 30
0.0
 40
2.0511249079240201
  0
CIRCLE
  5
DAB6
  8
51
 10
-5.5541980659944548
 20
47.043318230688001
 30
0.0
 40
3.2075252143248738
  0
CIRCLE
  5
DAB7
  8
51
 10
-5.5541980659944841
 20
47.043318230688001
 30
0.0
 40
2.0511249079240201
  0
CIRCLE
  5
DAB8
  8
51
 10
-5.5541980659944548
 20
83.043318230688001
 30
0.0
 40
3.2075252143248738
  0
CIRCLE
  5
DAB9
  8
51
 10
-5.5541980659944841
 20
83.043318230688001
 30
0.0
 40
2.0511249079240201
  0
CIRCLE
  5
DABA
  8
51
 10
-5.55419806599454
 20
91.943318230687723
 30
0.0
 40
1.2405392208613859
  0
ARC
  5
DABB
  8
51
 10
-5.5541980659945116
 20
91.943318230687751
 30
0.0
 40
4.0465699135917736
 50
253.37843994430949
 51
325.49200694214301
  0
ARC
  5
DABC
  8
51
 10
-5.529239563157887
 20
91.941604061491674
 30
0.0
 40
4.8476647907972561
 50
143.9397903623485
 51
249.99700172127979
  0
LINE
  5
DABD
  8
51
 10
-9.4480863016207373
 20
94.795109653631712
 30
0.0
 11
-8.8887625272399937
 21
94.235785879180256
 31
0.0
  0
LINE
  5
DABE
  8
51
 10
-7.1874769463069903
 20
87.386375998588306
 30
0.0
 11
-6.7117151739209007
 21
88.06583422550554
 31
0.0
  0
LINE
  5
DABF
  8
51
 10
-1.6300623197258839
 20
89.061279297122667
 30
0.0
 11
-2.2196336047692928
 21
89.650850582165774
 31
0.0
  0
LINE
  5
DAC0
  8
51
 10
-4.3966809580683082
 20
95.820802235870019
 30
0.0
 11
-3.9128137813274959
 21
96.511836179860438
 31
0.0
  0
ARC
  5
DAC1
  8
51
 10
-5.5541980659945116
 20
91.943318230687751
 30
0.0
 40
4.0465699135917736
 50
73.378439944312333
 51
145.4920069426494
  0
ARC
  5
DAC2
  8
51
 10
-5.529239563157887
 20
91.941604061491674
 30
0.0
 40
4.8476647907972561
 50
323.54669375513208
 51
70.522040783133747
  0
ARC
  5
DAC3
  8
51
 10
-91.379156568831434
 20
38.145032399884343
 30
0.0
 40
4.8476647907972561
 50
323.9397903623485
 51
69.997001721279815
  0
ARC
  5
DAC4
  8
51
 10
-91.354198065994794
 20
38.143318230688259
 30
0.0
 40
4.0465699135917736
 50
253.3784399443123
 51
325.49200694264943
  0
LINE
  5
DAC5
  8
51
 10
-87.460309830368587
 20
35.29152680774429
 30
0.0
 11
-88.019633604749316
 21
35.85085058219574
 31
0.0
  0
ARC
  5
DAC6
  8
51
 10
-91.379156568831434
 20
38.145032399884343
 30
0.0
 40
4.8476647907972561
 50
143.546693755132
 51
250.52204078313369
  0
CIRCLE
  5
DAC7
  8
51
 10
-91.354198065994765
 20
38.143318230688287
 30
0.0
 40
1.2405392208613859
  0
ARC
  5
DAC8
  8
51
 10
-91.354198065994794
 20
38.143318230688259
 30
0.0
 40
4.0465699135917736
 50
73.378439944309605
 51
145.49200694214301
  0
LINE
  5
DAC9
  8
51
 10
-89.720919185682305
 20
42.700260462787682
 30
0.0
 11
-90.196680958068399
 21
42.020802235870462
 31
0.0
  0
LINE
  5
DACA
  8
51
 10
-95.278333812263426
 20
41.025357164253329
 30
0.0
 11
-94.688762527220007
 21
40.435785879210229
 31
0.0
  0
LINE
  5
DACB
  8
51
 10
-92.511715173921004
 20
34.265834225505976
 30
0.0
 11
-92.995582350661806
 21
33.574800281515557
 31
0.0
  0
CIRCLE
  5
DACC
  8
51
 10
-5.5541980659946333
 20
38.143318230687989
 30
0.0
 40
1.240539220861387
  0
POLYLINE
  5
DACD
  8
51
 66
     1
 10
0.0
 20
0.0
 30
0.0
  0
VERTEX
  5
1ED61
  8
51
 10
-5.5541980659944379
 20
34.035490135086199
 30
0.0
  0
VERTEX
  5
1ED62
  8
51
 10
-9.2507984405550285
 20
34.035490135086199
 30
0.0
 42
-0.4142135623730327
  0
VERTEX
  5
1ED63
  8
51
 10
-9.4507679795863009
 20
34.235459674117429
 30
0.0
  0
VERTEX
  5
1ED64
  8
51
 10
-9.4507679795862991
 20
41.839918605248549
 30
0.0
 42
-0.4142135623731161
  0
VERTEX
  5
1ED65
  8
51
 10
-9.2507984405550268
 20
42.039888144279807
 30
0.0
  0
VERTEX
  5
1ED66
  8
51
 10
-1.646339509423963
 20
42.039888144279807
 30
0.0
 42
-0.4142135902742871
  0
VERTEX
  5
1ED67
  8
51
 10
-1.4463699703926769
 20
41.839918586199303
 30
0.0
  0
VERTEX
  5
1ED68
  8
51
 10
-1.4463699703926629
 20
38.14331823068801
 30
0.0
 42
-0.4142135623730956
  0
VERTEX
  5
1ED69
  8
51
 10
-5.5541980659944379
 20
34.035490135086199
 30
0.0
 42
-1.0000000000000031
  0
SEQEND
  5
1ED6A
  8
51
  0
POLYLINE
  5
110E1
  8
51
 66
     1
 10
0.0
 20
0.0
 30
0.0
  0
VERTEX
  5
1ED6B
  8
51
 10
42.523074661277832
 20
98.043318230688143
 30
0.0
  0
VERTEX
  5
1ED6C
  8
51
 10
69.540527067715118
 20
97.571726844738663
 30
0.0
 42
-0.4091108014277088
  0
VERTEX
  5
1ED6D
  8
51
 10
70.523074661277832
 20
96.571879149582287
 30
0.0
  0
VERTEX
  5
1ED6E
  8
51
 10
70.523074661277832
 20
33.514757311793879
 30
0.0
 42
-0.4091108014277067
  0
VERTEX
  5
1ED6F
  8
51
 10
69.540527067715118
 20
32.514909616637503
 30
0.0
  0
VERTEX
  5
1ED70
  8
51
 10
42.523074661277832
 20
32.043318230688143
 30
0.0
  0
SEQEND
  5
1ED71
  8
51
  0
POLYLINE
  5
110E3
  8
51
 66
     1
 10
0.0
 20
0.0
 30
0.0
  0
VERTEX
  5
1ED72
  8
51
 10
42.523074661277832
 20
32.043318230688143
 30
0.0
  0
VERTEX
  5
1ED73
  8
51
 10
42.523074661277832
 20
98.043318230688143
 30
0.0
  0
SEQEND
  5
1ED74
  8
51
  0
LINE
  5
110E4
  8
63
  6
CENTER
 10
27.57927467390077
 20
65.043318230688001
 30
0.0
 11
85.576059130473055
 21
65.043318230688001
 31
0.0
  0
POLYLINE
  5
110E6
  8
51
 66
     1
 10
0.0
 20
0.0
 30
0.0
  0
VERTEX
  5
1ED75
  8
51
 10
42.523074661277832
 20
96.542891712165201
 30
0.0
  0
VERTEX
  5
1ED76
  8
51
 10
41.514348458059217
 20
96.525284330793227
 30
0.0
 42
0.4091108014277129
  0
VERTEX
  5
1ED77
  8
51
 10
41.023074661277853
 20
96.025360483215024
 30
0.0
  0
VERTEX
  5
1ED78
  8
51
 10
41.023074661277853
 20
65.043318230688001
 30
0.0
  0
SEQEND
  5
1ED79
  8
51
  0
POLYLINE
  5
110E8
  8
51
 66
     1
 10
0.0
 20
0.0
 30
0.0
  0
VERTEX
  5
1ED7A
  8
51
 10
42.523074661277832
 20
33.543744749210802
 30
0.0
  0
VERTEX
  5
1ED7B
  8
51
 10
41.514348458059217
 20
33.561352130582769
 30
0.0
 42
-0.4091108014277129
  0
VERTEX
  5
1ED7C
  8
51
 10
41.023074661277853
 20
34.061275978160978
 30
0.0
  0
VERTEX
  5
1ED7D
  8
51
 10
41.023074661277853
 20
65.043318230688001
 30
0.0
  0
SEQEND
  5
1ED7E
  8
51
  0
LINE
  5
110EC
  8
43
  6
DASHED
 10
41.023074661277853
 20
86.469500828080939
 30
0.0
 11
67.231800864496492
 21
86.012025810517144
 31
0.0
  0
LINE
  5
110ED
  8
43
  6
DASHED
 10
41.023074661277853
 20
95.269074309557524
 30
0.0
 11
67.231800864496478
 21
94.811599291994554
 31
0.0
  0
LINE
  5
110EE
  8
43
  6
DASHED
 10
67.723074661277835
 20
94.311675444416323
 30
0.0
 11
67.72307466127782
 21
65.043318230688001
 31
0.0
  0
LINE
  5
110F0
  8
43
  6
DASHED
 10
64.223074661277792
 20
76.309334712810966
 30
0.0
 11
64.223074661277806
 21
44.022093139630357
 31
0.0
  0
POLYLINE
  5
110F1
  8
43
  6
DASHED
 66
     1
 10
0.0
 20
0.0
 30
0.0
  0
VERTEX
  5
1ED7F
  8
43
  6
DASHED
 10
64.507373874405232
 20
71.874790493609439
 30
0.0
  0
VERTEX
  5
1ED80
  8
43
  6
DASHED
 10
67.438775448150693
 20
72.028418740276251
 30
0.0
  0
SEQEND
  5
1ED81
  8
43
  6
DASHED
  0
POLYLINE
  5
110F2
  8
43
  6
DASHED
 66
     1
 10
0.0
 20
0.0
 30
0.0
  0
VERTEX
  5
1ED82
  8
43
  6
DASHED
 10
64.51783893934666
 20
70.711297516953252
 30
0.0
  0
VERTEX
  5
1ED83
  8
43
  6
DASHED
 10
67.428310383208952
 20
70.558766171913717
 30
0.0
  0
SEQEND
  5
1ED84
  8
43
  6
DASHED
  0
ARC
  5
110F3
  8
43
  6
DASHED
 10
67.223074661277835
 20
94.311675444416323
 30
0.0
 40
0.5
 50
0.0
 51
89.000000000000085
  0
ARC
  5
110F4
  8
43
  6
DASHED
 10
67.223074661277835
 20
85.512101962938942
 30
0.0
 40
0.5
 50
0.0
 51
88.99999999999838
  0
LINE
  5
110F5
  8
43
  6
DASHED
 10
67.723074661277835
 20
35.774961016959658
 30
0.0
 11
67.72307466127782
 21
65.043318230688001
 31
0.0
  0
LINE
  5
110F6
  8
43
  6
DASHED
 10
41.023428914654311
 20
53.035777000275083
 30
0.0
 11
67.232155117872935
 21
53.49325201783887
 31
0.0
  0
ARC
  5
110F7
  8
43
  6
DASHED
 10
67.223428914654264
 20
53.993175865417079
 30
0.0
 40
0.5
 50
271.00000000000148
 51
0.0
  0
LINE
  5
110F8
  8
43
  6
DASHED
 10
41.023074661277853
 20
34.817562151818478
 30
0.0
 11
67.231800864496478
 21
35.275037169381463
 31
0.0
  0
ARC
  5
110F9
  8
43
  6
DASHED
 10
67.223074661277835
 20
35.774961016959658
 30
0.0
 40
0.5
 50
270.99999999999989
 51
0.0
  0
LINE
  5
110FA
  8
51
 10
70.523074661277832
 20
86.273014469676809
 30
0.0
 11
71.036747474805352
 21
86.2589625095965
 31
0.0
  0
ARC
  5
110FB
  8
51
 10
71.023074661277803
 20
85.759149490388097
 30
0.0
 40
0.5
 50
0.0
 51
88.433015646084016
  0
LINE
  5
110FC
  8
51
 10
71.523074661277803
 20
85.759149490388097
 30
0.0
 11
71.523074661277803
 21
80.327487333287749
 31
0.0
  0
ARC
  5
110FD
  8
51
 10
71.023074661277803
 20
80.327487333287749
 30
0.0
 40
0.5
 50
271.56698435391593
 51
0.0
  0
LINE
  5
110FE
  8
51
 10
70.523074661277832
 20
79.813622353999023
 30
0.0
 11
71.036747474805352
 21
79.827674314079331
 31
0.0
  0
LINE
  5
110FF
  8
51
 10
71.523074661277803
 20
44.32748697098792
 30
0.0
 11
71.523074661277803
 21
49.759149128088247
 31
0.0
  0
LINE
  5
11100
  8
51
 10
70.523074661277832
 20
50.27301410737698
 30
0.0
 11
71.036747474805352
 21
50.258962147296671
 31
0.0
  0
ARC
  5
11101
  8
51
 10
71.023074661277803
 20
49.759149128088247
 30
0.0
 40
0.5
 50
0.0
 51
88.433015646084016
  0
ARC
  5
11102
  8
51
 10
71.023074661277803
 20
44.32748697098792
 30
0.0
 40
0.5
 50
271.56698435391593
 51
0.0
  0
LINE
  5
11103
  8
51
 10
70.523074661277832
 20
43.813621991699193
 30
0.0
 11
71.036747474805352
 21
43.827673951779502
 31
0.0
  0
POLYLINE
  5
11104
  8
43
  6
DASHED
 66
     1
 10
0.0
 20
0.0
 30
0.0
  0
VERTEX
  5
1ED85
  8
43
  6
DASHED
 10
64.51783893934666
 20
59.375338944422751
 30
0.0
  0
VERTEX
  5
1ED86
  8
43
  6
DASHED
 10
67.428310383208952
 20
59.527870289462292
 30
0.0
  0
SEQEND
  5
1ED87
  8
43
  6
DASHED
  0
POLYLINE
  5
11105
  8
43
  6
DASHED
 66
     1
 10
0.0
 20
0.0
 30
0.0
  0
VERTEX
  5
1ED88
  8
43
  6
DASHED
 10
64.507373874405232
 20
58.211845967766571
 30
0.0
  0
VERTEX
  5
1ED89
  8
43
  6
DASHED
 10
67.438775448150693
 20
58.058217721099751
 30
0.0
  0
SEQEND
  5
1ED8A
  8
43
  6
DASHED
  0
LINE
  5
11106
  8
43
  6
DASHED
 10
240.24353581786929
 20
94.311675444416323
 30
0.0
 11
240.24353581786929
 21
65.043318230688001
 31
0.0
  0
POLYLINE
  5
11107
  8
51
 66
     1
 10
0.0
 20
0.0
 30
0.0
  0
VERTEX
  5
1ED8B
  8
51
 10
265.4435358178693
 20
96.542891712165201
 30
0.0
  0
VERTEX
  5
1ED8C
  8
51
 10
266.4522620210879
 20
96.525284330793227
 30
0.0
 42
-0.4091108014277129
  0
VERTEX
  5
1ED8D
  8
51
 10
266.94353581786919
 20
96.025360483215024
 30
0.0
  0
VERTEX
  5
1ED8E
  8
51
 10
266.94353581786919
 20
65.043318230688001
 30
0.0
  0
SEQEND
  5
1ED8F
  8
51
  0
POLYLINE
  5
11108
  8
51
 66
     1
 10
0.0
 20
0.0
 30
0.0
  0
VERTEX
  5
1ED90
  8
51
 10
265.4435358178693
 20
98.043318230688143
 30
0.0
  0
VERTEX
  5
1ED91
  8
51
 10
238.42608341143199
 20
97.571726844738663
 30
0.0
 42
0.4091108014277088
  0
VERTEX
  5
1ED92
  8
51
 10
237.4435358178693
 20
96.571879149582287
 30
0.0
  0
VERTEX
  5
1ED93
  8
51
 10
237.4435358178693
 20
33.514757311793879
 30
0.0
 42
0.4091108014277067
  0
VERTEX
  5
1ED94
  8
51
 10
238.42608341143199
 20
32.514909616637503
 30
0.0
  0
VERTEX
  5
1ED95
  8
51
 10
265.4435358178693
 20
32.043318230688143
 30
0.0
  0
SEQEND
  5
1ED96
  8
51
  0
POLYLINE
  5
11109
  8
51
 66
     1
 10
0.0
 20
0.0
 30
0.0
  0
VERTEX
  5
1ED97
  8
51
 10
265.4435358178693
 20
32.043318230688143
 30
0.0
  0
VERTEX
  5
1ED98
  8
51
 10
265.4435358178693
 20
98.043318230688143
 30
0.0
  0
SEQEND
  5
1ED99
  8
51
  0
LINE
  5
1110A
  8
63
  6
CENTER
 10
280.38733580524632
 20
65.043318230688001
 30
0.0
 11
222.39055134867399
 21
65.043318230688001
 31
0.0
  0
LINE
  5
1110B
  8
43
  6
DASHED
 10
266.94353581786919
 20
34.817562151818478
 30
0.0
 11
240.73480961465069
 21
35.275037169381463
 31
0.0
  0
LINE
  5
1110C
  8
43
  6
DASHED
 10
266.94353581786919
 20
43.617135633295057
 30
0.0
 11
240.7348096146506
 21
44.074610650858851
 31
0.0
  0
LINE
  5
1110D
  8
43
  6
DASHED
 10
266.94353581786919
 20
86.469500828080939
 30
0.0
 11
240.7348096146506
 21
86.012025810517144
 31
0.0
  0
POLYLINE
  5
1110E
  8
51
 66
     1
 10
0.0
 20
0.0
 30
0.0
  0
VERTEX
  5
1ED9A
  8
51
 10
265.4435358178693
 20
33.543744749210802
 30
0.0
  0
VERTEX
  5
1ED9B
  8
51
 10
266.4522620210879
 20
33.561352130582769
 30
0.0
 42
0.4091108014277129
  0
VERTEX
  5
1ED9C
  8
51
 10
266.94353581786919
 20
34.061275978160978
 30
0.0
  0
VERTEX
  5
1ED9D
  8
51
 10
266.94353581786919
 20
65.043318230688001
 30
0.0
  0
SEQEND
  5
1ED9E
  8
51
  0
ARC
  5
1110F
  8
43
  6
DASHED
 10
240.74353581786929
 20
35.774961016959658
 30
0.0
 40
0.5
 50
180.0
 51
269.0
  0
POLYLINE
  5
11110
  8
43
  6
DASHED
 66
     1
 10
0.0
 20
0.0
 30
0.0
  0
VERTEX
  5
1ED9F
  8
43
  6
DASHED
 10
243.4592366047419
 20
58.211845967766571
 30
0.0
  0
VERTEX
  5
1EDA0
  8
43
  6
DASHED
 10
240.52783503099641
 20
58.058217721099751
 30
0.0
  0
SEQEND
  5
1EDA1
  8
43
  6
DASHED
  0
POLYLINE
  5
11111
  8
43
  6
DASHED
 66
     1
 10
0.0
 20
0.0
 30
0.0
  0
VERTEX
  5
1EDA2
  8
43
  6
DASHED
 10
243.4487715398005
 20
59.375338944422751
 30
0.0
  0
VERTEX
  5
1EDA3
  8
43
  6
DASHED
 10
240.5383000959381
 20
59.527870289462292
 30
0.0
  0
SEQEND
  5
1EDA4
  8
43
  6
DASHED
  0
POLYLINE
  5
11112
  8
43
  6
DASHED
 66
     1
 10
0.0
 20
0.0
 30
0.0
  0
VERTEX
  5
1EDA5
  8
43
  6
DASHED
 10
243.4487715398005
 20
70.711297516953252
 30
0.0
  0
VERTEX
  5
1EDA6
  8
43
  6
DASHED
 10
240.5383000959381
 20
70.558766171913717
 30
0.0
  0
SEQEND
  5
1EDA7
  8
43
  6
DASHED
  0
POLYLINE
  5
11113
  8
43
  6
DASHED
 66
     1
 10
0.0
 20
0.0
 30
0.0
  0
VERTEX
  5
1EDA8
  8
43
  6
DASHED
 10
243.4592366047419
 20
71.874790493609439
 30
0.0
  0
VERTEX
  5
1EDA9
  8
43
  6
DASHED
 10
240.52783503099641
 20
72.028418740276251
 30
0.0
  0
SEQEND
  5
1EDAA
  8
43
  6
DASHED
  0
LINE
  5
11114
  8
43
  6
DASHED
 10
240.5383000959381
 20
77.281502672289875
 30
0.0
 11
243.4487715398005
 21
77.312391288603848
 31
0.0
  0
LINE
  5
11115
  8
43
  6
DASHED
 10
243.74353581786929
 20
76.309334712810966
 30
0.0
 11
243.74353581786929
 21
44.022093139630357
 31
0.0
  0
LINE
  5
11116
  8
43
  6
DASHED
 10
240.24353581786929
 20
35.774961016959658
 30
0.0
 11
240.24353581786929
 21
65.043318230688001
 31
0.0
  0
ARC
  5
11117
  8
43
  6
DASHED
 10
240.74353581786929
 20
44.57453449843706
 30
0.0
 40
0.5
 50
180.0
 51
268.99999999999829
  0
LINE
  5
11118
  8
51
 10
237.4435358178693
 20
43.813621991699193
 30
0.0
 11
236.9298630043418
 21
43.827673951779502
 31
0.0
  0
ARC
  5
11119
  8
51
 10
236.9435358178693
 20
44.32748697098792
 30
0.0
 40
0.5
 50
180.0
 51
268.43301564608402
  0
ARC
  5
1111A
  8
51
 10
236.9435358178693
 20
49.759149128088247
 30
0.0
 40
0.5
 50
91.56698435391597
 51
180.0
  0
LINE
  5
1111B
  8
51
 10
237.4435358178693
 20
50.27301410737698
 30
0.0
 11
236.9298630043418
 21
50.258962147296671
 31
0.0
  0
LINE
  5
1111C
  8
51
 10
236.4435358178693
 20
44.32748697098792
 30
0.0
 11
236.4435358178693
 21
49.759149128088247
 31
0.0
  0
ARC
  5
1111D
  8
43
  6
DASHED
 10
240.74353581786929
 20
85.512101962938942
 30
0.0
 40
0.5
 50
91.000000000001634
 51
180.0
  0
LINE
  5
1111E
  8
51
 10
236.4435358178693
 20
85.759149490388097
 30
0.0
 11
236.4435358178693
 21
80.327487333287749
 31
0.0
  0
LINE
  5
1111F
  8
51
 10
237.4435358178693
 20
79.813622353999023
 30
0.0
 11
236.9298630043418
 21
79.827674314079331
 31
0.0
  0
ARC
  5
11120
  8
51
 10
236.9435358178693
 20
80.327487333287749
 30
0.0
 40
0.5
 50
180.0
 51
268.43301564608402
  0
ARC
  5
11121
  8
51
 10
236.9435358178693
 20
85.759149490388097
 30
0.0
 40
0.5
 50
91.566984353915984
 51
180.0
  0
LINE
  5
11122
  8
51
 10
237.4435358178693
 20
86.273014469676809
 30
0.0
 11
236.9298630043418
 21
86.2589625095965
 31
0.0
  0
LINE
  5
11123
  8
43
  6
DASHED
 10
266.94353581786919
 20
95.269074309557524
 30
0.0
 11
240.73480961465069
 21
94.811599291994554
 31
0.0
  0
ARC
  5
11124
  8
43
  6
DASHED
 10
240.74353581786929
 20
94.311675444416323
 30
0.0
 40
0.5
 50
90.999999999999915
 51
180.0
  0
POLYLINE
  5
14779
  8
51
 66
     1
 10
0.0
 20
0.0
 30
0.0
  0
VERTEX
  5
1EDAB
  8
51
 10
188.8498410352621
 20
94.808169785916562
 30
0.0
 42
-0.4142135562323589
  0
VERTEX
  5
1EDAC
  8
51
 10
190.54958273299459
 20
93.108428123820474
 30
0.0
  0
VERTEX
  5
1EDAD
  8
51
 10
190.54958273299459
 20
82.543318230688101
 30
0.0
 42
0.4139627029516502
  0
VERTEX
  5
1EDAE
  8
51
 10
196.48430568660831
 20
76.603509631037269
 30
0.0
  0
VERTEX
  5
1EDAF
  8
51
 10
198.04427099908921
 20
76.603450957715125
 30
0.0
 42
-0.4141913695006564
  0
VERTEX
  5
1EDB0
  8
51
 10
199.74401292885881
 20
74.903709959268127
 30
0.0
  0
VERTEX
  5
1EDB1
  8
51
 10
199.74401293193111
 20
45.782824443523758
 30
0.0
 42
-0.4142314943134449
  0
VERTEX
  5
1EDB2
  8
51
 10
198.04427099908921
 20
44.08318657058404
 30
0.0
  0
VERTEX
  5
1EDB3
  8
51
 10
196.52911347831821
 20
44.083186570584317
 30
0.0
 42
0.4122656760643951
  0
VERTEX
  5
1EDB4
  8
51
 10
190.54958273299459
 20
38.143318230688088
 30
0.0
  0
VERTEX
  5
1EDB5
  8
51
 10
190.54958273299459
 20
36.97820833755582
 30
0.0
 42
-0.4142135623730943
  0
VERTEX
  5
1EDB6
  8
51
 10
188.84958273299469
 20
35.278466675459867
 30
0.0
  0
VERTEX
  5
1EDB7
  8
51
 10
119.1187694438848
 20
35.27846667545969
 30
0.0
  0
SEQEND
  5
1EDB8
  8
51
  0
LINE
  5
1477A
  8
51
 10
119.1187694438849
 20
96.525284330793042
 30
0.0
 11
188.8498410352621
 21
96.525284330793227
 31
0.0
  0
POLYLINE
  5
1477B
  8
51
 66
     1
 10
0.0
 20
0.0
 30
0.0
  0
VERTEX
  5
1EDB9
  8
51
 10
193.24269590462779
 20
93.958561453997646
 30
0.0
  0
VERTEX
  5
1EDBA
  8
51
 10
194.93976307596299
 20
95.655628625332866
 30
0.0
  0
VERTEX
  5
1EDBB
  8
51
 10
196.2372579523784
 20
94.358132883644643
 30
0.0
  0
SEQEND
  5
1EDBC
  8
51
  0
CIRCLE
  5
1477E
  8
51
 10
196.88430523957351
 20
91.943318230688135
 30
0.0
 40
1.334580497789809
  0
CIRCLE
  5
1477F
  8
51
 10
196.88430523957351
 20
83.043318230688115
 30
0.0
 40
2.0511249079240201
  0
POLYLINE
  5
14780
  8
51
 66
     1
 10
0.0
 20
0.0
 30
0.0
  0
VERTEX
  5
1EDBD
  8
51
 10
192.3860050522932
 20
87.341603187484054
 30
0.0
  0
VERTEX
  5
1EDBE
  8
51
 10
201.4821636778465
 20
87.341603187484054
 30
0.0
  0
VERTEX
  5
1EDBF
  8
51
 10
201.48216367784659
 20
76.448479118404151
 30
0.0
  0
SEQEND
  5
1EDC0
  8
51
  0
LINE
  5
14782
  8
51
 10
191.7680810203654
 20
72.028418740276237
 30
0.0
 11
113.9843052395735
 21
72.028418740276237
 31
0.0
  0
LINE
  5
14784
  8
51
 10
113.9843052395735
 20
70.55821772110005
 30
0.0
 11
193.31213396786569
 21
70.558766171913703
 31
0.0
  0
CIRCLE
  5
14785
  8
51
 10
120.9843052395735
 20
65.043318230688129
 30
0.0
 40
2.9440524023634671
  0
ARC
  5
14786
  8
51
 10
135.9843052395735
 20
65.043318230688129
 30
0.0
 40
2.9440524023634671
 50
40.159445279431637
 51
319.84055472056838
  0
ARC
  5
14787
  8
51
 10
140.4843052395735
 20
65.043318230688129
 30
0.0
 40
2.9440524023634671
 50
220.15944527943159
 51
319.84055472056838
  0
ARC
  5
14788
  8
51
 10
144.9843052395735
 20
65.043318230688129
 30
0.0
 40
2.9440524023634671
 50
220.15944527943159
 51
139.84055472056829
  0
CIRCLE
  5
14789
  8
51
 10
153.9843052395735
 20
65.043318230688129
 30
0.0
 40
2.9440524023634671
  0
ARC
  5
1478A
  8
51
 10
162.9843052395735
 20
65.043318230688129
 30
0.0
 40
2.9440524023634671
 50
40.159445279431637
 51
319.84055472056838
  0
ARC
  5
1478B
  8
51
 10
167.4843052395735
 20
65.043318230688129
 30
0.0
 40
2.9440524023634671
 50
220.15944527943159
 51
139.84055472056829
  0
CIRCLE
  5
1478C
  8
51
 10
173.78430523957351
 20
65.043318230688129
 30
0.0
 40
2.9440524023634671
  0
CIRCLE
  5
1478D
  8
51
 10
180.9843052395735
 20
65.043318230688129
 30
0.0
 40
2.9440524023634671
  0
CIRCLE
  5
1478E
  8
51
 10
194.9843052395735
 20
73.043318230688158
 30
0.0
 40
2.9440524023634671
  0
CIRCLE
  5
1478F
  8
51
 10
194.9843052395735
 20
65.043318230688129
 30
0.0
 40
4.4948548703878064
  0
CIRCLE
  5
14790
  8
51
 10
194.9843052395735
 20
55.043318230688129
 30
0.0
 40
4.4948548703878064
  0
CIRCLE
  5
14791
  8
51
 10
194.9843052395735
 20
47.043318230688151
 30
0.0
 40
2.9440524023634671
  0
LINE
  5
14792
  8
63
  6
CENTER
 10
96.405726765228863
 20
65.043318230688001
 30
0.0
 11
212.33467112251321
 21
65.043318230688001
 31
0.0
  0
POLYLINE
  5
14794
  8
51
 66
     1
 10
0.0
 20
0.0
 30
0.0
  0
VERTEX
  5
1EDC1
  8
51
 10
111.0843052395733
 20
98.043318230688143
 30
0.0
  0
VERTEX
  5
1EDC2
  8
51
 10
196.88430523957331
 20
98.043318230688143
 30
0.0
 42
-0.4142135623730952
  0
VERTEX
  5
1EDC3
  8
51
 10
202.9843052395733
 20
91.943318230688135
 30
0.0
  0
VERTEX
  5
1EDC4
  8
51
 10
202.9843052395733
 20
38.143318230688124
 30
0.0
 42
-0.4142135623730965
  0
VERTEX
  5
1EDC5
  8
51
 10
196.88430523957331
 20
32.043318230688143
 30
0.0
  0
VERTEX
  5
1EDC6
  8
51
 10
111.0843052395733
 20
32.043318230688143
 30
0.0
 42
-0.4142135623730944
  0
VERTEX
  5
1EDC7
  8
51
 10
104.9843052395733
 20
38.143318230688124
 30
0.0
  0
VERTEX
  5
1EDC8
  8
51
 10
104.9843052395733
 20
91.943318230688135
 30
0.0
 42
-0.4142135623730953
  0
VERTEX
  5
1EDC9
  8
51
 10
111.0843052395733
 20
98.043318230688143
 30
0.0
 42
0.9999999999999998
  0
SEQEND
  5
1EDCA
  8
51
  0
LINE
  5
14795
  8
63
  6
CENTER
 10
153.9843052395733
 20
101.6908672696763
 30
0.0
 11
153.9843052395733
 21
23.183561931993768
 31
0.0
  0
POLYLINE
  5
14797
  8
51
 66
     1
 10
0.0
 20
0.0
 30
0.0
  0
VERTEX
  5
1EDCB
  8
51
 10
119.1187694438848
 20
35.278466675459683
 30
0.0
 42
-0.4142135562323589
  0
VERTEX
  5
1EDCC
  8
51
 10
117.4190277461523
 20
36.978208337555792
 30
0.0
  0
VERTEX
  5
1EDCD
  8
51
 10
117.4190277461523
 20
47.543318230688151
 30
0.0
 42
0.4139627029516502
  0
VERTEX
  5
1EDCE
  8
51
 10
111.48430479253859
 20
53.483126830338982
 30
0.0
  0
VERTEX
  5
1EDCF
  8
51
 10
109.9243394800577
 20
53.483185503661119
 30
0.0
 42
-0.4141913695006564
  0
VERTEX
  5
1EDD0
  8
51
 10
108.2245975502881
 20
55.182926502108117
 30
0.0
  0
VERTEX
  5
1EDD1
  8
51
 10
108.22459754721579
 20
84.303812017852493
 30
0.0
 42
-0.4142314943134449
  0
VERTEX
  5
1EDD2
  8
51
 10
109.9243394800577
 20
86.003449890792211
 30
0.0
  0
VERTEX
  5
1EDD3
  8
51
 10
111.43949700082869
 20
86.003449890791927
 30
0.0
 42
0.4122656760643951
  0
VERTEX
  5
1EDD4
  8
51
 10
117.4190277461523
 20
91.943318230688163
 30
0.0
  0
VERTEX
  5
1EDD5
  8
51
 10
117.4190277461523
 20
93.108428123820431
 30
0.0
 42
-0.4142135623730943
  0
VERTEX
  5
1EDD6
  8
51
 10
119.1190277461523
 20
94.808169785916363
 30
0.0
  0
VERTEX
  5
1EDD7
  8
51
 10
188.8498410352621
 20
94.808169785916562
 30
0.0
  0
SEQEND
  5
1EDD8
  8
51
  0
ARC
  5
14798
  8
51
 10
196.88430523957351
 20
91.943318230688135
 30
0.0
 40
2.5000000000000182
 50
344.9999695151435
 51
104.99999227548101
  0
POLYLINE
  5
1479A
  8
51
 66
     1
 10
0.0
 20
0.0
 30
0.0
  0
VERTEX
  5
1EDD9
  8
51
 10
199.299119461027
 20
91.296269333102984
 30
0.0
  0
VERTEX
  5
1EDDA
  8
51
 10
200.5966135361503
 20
89.998774392707233
 30
0.0
  0
VERTEX
  5
1EDDB
  8
51
 10
198.82884889688319
 20
88.231007728852433
 30
0.0
  0
VERTEX
  5
1EDDC
  8
51
 10
197.55663850543741
 20
89.535421227157272
 30
0.0
  0
SEQEND
  5
1EDDD
  8
51
  0
POLYLINE
  5
1479B
  8
51
 66
     1
 10
0.0
 20
0.0
 30
0.0
  0
VERTEX
  5
1EDDE
  8
51
 10
194.49396362556459
 20
92.675620742180143
 30
0.0
  0
VERTEX
  5
1EDDF
  8
51
 10
193.24269590462779
 20
93.958561453997646
 30
0.0
  0
SEQEND
  5
1EDE0
  8
51
  0
ARC
  5
1479C
  8
51
 10
196.88430523957351
 20
91.943318230688135
 30
0.0
 40
2.5000000000000182
 50
162.96708650672409
 51
285.60080222899609
  0
ARC
  5
1479D
  8
51
 10
196.88430523957351
 20
38.143318230687868
 30
0.0
 40
2.5000000000000182
 50
255.00000772451889
 51
15.000030484856479
  0
ARC
  5
1479E
  8
51
 10
196.88430523957351
 20
38.143318230687868
 30
0.0
 40
2.5000000000000182
 50
74.399197771003927
 51
197.0329134932758
  0
CIRCLE
  5
1479F
  8
51
 10
196.88430523957351
 20
38.143318230687868
 30
0.0
 40
1.334580497789809
  0
POLYLINE
  5
147A0
  8
51
 66
     1
 10
0.0
 20
0.0
 30
0.0
  0
VERTEX
  5
1EDE1
  8
51
 10
199.299119461027
 20
38.790367128273019
 30
0.0
  0
VERTEX
  5
1EDE2
  8
51
 10
200.5966135361503
 20
40.08786206866877
 30
0.0
  0
VERTEX
  5
1EDE3
  8
51
 10
198.82884889688319
 20
41.85562873252357
 30
0.0
  0
VERTEX
  5
1EDE4
  8
51
 10
197.55663850543741
 20
40.551215234218731
 30
0.0
  0
SEQEND
  5
1EDE5
  8
51
  0
POLYLINE
  5
147A1
  8
51
 66
     1
 10
0.0
 20
0.0
 30
0.0
  0
VERTEX
  5
1EDE6
  8
51
 10
194.49396362556459
 20
37.411015719195852
 30
0.0
  0
VERTEX
  5
1EDE7
  8
51
 10
193.24269590462779
 20
36.128075007378349
 30
0.0
  0
SEQEND
  5
1EDE8
  8
51
  0
POLYLINE
  5
147A2
  8
51
 66
     1
 10
0.0
 20
0.0
 30
0.0
  0
VERTEX
  5
1EDE9
  8
51
 10
193.24269590462779
 20
36.128075007378349
 30
0.0
  0
VERTEX
  5
1EDEA
  8
51
 10
194.93976307596299
 20
34.431007836043129
 30
0.0
  0
VERTEX
  5
1EDEB
  8
51
 10
196.2372579523784
 20
35.72850357773136
 30
0.0
  0
SEQEND
  5
1EDEC
  8
51
  0
POLYLINE
  5
147A3
  8
51
 66
     1
 10
0.0
 20
0.0
 30
0.0
  0
VERTEX
  5
1EDED
  8
51
 10
108.6694910181197
 20
38.790367128273019
 30
0.0
  0
VERTEX
  5
1EDEE
  8
51
 10
107.3719969429963
 20
40.08786206866877
 30
0.0
  0
VERTEX
  5
1EDEF
  8
51
 10
109.1397615822635
 20
41.85562873252357
 30
0.0
  0
VERTEX
  5
1EDF0
  8
51
 10
110.4119719737093
 20
40.551215234218731
 30
0.0
  0
SEQEND
  5
1EDF1
  8
51
  0
CIRCLE
  5
147A4
  8
51
 10
111.0843052395732
 20
38.143318230687868
 30
0.0
 40
1.334580497789809
  0
ARC
  5
147A5
  8
51
 10
111.0843052395732
 20
38.143318230687868
 30
0.0
 40
2.5000000000000182
 50
164.9999695151435
 51
284.99999227548102
  0
POLYLINE
  5
147A6
  8
51
 66
     1
 10
0.0
 20
0.0
 30
0.0
  0
VERTEX
  5
1EDF2
  8
51
 10
114.7259145745189
 20
36.128075007378349
 30
0.0
  0
VERTEX
  5
1EDF3
  8
51
 10
113.0288474031837
 20
34.431007836043129
 30
0.0
  0
VERTEX
  5
1EDF4
  8
51
 10
111.7313525267683
 20
35.72850357773136
 30
0.0
  0
SEQEND
  5
1EDF5
  8
51
  0
POLYLINE
  5
147A7
  8
51
 66
     1
 10
0.0
 20
0.0
 30
0.0
  0
VERTEX
  5
1EDF6
  8
51
 10
113.4746468535821
 20
37.411015719195852
 30
0.0
  0
VERTEX
  5
1EDF7
  8
51
 10
114.7259145745189
 20
36.128075007378349
 30
0.0
  0
SEQEND
  5
1EDF8
  8
51
  0
ARC
  5
147A8
  8
51
 10
111.0843052395732
 20
38.143318230687868
 30
0.0
 40
2.5000000000000182
 50
342.96708650672412
 51
105.600802228996
  0
POLYLINE
  5
147A9
  8
51
 66
     1
 10
0.0
 20
0.0
 30
0.0
  0
VERTEX
  5
1EDF9
  8
51
 10
108.6694910181197
 20
91.296269333102984
 30
0.0
  0
VERTEX
  5
1EDFA
  8
51
 10
107.3719969429963
 20
89.998774392707233
 30
0.0
  0
VERTEX
  5
1EDFB
  8
51
 10
109.1397615822635
 20
88.231007728852433
 30
0.0
  0
VERTEX
  5
1EDFC
  8
51
 10
110.4119719737093
 20
89.535421227157272
 30
0.0
  0
SEQEND
  5
1EDFD
  8
51
  0
ARC
  5
147AA
  8
51
 10
111.0843052395732
 20
91.943318230688135
 30
0.0
 40
2.5000000000000182
 50
75.000007724518895
 51
195.0000304848565
  0
ARC
  5
147AB
  8
51
 10
111.0843052395732
 20
91.943318230688135
 30
0.0
 40
2.5000000000000182
 50
254.39919777100391
 51
17.032913493275839
  0
CIRCLE
  5
147AC
  8
51
 10
111.0843052395732
 20
91.943318230688135
 30
0.0
 40
1.334580497789809
  0
POLYLINE
  5
147AD
  8
51
 66
     1
 10
0.0
 20
0.0
 30
0.0
  0
VERTEX
  5
1EDFE
  8
51
 10
113.4746468535821
 20
92.675620742180143
 30
0.0
  0
VERTEX
  5
1EDFF
  8
51
 10
114.7259145745189
 20
93.958561453997646
 30
0.0
  0
SEQEND
  5
1EE00
  8
51
  0
POLYLINE
  5
147AE
  8
51
 66
     1
 10
0.0
 20
0.0
 30
0.0
  0
VERTEX
  5
1EE01
  8
51
 10
114.7259145745189
 20
93.958561453997646
 30
0.0
  0
VERTEX
  5
1EE02
  8
51
 10
113.0288474031837
 20
95.655628625332866
 30
0.0
  0
VERTEX
  5
1EE03
  8
51
 10
111.7313525267683
 20
94.358132883644643
 30
0.0
  0
SEQEND
  5
1EE04
  8
51
  0
CIRCLE
  5
147AF
  8
51
 10
111.0843052395734
 20
47.043318230688122
 30
0.0
 40
2.0511249079240201
  0
POLYLINE
  5
147B0
  8
51
 66
     1
 10
0.0
 20
0.0
 30
0.0
  0
VERTEX
  5
1EE05
  8
51
 10
115.5826054268537
 20
42.74503327389219
 30
0.0
  0
VERTEX
  5
1EE06
  8
51
 10
106.4864468013004
 20
42.74503327389219
 30
0.0
  0
VERTEX
  5
1EE07
  8
51
 10
106.4864468013002
 20
53.6381573429721
 30
0.0
  0
SEQEND
  5
1EE08
  8
51
  0
LINE
  5
147B1
  8
51
 10
113.9843052395735
 20
59.528418740275953
 30
0.0
 11
193.31213396786569
 21
59.5278702894623
 31
0.0
  0
LINE
  5
147B2
  8
51
 10
191.7680810203654
 20
58.058217721099759
 30
0.0
 11
113.9843052395735
 21
58.058217721099759
 31
0.0
  0
POLYLINE
  5
1B531
  8
51
 66
     1
 10
0.0
 20
0.0
 30
0.0
  0
VERTEX
  5
1EE09
  8
51
 10
188.84984099926149
 20
96.525284330793227
 30
0.0
 42
-0.4142135685138364
  0
VERTEX
  5
1EE0A
  8
51
 10
192.26669727787129
 20
93.108428123820445
 30
0.0
  0
VERTEX
  5
1EE0B
  8
51
 10
192.26669727787129
 20
82.543318230688115
 30
0.0
 42
0.4139180922167498
  0
VERTEX
  5
1EE0C
  8
51
 10
196.4851332190089
 20
78.320624146003411
 30
0.0
 42
0.4139180922167498
  0
SEQEND
  5
1EE0D
  8
51
  0
POLYLINE
  5
1B532
  8
51
 66
     1
 10
0.0
 20
0.0
 30
0.0
  0
VERTEX
  5
1EE0E
  8
51
 10
188.84952876701379
 20
33.561352130583209
 30
0.0
  0
VERTEX
  5
1EE0F
  8
51
 10
119.1187694438848
 20
33.561352130583032
 30
0.0
  0
SEQEND
  5
1EE10
  8
51
  0
POLYLINE
  5
1B533
  8
51
 66
     1
 10
0.0
 20
0.0
 30
0.0
  0
VERTEX
  5
1EE11
  8
51
 10
198.04422751955519
 20
42.366072025707382
 30
0.0
  0
VERTEX
  5
1EE12
  8
51
 10
196.5291134783179
 20
42.366072025707659
 30
0.0
 42
0.4119067481349611
  0
VERTEX
  5
1EE13
  8
51
 10
192.26669727787129
 20
38.137122064653887
 30
0.0
 42
0.4119067481349611
  0
SEQEND
  5
1EE14
  8
51
  0
POLYLINE
  5
1B534
  8
51
 66
     1
 10
0.0
 20
0.0
 30
0.0
  0
VERTEX
  5
1EE15
  8
51
 10
188.84984099926149
 20
96.525284330793227
 30
0.0
 42
-0.4142135685138364
  0
VERTEX
  5
1EE16
  8
51
 10
192.26669727787129
 20
93.108428123820445
 30
0.0
  0
VERTEX
  5
1EE17
  8
51
 10
192.26669727787129
 20
82.543318230688115
 30
0.0
 42
0.4139180922167498
  0
VERTEX
  5
1EE18
  8
51
 10
196.4851332190089
 20
78.320624146003411
 30
0.0
 42
0.4139180922167498
  0
SEQEND
  5
1EE19
  8
51
  0
POLYLINE
  5
1B537
  8
51
 66
     1
 10
0.0
 20
0.0
 30
0.0
  0
VERTEX
  5
1EE1A
  8
51
 10
188.84984099926149
 20
96.525284330793227
 30
0.0
 42
-0.4142135685138364
  0
VERTEX
  5
1EE1B
  8
51
 10
192.26669727787129
 20
93.108428123820445
 30
0.0
  0
VERTEX
  5
1EE1C
  8
51
 10
192.26669727787129
 20
82.543318230688115
 30
0.0
 42
0.4139180922167498
  0
VERTEX
  5
1EE1D
  8
51
 10
196.4851332190089
 20
78.320624146003411
 30
0.0
 42
0.4139180922167498
  0
SEQEND
  5
1EE1E
  8
51
  0
POLYLINE
  5
1B53A
  8
51
 66
     1
 10
0.0
 20
0.0
 30
0.0
  0
VERTEX
  5
1EE1F
  8
51
 10
119.1187694798854
 20
33.561352130583018
 30
0.0
 42
-0.4142135685138316
  0
VERTEX
  5
1EE20
  8
51
 10
115.7019132012756
 20
36.978208337555792
 30
0.0
  0
VERTEX
  5
1EE21
  8
51
 10
115.7019132012756
 20
47.543318230688151
 30
0.0
 42
0.4139180922177881
  0
VERTEX
  5
1EE22
  8
51
 10
111.4834772601231
 20
51.766012315372848
 30
0.0
 42
0.4139180922177881
  0
SEQEND
  5
1EE23
  8
51
  0
POLYLINE
  5
1B53B
  8
51
 66
     1
 10
0.0
 20
0.0
 30
0.0
  0
VERTEX
  5
1EE24
  8
51
 10
119.11908171240211
 20
96.525284330793042
 30
0.0
  0
VERTEX
  5
1EE25
  8
51
 10
188.8498410352621
 20
96.525284330793227
 30
0.0
  0
SEQEND
  5
1EE26
  8
51
  0
POLYLINE
  5
1B53C
  8
51
 66
     1
 10
0.0
 20
0.0
 30
0.0
  0
VERTEX
  5
1EE27
  8
51
 10
109.92438295926659
 20
87.720564435668877
 30
0.0
  0
VERTEX
  5
1EE28
  8
51
 10
111.43949700082899
 20
87.720564435668578
 30
0.0
 42
0.4119067481348992
  0
VERTEX
  5
1EE29
  8
51
 10
115.7019132012756
 20
91.949514396721383
 30
0.0
 42
0.4119067481348992
  0
SEQEND
  5
1EE2A
  8
51
  0
POLYLINE
  5
1B53E
  8
51
 66
     1
 10
0.0
 20
0.0
 30
0.0
  0
VERTEX
  5
1EE2B
  8
51
 10
119.11908171240211
 20
96.525284330793042
 30
0.0
  0
VERTEX
  5
1EE2C
  8
51
 10
188.8498410352621
 20
96.525284330793227
 30
0.0
  0
SEQEND
  5
1EE2D
  8
51
  0
POLYLINE
  5
1B541
  8
51
 66
     1
 10
0.0
 20
0.0
 30
0.0
  0
VERTEX
  5
1EE2E
  8
51
 10
119.11908171240211
 20
96.525284330793042
 30
0.0
  0
VERTEX
  5
1EE2F
  8
51
 10
188.8498410352621
 20
96.525284330793227
 30
0.0
  0
SEQEND
  5
1EE30
  8
51
  0
POLYLINE
  5
1B544
  8
51
 66
     1
 10
0.0
 20
0.0
 30
0.0
  0
VERTEX
  5
1EE31
  8
51
 10
119.11908171240211
 20
96.525284330793042
 30
0.0
  0
VERTEX
  5
1EE32
  8
51
 10
188.8498410352621
 20
96.525284330793227
 30
0.0
  0
SEQEND
  5
1EE33
  8
51
  0
ARC
  5
1B546
  8
51
 10
188.84984107089849
 20
93.108428123820474
 30
0.0
 40
2.1497416620961052
 50
0.0
 51
90.000001201251294
  0
LINE
  5
1B547
  8
51
 10
190.99958273299461
 20
93.108428123820474
 30
0.0
 11
190.99958273299461
 21
82.543318230688101
 31
0.0
  0
ARC
  5
1B548
  8
51
 10
196.48939351166851
 20
82.543318230688129
 30
0.0
 40
5.4898107786738422
 50
180.00000000000031
 51
269.94903727498519
  0
LINE
  5
1B549
  8
51
 10
196.48451050488191
 20
77.053509623651962
 30
0.0
 11
198.04428792446231
 21
77.053450957396834
 31
0.0
  0
ARC
  5
1B54A
  8
51
 10
198.0442070660927
 20
74.90364509491377
 30
0.0
 40
2.149805864003683
 50
0.0021863989441196
 51
89.997844994564787
  0
ARC
  5
1B54B
  8
51
 10
199.74401292885881
 20
74.903709959108141
 30
0.0
 40
0.4499999999999887
 50
0.0000000263572708
 51
0.0021864193138433
  0
LINE
  5
1B54C
  8
51
 10
200.1940129288588
 20
74.903709959315151
 30
0.0
 11
200.1940129319311
 21
45.782824443571243
 31
0.0
  0
ARC
  5
1B54D
  8
51
 10
198.04437505598531
 20
45.782824443344452
 30
0.0
 40
2.1496378759457282
 50
269.99688087844822
 51
0.0000000060448176
  0
LINE
  5
1B54E
  8
51
 10
198.0442580319762
 20
43.633186570584037
 30
0.0
 11
196.5291134783181
 21
43.633186570584328
 31
0.0
  0
ARC
  5
1B54F
  8
51
 10
196.5291134783171
 20
38.10352340596279
 30
0.0
 40
5.529663164621538
 50
89.999999999989683
 51
179.60348027116251
  0
LINE
  5
1B550
  8
51
 10
190.99958273299461
 20
38.141791548135132
 30
0.0
 11
190.99958273299461
 21
36.97820833755582
 31
0.0
  0
ARC
  5
1B551
  8
51
 10
190.54958273299459
 20
36.978208337338273
 30
0.0
 40
0.4499999999999887
 50
359.9956462640929
 51
0.0000000276998324
  0
ARC
  5
1B552
  8
51
 10
188.84971190194659
 20
36.97833750650792
 30
0.0
 40
2.149870835955678
 50
269.99612861378961
 51
359.99564623638167
  0
LINE
  5
1B553
  8
51
 10
188.84956663853669
 20
34.828466675459872
 30
0.0
 11
119.1187694438848
 21
34.828466675459687
 31
0.0
  0
LINE
  5
1B554
  8
51
 10
196.48455816351839
 20
78.32062416763236
 30
0.0
 11
198.0443355830989
 21
78.320565501377231
 31
0.0
  0
ARC
  5
1B555
  8
51
 10
198.0442070660927
 20
74.90364509491377
 30
0.0
 40
3.4169204088803449
 50
0.0021863989441196
 51
89.997844994564787
  0
LINE
  5
1B556
  8
51
 10
201.46112747373539
 20
74.903709959448832
 30
0.0
 11
201.46112747680769
 21
45.782824443704932
 31
0.0
  0
ARC
  5
1B557
  8
51
 10
198.04437505598531
 20
45.782824443344452
 30
0.0
 40
3.4167524208223901
 50
269.99688087844822
 51
0.0000000060448176
  0
LINE
  5
1B558
  8
51
 10
192.26669727787129
 20
38.141791548135132
 30
0.0
 11
192.26669727787129
 21
36.97820833755582
 31
0.0
  0
ARC
  5
1B559
  8
51
 10
188.84971190194659
 20
36.97833750650792
 30
0.0
 40
3.4169853808323398
 50
269.99612861378961
 51
359.99564623638167
  0
POLYLINE
  5
1B55B
  8
51
 66
     1
 10
0.0
 20
0.0
 30
0.0
  0
VERTEX
  5
1EE34
  8
51
 10
119.11908171240211
 20
96.525284330793042
 30
0.0
  0
VERTEX
  5
1EE35
  8
51
 10
188.8498410352621
 20
96.525284330793227
 30
0.0
  0
SEQEND
  5
1EE36
  8
51
  0
ARC
  5
1B55D
  8
51
 10
119.1187694082484
 20
36.978208337555778
 30
0.0
 40
2.1497416620960981
 50
179.9999999999998
 51
270.00000120125088
  0
LINE
  5
1B55E
  8
51
 10
116.96902774615219
 20
36.978208337555792
 30
0.0
 11
116.96902774615219
 21
47.543318230688151
 31
0.0
  0
ARC
  5
1B55F
  8
51
 10
111.47921696747839
 20
47.543318230688158
 30
0.0
 40
5.4898107786738128
 50
359.99999999999989
 51
89.949037275163946
  0
LINE
  5
1B560
  8
51
 10
111.4840999742479
 20
53.033126837724289
 30
0.0
 11
109.92432255468459
 21
53.033185503979432
 31
0.0
  0
ARC
  5
1B561
  8
51
 10
109.92440341305419
 20
55.182991366462502
 30
0.0
 40
2.1498058640036972
 50
180.00218639894479
 51
269.99784499456439
  0
ARC
  5
1B562
  8
51
 10
108.2245975502881
 20
55.182926502268089
 30
0.0
 40
0.4500000000000029
 50
180.0000000263563
 51
180.00218641931289
  0
LINE
  5
1B563
  8
51
 10
107.77459755028811
 20
55.1829265020611
 30
0.0
 11
107.77459754721581
 21
84.303812017805029
 31
0.0
  0
ARC
  5
1B564
  8
51
 10
109.9242354231616
 20
84.303812018031763
 30
0.0
 40
2.1496378759457571
 50
89.996880885342676
 51
180.00000000604359
  0
LINE
  5
1B565
  8
51
 10
109.924352446912
 20
86.453449890792214
 30
0.0
 11
111.43949700082879
 21
86.45344989079193
 31
0.0
  0
ARC
  5
1B566
  8
51
 10
111.4394970008298
 20
91.983113055413426
 30
0.0
 40
5.5296631646215104
 50
269.99999999998943
 51
359.60348027111951
  0
LINE
  5
1B567
  8
51
 10
116.96902774615219
 20
91.944844913236949
 30
0.0
 11
116.96902774615231
 21
93.108428123820431
 31
0.0
  0
ARC
  5
1B568
  8
51
 10
117.4190277461523
 20
93.108428123850956
 30
0.0
 40
0.4500000000000029
 50
179.99564624028051
 51
180.0000000038865
  0
ARC
  5
1B569
  8
51
 10
119.1188985772003
 20
93.10829895486836
 30
0.0
 40
2.1498708359556211
 50
89.99612860795267
 51
179.99564623638261
  0
LINE
  5
1B56A
  8
51
 10
119.11904384082909
 20
95.258169785916365
 30
0.0
 11
188.8498410352621
 21
95.258169785916564
 31
0.0
  0
LINE
  5
1B56B
  8
51
 10
111.48405231561139
 20
51.766012293743898
 30
0.0
 11
109.924274896048
 21
51.76607095999902
 31
0.0
  0
ARC
  5
1B56C
  8
51
 10
109.92440341305419
 20
55.182991366462502
 30
0.0
 40
3.4169204088803591
 50
180.00218639894479
 51
269.99784499456439
  0
LINE
  5
1B56D
  8
51
 10
106.5074830054115
 20
55.182926501927412
 30
0.0
 11
106.5074830023392
 21
84.303812017671348
 31
0.0
  0
ARC
  5
1B56E
  8
51
 10
109.9242354231616
 20
84.303812018031763
 30
0.0
 40
3.4167524208224189
 50
89.996880885342676
 51
180.00000000604359
  0
LINE
  5
1B56F
  8
51
 10
115.7019132012756
 20
91.944844913236963
 30
0.0
 11
115.7019132012756
 21
93.108428123820445
 31
0.0
  0
ARC
  5
1B570
  8
51
 10
119.1188985772003
 20
93.10829895486836
 30
0.0
 40
3.416985380832283
 50
89.99612860795267
 51
179.99564623638261
  0
ARC
  5
1B571
  8
51
 10
140.4843052395735
 20
65.043318230688129
 30
0.0
 40
2.9440524023634671
 50
40.159445279431637
 51
139.84055472056829
  0
CIRCLE
  5
1B573
  8
51
 10
120.9843052395735
 20
65.043318230688129
 30
0.0
 40
1.248696706348511
  0
CIRCLE
  5
1B574
  8
51
 10
135.9843052395735
 20
65.043318230688129
 30
0.0
 40
1.248696706348511
  0
CIRCLE
  5
1B575
  8
51
 10
140.4843052395735
 20
65.043318230688129
 30
0.0
 40
1.248696706348511
  0
CIRCLE
  5
1B576
  8
51
 10
144.9843052395735
 20
65.043318230688129
 30
0.0
 40
1.248696706348511
  0
CIRCLE
  5
1B577
  8
51
 10
153.9843052395735
 20
65.043318230688129
 30
0.0
 40
1.248696706348511
  0
CIRCLE
  5
1B578
  8
51
 10
162.9843052395735
 20
65.043318230688129
 30
0.0
 40
1.248696706348511
  0
CIRCLE
  5
1B57A
  8
51
 10
167.4843052395735
 20
65.043318230688129
 30
0.0
 40
1.248696706348511
  0
CIRCLE
  5
1B57B
  8
51
 10
173.78430523957351
 20
65.043318230688129
 30
0.0
 40
1.248696706348511
  0
CIRCLE
  5
1B57C
  8
51
 10
180.9843052395735
 20
65.043318230688129
 30
0.0
 40
1.248696706348511
  0
CIRCLE
  5
1B57D
  8
51
 10
194.9843052395735
 20
65.043318230688129
 30
0.0
 40
2.2325465551812438
  0
CIRCLE
  5
1B57E
  8
51
 10
194.9843052395735
 20
55.043318230688129
 30
0.0
 40
2.2325465551812438
  0
CIRCLE
  5
1B57F
  8
51
 10
194.9843052395735
 20
47.043318230688151
 30
0.0
 40
1.248696706348511
  0
CIRCLE
  5
1B581
  8
51
 10
194.9843052395735
 20
73.043318230688158
 30
0.0
 40
1.248696706348511
  0
LINE
  5
1B582
  8
43
  6
DASHED
 10
108.7159480258448
 20
122.70568531309959
 30
0.0
 11
153.98430523957339
 21
122.70568531309959
 31
0.0
  0
POLYLINE
  5
1B583
  8
51
 66
     1
 10
0.0
 20
0.0
 30
0.0
  0
VERTEX
  5
1EE37
  8
51
 10
106.484731758096
 20
147.90568531309961
 30
0.0
  0
VERTEX
  5
1EE38
  8
51
 10
106.50233913946791
 20
148.91441151631821
 30
0.0
 42
-0.4091108014277129
  0
VERTEX
  5
1EE39
  8
51
 10
107.00226298704619
 20
149.40568531309961
 30
0.0
  0
VERTEX
  5
1EE3A
  8
51
 10
153.98430523957339
 20
149.40568531309961
 30
0.0
  0
SEQEND
  5
1EE3B
  8
51
  0
POLYLINE
  5
1B584
  8
51
 66
     1
 10
0.0
 20
0.0
 30
0.0
  0
VERTEX
  5
1EE3C
  8
51
 10
104.9843052395733
 20
147.90568531309961
 30
0.0
  0
VERTEX
  5
1EE3D
  8
51
 10
202.9843052395733
 20
147.90568531309961
 30
0.0
  0
SEQEND
  5
1EE3E
  8
51
  0
POLYLINE
  5
1B585
  8
51
 66
     1
 10
0.0
 20
0.0
 30
0.0
  0
VERTEX
  5
1EE3F
  8
51
 10
202.9843052395733
 20
147.90568531309961
 30
0.0
  0
VERTEX
  5
1EE40
  8
51
 10
202.51271385362381
 20
120.8882329066623
 30
0.0
 42
-0.4091108014277088
  0
VERTEX
  5
1EE41
  8
51
 10
201.51286615846749
 20
119.9056853130996
 30
0.0
  0
VERTEX
  5
1EE42
  8
51
 10
106.4557443206791
 20
119.9056853130996
 30
0.0
 42
-0.4091108014277067
  0
VERTEX
  5
1EE43
  8
51
 10
105.4558966255227
 20
120.8882329066623
 30
0.0
  0
VERTEX
  5
1EE44
  8
51
 10
104.9843052395733
 20
147.90568531309961
 30
0.0
  0
SEQEND
  5
1EE45
  8
51
  0
LINE
  5
1B586
  8
43
  6
DASHED
 10
107.75854916070359
 20
149.40568531309961
 30
0.0
 11
108.21602417826659
 21
123.19695910988089
 31
0.0
  0
ARC
  5
1B587
  8
43
  6
DASHED
 10
108.7159480258448
 20
123.20568531309959
 30
0.0
 40
0.5
 50
180.99999999999989
 51
270.0
  0
LINE
  5
1B588
  8
63
  6
CENTER
 10
153.98430523957339
 20
162.84948530047669
 30
0.0
 11
153.9843052395733
 21
104.8527008439044
 31
0.0
  0
LINE
  5
1B589
  8
43
  6
DASHED
 10
199.2526624533015
 20
122.70568531309959
 30
0.0
 11
153.98430523957339
 21
122.70568531309959
 31
0.0
  0
POLYLINE
  5
1B58A
  8
51
 66
     1
 10
0.0
 20
0.0
 30
0.0
  0
VERTEX
  5
1EE46
  8
51
 10
201.48387872105039
 20
147.90568531309961
 30
0.0
  0
VERTEX
  5
1EE47
  8
51
 10
201.4662713396784
 20
148.91441151631821
 30
0.0
 42
0.4091108014277129
  0
VERTEX
  5
1EE48
  8
51
 10
200.9663474921002
 20
149.40568531309961
 30
0.0
  0
VERTEX
  5
1EE49
  8
51
 10
153.98430523957339
 20
149.40568531309961
 30
0.0
  0
SEQEND
  5
1EE4A
  8
51
  0
LINE
  5
1B58B
  8
43
  6
DASHED
 10
116.969027746153
 20
149.4056853130997
 30
0.0
 11
117.4265027637168
 21
123.19695910988111
 31
0.0
  0
LINE
  5
1B58D
  8
43
  6
DASHED
 10
198.06330052909919
 20
126.20568531309959
 30
0.0
 11
114.0545295430001
 21
126.20568531309959
 31
0.0
  0
POLYLINE
  5
1B58E
  8
43
  6
DASHED
 66
     1
 10
0.0
 20
0.0
 30
0.0
  0
VERTEX
  5
1EE4B
  8
43
  6
DASHED
 10
147.15283297665201
 20
125.9213860999722
 30
0.0
  0
VERTEX
  5
1EE4C
  8
43
  6
DASHED
 10
146.99920472998519
 20
122.98998452622671
 30
0.0
  0
SEQEND
  5
1EE4D
  8
43
  6
DASHED
  0
ARC
  5
1B58F
  8
43
  6
DASHED
 10
117.926426611295
 20
123.20568531309981
 30
0.0
 40
0.5
 50
181.00000000000159
 51
270.0
  0
POLYLINE
  5
1B595
  8
43
  6
DASHED
 66
     1
 10
0.0
 20
0.0
 30
0.0
  0
VERTEX
  5
1EE4E
  8
43
  6
DASHED
 10
148.31632595330811
 20
125.9109210350308
 30
0.0
  0
VERTEX
  5
1EE4F
  8
43
  6
DASHED
 10
148.4688572983477
 20
123.0004495911685
 30
0.0
  0
SEQEND
  5
1EE50
  8
43
  6
DASHED
  0
POLYLINE
  5
1B596
  8
43
  6
DASHED
 66
     1
 10
0.0
 20
0.0
 30
0.0
  0
VERTEX
  5
1EE51
  8
43
  6
DASHED
 10
160.8157775024948
 20
125.9213860999722
 30
0.0
  0
VERTEX
  5
1EE52
  8
43
  6
DASHED
 10
160.96940574916161
 20
122.98998452622671
 30
0.0
  0
SEQEND
  5
1EE53
  8
43
  6
DASHED
  0
LINE
  5
1B59A
  8
51
 10
193.65722997397981
 20
119.9056853130996
 30
0.0
 11
193.6712819340602
 21
119.392012499572
 31
0.0
  0
ARC
  5
1B59B
  8
51
 10
194.17109495326861
 20
119.4056853130996
 30
0.0
 40
0.5
 50
181.5669843539159
 51
270.0
  0
LINE
  5
1B59C
  8
51
 10
199.60275711036891
 20
118.9056853130996
 30
0.0
 11
194.17109495326861
 21
118.9056853130996
 31
0.0
  0
ARC
  5
1B59D
  8
51
 10
199.60275711036891
 20
119.4056853130996
 30
0.0
 40
0.5
 50
270.0
 51
358.43301564608402
  0
LINE
  5
1B59E
  8
51
 10
200.11662208965771
 20
119.9056853130996
 30
0.0
 11
200.10257012957729
 21
119.392012499572
 31
0.0
  0
LINE
  5
1B59F
  8
43
  6
DASHED
 10
200.21006131844271
 20
149.40568531309961
 30
0.0
 11
199.7525863008797
 21
123.19695910988089
 31
0.0
  0
ARC
  5
1B5A0
  8
43
  6
DASHED
 10
199.2526624533015
 20
123.20568531309959
 30
0.0
 40
0.5
 50
270.0
 51
359.0
  0
LINE
  5
1B5A1
  8
51
 10
108.36585336877771
 20
118.9056853130996
 30
0.0
 11
113.7975155258781
 21
118.9056853130996
 31
0.0
  0
ARC
  5
1B5A2
  8
51
 10
113.7975155258781
 20
119.4056853130996
 30
0.0
 40
0.5
 50
270.0
 51
358.43301564608402
  0
LINE
  5
1B5A3
  8
51
 10
114.3113805051668
 20
119.9056853130996
 30
0.0
 11
114.2973285450865
 21
119.392012499572
 31
0.0
  0
LINE
  5
1B5A4
  8
51
 10
107.85198838948909
 20
119.9056853130996
 30
0.0
 11
107.8660403495694
 21
119.392012499572
 31
0.0
  0
ARC
  5
1B5A5
  8
51
 10
108.36585336877771
 20
119.4056853130996
 30
0.0
 40
0.5
 50
181.56698435391601
 51
270.0
  0
LINE
  5
1B5A6
  8
43
  6
DASHED
 10
190.9995827329937
 20
149.4056853130997
 30
0.0
 11
190.54210771542989
 21
123.19695910988111
 31
0.0
  0
ARC
  5
1B5A7
  8
43
  6
DASHED
 10
190.04218386785169
 20
123.20568531309981
 30
0.0
 40
0.5
 50
270.0
 51
358.99999999999841
  0
POLYLINE
  5
1B5A8
  8
43
  6
DASHED
 66
     1
 10
0.0
 20
0.0
 30
0.0
  0
VERTEX
  5
1EE54
  8
43
  6
DASHED
 10
197.74911373625139
 20
125.9213860999722
 30
0.0
  0
VERTEX
  5
1EE55
  8
43
  6
DASHED
 10
197.9027419829182
 20
122.98998452622671
 30
0.0
  0
SEQEND
  5
1EE56
  8
43
  6
DASHED
  0
POLYLINE
  5
1B5A9
  8
43
  6
DASHED
 66
     1
 10
0.0
 20
0.0
 30
0.0
  0
VERTEX
  5
1EE57
  8
43
  6
DASHED
 10
183.95217792353759
 20
125.9213860999722
 30
0.0
  0
VERTEX
  5
1EE58
  8
43
  6
DASHED
 10
184.10580617020429
 20
122.98998452622671
 30
0.0
  0
SEQEND
  5
1EE59
  8
43
  6
DASHED
  0
POLYLINE
  5
1B5AA
  8
43
  6
DASHED
 66
     1
 10
0.0
 20
0.0
 30
0.0
  0
VERTEX
  5
1EE5A
  8
43
  6
DASHED
 10
176.62918781762221
 20
125.9213860999722
 30
0.0
  0
VERTEX
  5
1EE5B
  8
43
  6
DASHED
 10
176.78281606428899
 20
122.98998452622671
 30
0.0
  0
SEQEND
  5
1EE5C
  8
43
  6
DASHED
  0
POLYLINE
  5
1B5AB
  8
43
  6
DASHED
 66
     1
 10
0.0
 20
0.0
 30
0.0
  0
VERTEX
  5
1EE5D
  8
43
  6
DASHED
 10
170.47363257139489
 20
125.9213860999722
 30
0.0
  0
VERTEX
  5
1EE5E
  8
43
  6
DASHED
 10
170.6272608180617
 20
122.98998452622671
 30
0.0
  0
SEQEND
  5
1EE5F
  8
43
  6
DASHED
  0
POLYLINE
  5
1B5AC
  8
43
  6
DASHED
 66
     1
 10
0.0
 20
0.0
 30
0.0
  0
VERTEX
  5
1EE60
  8
43
  6
DASHED
 10
156.78282611947279
 20
125.9213860999722
 30
0.0
  0
VERTEX
  5
1EE61
  8
43
  6
DASHED
 10
156.9364543661396
 20
122.98998452622671
 30
0.0
  0
SEQEND
  5
1EE62
  8
43
  6
DASHED
  0
POLYLINE
  5
1B5AD
  8
43
  6
DASHED
 66
     1
 10
0.0
 20
0.0
 30
0.0
  0
VERTEX
  5
1EE63
  8
43
  6
DASHED
 10
123.8824412687387
 20
125.9213860999722
 30
0.0
  0
VERTEX
  5
1EE64
  8
43
  6
DASHED
 10
124.0360695154055
 20
122.98998452622671
 30
0.0
  0
SEQEND
  5
1EE65
  8
43
  6
DASHED
  0
POLYLINE
  5
1B5AE
  8
43
  6
DASHED
 66
     1
 10
0.0
 20
0.0
 30
0.0
  0
VERTEX
  5
1EE66
  8
43
  6
DASHED
 10
118.1792677699527
 20
125.9213860999722
 30
0.0
  0
VERTEX
  5
1EE67
  8
43
  6
DASHED
 10
118.0256395232859
 20
122.98998452622671
 30
0.0
  0
SEQEND
  5
1EE68
  8
43
  6
DASHED
  0
POLYLINE
  5
1B5AF
  8
43
  6
DASHED
 66
     1
 10
0.0
 20
0.0
 30
0.0
  0
VERTEX
  5
1EE69
  8
43
  6
DASHED
 10
133.24976542495051
 20
125.9213860999722
 30
0.0
  0
VERTEX
  5
1EE6A
  8
43
  6
DASHED
 10
133.0961371782837
 20
122.98998452622671
 30
0.0
  0
SEQEND
  5
1EE6B
  8
43
  6
DASHED
  0
POLYLINE
  5
1B5B0
  8
43
  6
DASHED
 66
     1
 10
0.0
 20
0.0
 30
0.0
  0
VERTEX
  5
1EE6C
  8
43
  6
DASHED
 10
151.2919137204662
 20
125.9213860999722
 30
0.0
  0
VERTEX
  5
1EE6D
  8
43
  6
DASHED
 10
151.13828547379941
 20
122.98998452622671
 30
0.0
  0
SEQEND
  5
1EE6E
  8
43
  6
DASHED
  0
POLYLINE
  5
1B5B1
  8
43
  6
DASHED
 66
     1
 10
0.0
 20
0.0
 30
0.0
  0
VERTEX
  5
1EE6F
  8
43
  6
DASHED
 10
160.2068561292362
 20
125.9213860999722
 30
0.0
  0
VERTEX
  5
1EE70
  8
43
  6
DASHED
 10
160.05322788256939
 20
122.98998452622671
 30
0.0
  0
SEQEND
  5
1EE71
  8
43
  6
DASHED
  0
POLYLINE
  5
1B5B2
  8
43
  6
DASHED
 66
     1
 10
0.0
 20
0.0
 30
0.0
  0
VERTEX
  5
1EE72
  8
43
  6
DASHED
 10
171.13827541861559
 20
125.9213860999722
 30
0.0
  0
VERTEX
  5
1EE73
  8
43
  6
DASHED
 10
170.98464717194881
 20
122.98998452622671
 30
0.0
  0
SEQEND
  5
1EE74
  8
43
  6
DASHED
  0
POLYLINE
  5
1B5B3
  8
43
  6
DASHED
 66
     1
 10
0.0
 20
0.0
 30
0.0
  0
VERTEX
  5
1EE75
  8
43
  6
DASHED
 10
178.1428726857643
 20
125.9213860999722
 30
0.0
  0
VERTEX
  5
1EE76
  8
43
  6
DASHED
 10
177.98924443909749
 20
122.98998452622671
 30
0.0
  0
SEQEND
  5
1EE77
  8
43
  6
DASHED
  0
LINE
  5
1B5B4
  8
43
  6
DASHED
 10
198.06330052909919
 20
3.8809511482763241
 30
0.0
 11
114.0545295430001
 21
3.8809511482763521
 31
0.0
  0
POLYLINE
  5
1B5B5
  8
51
 66
     1
 10
0.0
 20
0.0
 30
0.0
  0
VERTEX
  5
1EE78
  8
51
 10
201.48387872105039
 20
-17.819048851723629
 30
0.0
  0
VERTEX
  5
1EE79
  8
51
 10
201.4662713396784
 20
-18.827775054942229
 30
0.0
 42
-0.4091108014277129
  0
VERTEX
  5
1EE7A
  8
51
 10
200.9663474921002
 20
-19.319048851723601
 30
0.0
  0
VERTEX
  5
1EE7B
  8
51
 10
153.98430523957339
 20
-19.319048851723601
 30
0.0
  0
SEQEND
  5
1EE7C
  8
51
  0
POLYLINE
  5
1B5B6
  8
51
 66
     1
 10
0.0
 20
0.0
 30
0.0
  0
VERTEX
  5
1EE7D
  8
51
 10
202.9843052395733
 20
-17.819048851723629
 30
0.0
  0
VERTEX
  5
1EE7E
  8
51
 10
202.51271385362381
 20
9.19840355471365
 30
0.0
 42
0.4091108014277088
  0
VERTEX
  5
1EE7F
  8
51
 10
201.51286615846749
 20
10.18095114827636
 30
0.0
  0
VERTEX
  5
1EE80
  8
51
 10
106.4557443206791
 20
10.18095114827636
 30
0.0
 42
0.4091108014277067
  0
VERTEX
  5
1EE81
  8
51
 10
105.4558966255227
 20
9.1984035547136216
 30
0.0
  0
VERTEX
  5
1EE82
  8
51
 10
104.9843052395733
 20
-17.819048851723629
 30
0.0
  0
SEQEND
  5
1EE83
  8
51
  0
POLYLINE
  5
1B5B7
  8
51
 66
     1
 10
0.0
 20
0.0
 30
0.0
  0
VERTEX
  5
1EE84
  8
51
 10
104.9843052395733
 20
-17.819048851723629
 30
0.0
  0
VERTEX
  5
1EE85
  8
51
 10
202.9843052395733
 20
-17.819048851723629
 30
0.0
  0
SEQEND
  5
1EE86
  8
51
  0
LINE
  5
1B5B8
  8
43
  6
DASHED
 10
199.2526624533015
 20
7.3809511482763517
 30
0.0
 11
153.98430523957339
 21
7.3809511482763517
 31
0.0
  0
LINE
  5
1B5B9
  8
43
  6
DASHED
 10
116.969027746153
 20
-19.319048851723771
 30
0.0
 11
117.4265027637168
 21
6.8896773514948393
 31
0.0
  0
LINE
  5
1B5BA
  8
43
  6
DASHED
 10
107.75854916070359
 20
-19.319048851723601
 30
0.0
 11
108.21602417826659
 21
6.8896773514950089
 31
0.0
  0
LINE
  5
1B5BB
  8
63
  6
CENTER
 10
153.98430523957339
 20
-32.762848839100712
 30
0.0
 11
153.9843052395733
 21
25.233935617471591
 31
0.0
  0
LINE
  5
1B5BC
  8
43
  6
DASHED
 10
108.7159480258448
 20
7.3809511482763517
 30
0.0
 11
153.98430523957339
 21
7.3809511482763517
 31
0.0
  0
LINE
  5
1B5BD
  8
51
 10
108.36585336877771
 20
11.18095114827633
 30
0.0
 11
113.7975155258781
 21
11.18095114827633
 31
0.0
  0
ARC
  5
1B5BE
  8
51
 10
108.36585336877771
 20
10.68095114827633
 30
0.0
 40
0.5
 50
90.000000000000028
 51
178.4330156460839
  0
LINE
  5
1B5BF
  8
51
 10
107.85198838948909
 20
10.18095114827636
 30
0.0
 11
107.8660403495694
 21
10.69462396180389
 31
0.0
  0
ARC
  5
1B5C0
  8
43
  6
DASHED
 10
108.7159480258448
 20
6.8809511482763517
 30
0.0
 40
0.5
 50
90.000000000000028
 51
179.0
  0
LINE
  5
1B5C1
  8
51
 10
114.3113805051668
 20
10.18095114827636
 30
0.0
 11
114.2973285450865
 21
10.69462396180389
 31
0.0
  0
ARC
  5
1B5C2
  8
51
 10
113.7975155258781
 20
10.68095114827633
 30
0.0
 40
0.5
 50
1.5669843539159429
 51
90.000000000000028
  0
POLYLINE
  5
1B5C3
  8
43
  6
DASHED
 66
     1
 10
0.0
 20
0.0
 30
0.0
  0
VERTEX
  5
1EE87
  8
43
  6
DASHED
 10
118.1792677699527
 20
4.1652503614037641
 30
0.0
  0
VERTEX
  5
1EE88
  8
43
  6
DASHED
 10
118.0256395232859
 20
7.0966519351492252
 30
0.0
  0
SEQEND
  5
1EE89
  8
43
  6
DASHED
  0
ARC
  5
1B5C4
  8
43
  6
DASHED
 10
117.926426611295
 20
6.880951148276182
 30
0.0
 40
0.5
 50
90.000000000000028
 51
178.99999999999829
  0
POLYLINE
  5
1B5C5
  8
43
  6
DASHED
 66
     1
 10
0.0
 20
0.0
 30
0.0
  0
VERTEX
  5
1EE8A
  8
43
  6
DASHED
 10
123.8824412687387
 20
4.1652503614037641
 30
0.0
  0
VERTEX
  5
1EE8B
  8
43
  6
DASHED
 10
124.0360695154055
 20
7.0966519351492252
 30
0.0
  0
SEQEND
  5
1EE8C
  8
43
  6
DASHED
  0
POLYLINE
  5
1B5C6
  8
43
  6
DASHED
 66
     1
 10
0.0
 20
0.0
 30
0.0
  0
VERTEX
  5
1EE8D
  8
43
  6
DASHED
 10
133.24976542495051
 20
4.1652503614037641
 30
0.0
  0
VERTEX
  5
1EE8E
  8
43
  6
DASHED
 10
133.0961371782837
 20
7.0966519351492252
 30
0.0
  0
SEQEND
  5
1EE8F
  8
43
  6
DASHED
  0
POLYLINE
  5
1B5C7
  8
43
  6
DASHED
 66
     1
 10
0.0
 20
0.0
 30
0.0
  0
VERTEX
  5
1EE90
  8
43
  6
DASHED
 10
151.2919137204662
 20
4.1652503614037641
 30
0.0
  0
VERTEX
  5
1EE91
  8
43
  6
DASHED
 10
151.13828547379941
 20
7.0966519351492252
 30
0.0
  0
SEQEND
  5
1EE92
  8
43
  6
DASHED
  0
POLYLINE
  5
1B5C8
  8
43
  6
DASHED
 66
     1
 10
0.0
 20
0.0
 30
0.0
  0
VERTEX
  5
1EE93
  8
43
  6
DASHED
 10
148.31632595330811
 20
4.1757154263451923
 30
0.0
  0
VERTEX
  5
1EE94
  8
43
  6
DASHED
 10
148.4688572983477
 20
7.0861868702074844
 30
0.0
  0
SEQEND
  5
1EE95
  8
43
  6
DASHED
  0
POLYLINE
  5
1B5C9
  8
43
  6
DASHED
 66
     1
 10
0.0
 20
0.0
 30
0.0
  0
VERTEX
  5
1EE96
  8
43
  6
DASHED
 10
147.15283297665201
 20
4.1652503614037641
 30
0.0
  0
VERTEX
  5
1EE97
  8
43
  6
DASHED
 10
146.99920472998519
 20
7.0966519351492252
 30
0.0
  0
SEQEND
  5
1EE98
  8
43
  6
DASHED
  0
POLYLINE
  5
1B5CA
  8
43
  6
DASHED
 66
     1
 10
0.0
 20
0.0
 30
0.0
  0
VERTEX
  5
1EE99
  8
43
  6
DASHED
 10
156.78282611947279
 20
4.1652503614037641
 30
0.0
  0
VERTEX
  5
1EE9A
  8
43
  6
DASHED
 10
156.9364543661396
 20
7.0966519351492252
 30
0.0
  0
SEQEND
  5
1EE9B
  8
43
  6
DASHED
  0
POLYLINE
  5
1B5CB
  8
51
 66
     1
 10
0.0
 20
0.0
 30
0.0
  0
VERTEX
  5
1EE9C
  8
51
 10
106.484731758096
 20
-17.819048851723629
 30
0.0
  0
VERTEX
  5
1EE9D
  8
51
 10
106.50233913946791
 20
-18.827775054942261
 30
0.0
 42
0.4091108014277129
  0
VERTEX
  5
1EE9E
  8
51
 10
107.00226298704619
 20
-19.319048851723601
 30
0.0
  0
VERTEX
  5
1EE9F
  8
51
 10
153.98430523957339
 20
-19.319048851723601
 30
0.0
  0
SEQEND
  5
1EEA0
  8
51
  0
LINE
  5
1B5CC
  8
43
  6
DASHED
 10
190.9995827329937
 20
-19.319048851723771
 30
0.0
 11
190.54210771542989
 21
6.8896773514948393
 31
0.0
  0
LINE
  5
1B5CD
  8
43
  6
DASHED
 10
200.21006131844271
 20
-19.319048851723601
 30
0.0
 11
199.7525863008797
 21
6.8896773514950089
 31
0.0
  0
LINE
  5
1B5CE
  8
51
 10
199.60275711036891
 20
11.18095114827633
 30
0.0
 11
194.17109495326861
 21
11.18095114827633
 31
0.0
  0
POLYLINE
  5
1B5CF
  8
43
  6
DASHED
 66
     1
 10
0.0
 20
0.0
 30
0.0
  0
VERTEX
  5
1EEA1
  8
43
  6
DASHED
 10
160.2068561292362
 20
4.1652503614037641
 30
0.0
  0
VERTEX
  5
1EEA2
  8
43
  6
DASHED
 10
160.05322788256939
 20
7.0966519351492252
 30
0.0
  0
SEQEND
  5
1EEA3
  8
43
  6
DASHED
  0
POLYLINE
  5
1B5D0
  8
43
  6
DASHED
 66
     1
 10
0.0
 20
0.0
 30
0.0
  0
VERTEX
  5
1EEA4
  8
43
  6
DASHED
 10
160.8157775024948
 20
4.1652503614037641
 30
0.0
  0
VERTEX
  5
1EEA5
  8
43
  6
DASHED
 10
160.96940574916161
 20
7.0966519351492252
 30
0.0
  0
SEQEND
  5
1EEA6
  8
43
  6
DASHED
  0
POLYLINE
  5
1B5D1
  8
43
  6
DASHED
 66
     1
 10
0.0
 20
0.0
 30
0.0
  0
VERTEX
  5
1EEA7
  8
43
  6
DASHED
 10
171.13827541861559
 20
4.1652503614037641
 30
0.0
  0
VERTEX
  5
1EEA8
  8
43
  6
DASHED
 10
170.98464717194881
 20
7.0966519351492252
 30
0.0
  0
SEQEND
  5
1EEA9
  8
43
  6
DASHED
  0
POLYLINE
  5
1B5D2
  8
43
  6
DASHED
 66
     1
 10
0.0
 20
0.0
 30
0.0
  0
VERTEX
  5
1EEAA
  8
43
  6
DASHED
 10
170.47363257139489
 20
4.1652503614037641
 30
0.0
  0
VERTEX
  5
1EEAB
  8
43
  6
DASHED
 10
170.6272608180617
 20
7.0966519351492252
 30
0.0
  0
SEQEND
  5
1EEAC
  8
43
  6
DASHED
  0
POLYLINE
  5
1B5D3
  8
43
  6
DASHED
 66
     1
 10
0.0
 20
0.0
 30
0.0
  0
VERTEX
  5
1EEAD
  8
43
  6
DASHED
 10
176.62918781762221
 20
4.1652503614037641
 30
0.0
  0
VERTEX
  5
1EEAE
  8
43
  6
DASHED
 10
176.78281606428899
 20
7.0966519351492252
 30
0.0
  0
SEQEND
  5
1EEAF
  8
43
  6
DASHED
  0
POLYLINE
  5
1B5D4
  8
43
  6
DASHED
 66
     1
 10
0.0
 20
0.0
 30
0.0
  0
VERTEX
  5
1EEB0
  8
43
  6
DASHED
 10
178.1428726857643
 20
4.1652503614037641
 30
0.0
  0
VERTEX
  5
1EEB1
  8
43
  6
DASHED
 10
177.98924443909749
 20
7.0966519351492252
 30
0.0
  0
SEQEND
  5
1EEB2
  8
43
  6
DASHED
  0
POLYLINE
  5
1B5D5
  8
43
  6
DASHED
 66
     1
 10
0.0
 20
0.0
 30
0.0
  0
VERTEX
  5
1EEB3
  8
43
  6
DASHED
 10
183.95217792353759
 20
4.1652503614037641
 30
0.0
  0
VERTEX
  5
1EEB4
  8
43
  6
DASHED
 10
184.10580617020429
 20
7.0966519351492252
 30
0.0
  0
SEQEND
  5
1EEB5
  8
43
  6
DASHED
  0
ARC
  5
1B5D6
  8
43
  6
DASHED
 10
190.04218386785169
 20
6.880951148276182
 30
0.0
 40
0.5
 50
1.0000000000016309
 51
90.000000000000028
  0
POLYLINE
  5
1B5D7
  8
43
  6
DASHED
 66
     1
 10
0.0
 20
0.0
 30
0.0
  0
VERTEX
  5
1EEB6
  8
43
  6
DASHED
 10
197.74911373625139
 20
4.1652503614037641
 30
0.0
  0
VERTEX
  5
1EEB7
  8
43
  6
DASHED
 10
197.9027419829182
 20
7.0966519351492252
 30
0.0
  0
SEQEND
  5
1EEB8
  8
43
  6
DASHED
  0
ARC
  5
1B5D8
  8
51
 10
194.17109495326861
 20
10.68095114827633
 30
0.0
 40
0.5
 50
90.000000000000028
 51
178.43301564608399
  0
LINE
  5
1B5D9
  8
51
 10
193.65722997397981
 20
10.18095114827636
 30
0.0
 11
193.6712819340602
 21
10.69462396180389
 31
0.0
  0
LINE
  5
1B5DA
  8
51
 10
200.11662208965771
 20
10.18095114827636
 30
0.0
 11
200.10257012957729
 21
10.69462396180389
 31
0.0
  0
ARC
  5
1B5DB
  8
51
 10
199.60275711036891
 20
10.68095114827633
 30
0.0
 40
0.5
 50
1.5669843539159929
 51
90.000000000000028
  0
ARC
  5
1B5DC
  8
43
  6
DASHED
 10
199.2526624533015
 20
6.8809511482763801
 30
0.0
 40
0.5
 50
0.9999999999999518
 51
90.000000000000028
  0
POLYLINE
  5
1B5DE
  8
43
  6
DASHED
 66
     1
 10
0.0
 20
0.0
 30
0.0
  0
VERTEX
  5
1EEB9
  8
43
  6
DASHED
 10
64.507373874405232
 20
43.968431150955482
 30
0.0
  0
VERTEX
  5
1EEBA
  8
43
  6
DASHED
 10
67.438775448150693
 20
43.814802904288669
 30
0.0
  0
SEQEND
  5
1EEBB
  8
43
  6
DASHED
  0
POLYLINE
  5
1B5DF
  8
43
  6
DASHED
 66
     1
 10
0.0
 20
0.0
 30
0.0
  0
VERTEX
  5
1EEBC
  8
43
  6
DASHED
 10
64.507373874405232
 20
76.6537909915114
 30
0.0
  0
VERTEX
  5
1EEBD
  8
43
  6
DASHED
 10
67.438775448150693
 20
76.807419238178213
 30
0.0
  0
SEQEND
  5
1EEBE
  8
43
  6
DASHED
  0
VIEWPORT
  5
1
 67
     1
  8
0
 10
210.0
 20
152.0942408376963
 30
0.0
 40
420.0
 41
304.18848167539261
 68
     1
 69
     1
1001
ACAD
1000
MVIEW
1002
{
1070
    16
1010
0.0
1020
0.0
1030
0.0
1010
0.0
1020
0.0
1030
1.0
1040
0.0
1040
304.18848167539261
1040
210.0
1040
152.0942408376963
1040
50.0
1040
0.0
1040
0.0
1070
     0
1070
   100
1070
     1
1070
     1
1070
     1
1070
     0
1070
     0
1070
     0
1040
0.0
1040
0.0
1040
0.0
1040
1.0
1040
1.0
1040
0.0
1040
0.0
1070
     0
1002
{
1002
}
1002
}
  0
ENDSEC
  0
EOF
