  0
SECTION
  2
HEADER
  9
$ACADVER
  1
AC1009
  9
$INSBASE
 10
0.0
 20
0.0
 30
0.0
  9
$EXTMIN
 10
398.96833686602889
 20
-27.18204954468251
 30
-0.0000000000000053
  9
$EXTMAX
 10
787.98139926252168
 20
157.1376547796911
 30
0.0000000000000099
  9
$LIMMIN
 10
0.0
 20
0.0
  9
$LIMMAX
 10
420.0
 20
297.0
  9
$ORTHOMODE
 70
     1
  9
$REGENMODE
 70
     1
  9
$FILLMODE
 70
     1
  9
$QTEXTMODE
 70
     0
  9
$MIRRTEXT
 70
     1
  9
$DRAGMODE
 70
     2
  9
$LTSCALE
 40
7.0
  9
$OSMODE
 70
    37
  9
$ATTMODE
 70
     1
  9
$TEXTSIZE
 40
3.5
  9
$TRACEWID
 40
0.05
  9
$TEXTSTYLE
  7
STANDARD
  9
$CLAYER
  8
L1
  9
$CELTYPE
  6
CONTINUOUS
  9
$CECOLOR
 62
   256
  9
$DIMSCALE
 40
1.0
  9
$DIMASZ
 40
3.5
  9
$DIMEXO
 40
0.1
  9
$DIMDLI
 40
0.38
  9
$DIMRND
 40
0.0
  9
$DIMDLE
 40
0.0
  9
$DIMEXE
 40
0.18
  9
$DIMTP
 40
0.0
  9
$DIMTM
 40
0.0
  9
$DIMTXT
 40
3.5
  9
$DIMCEN
 40
1.0
  9
$DIMTSZ
 40
0.0
  9
$DIMTOL
 70
     0
  9
$DIMLIM
 70
     0
  9
$DIMTIH
 70
     0
  9
$DIMTOH
 70
     0
  9
$DIMSE1
 70
     0
  9
$DIMSE2
 70
     0
  9
$DIMTAD
 70
     1
  9
$DIMZIN
 70
     8
  9
$DIMBLK
  1

  9
$DIMASO
 70
     1
  9
$DIMSHO
 70
     1
  9
$DIMPOST
  1

  9
$DIMAPOST
  1

  9
$DIMALT
 70
     0
  9
$DIMALTD
 70
     2
  9
$DIMALTF
 40
25.399999999999999
  9
$DIMLFAC
 40
1.0
  9
$DIMTOFL
 70
     1
  9
$DIMTVP
 40
0.0
  9
$DIMTIX
 70
     0
  9
$DIMSOXD
 70
     0
  9
$DIMSAH
 70
     0
  9
$DIMBLK1
  1

  9
$DIMBLK2
  1

  9
$DIMSTYLE
  2
FIBOX
  9
$DIMCLRD
 70
     1
  9
$DIMCLRE
 70
     1
  9
$DIMCLRT
 70
     2
  9
$DIMTFAC
 40
1.0
  9
$DIMGAP
 40
1.0
  9
$LUNITS
 70
     2
  9
$LUPREC
 70
     2
  9
$SKETCHINC
 40
1.0
  9
$FILLETRAD
 40
1.7
  9
$AUNITS
 70
     0
  9
$AUPREC
 70
     2
  9
$MENU
  1
CAESAR
  9
$ELEVATION
 40
0.0
  9
$PELEVATION
 40
0.0
  9
$THICKNESS
 40
0.0
  9
$LIMCHECK
 70
     0
  9
$BLIPMODE
 70
     0
  9
$CHAMFERA
 40
5.0
  9
$CHAMFERB
 40
5.0
  9
$SKPOLY
 70
     0
  9
$TDCREATE
 40
2449716.6372743049
  9
$TDUPDATE
 40
2453620.4673912851
  9
$TDINDWG
 40
0.2491735185
  9
$TDUSRTIMER
 40
0.2491735185
  9
$USRTIMER
 70
     1
  9
$ANGBASE
 50
0.0
  9
$ANGDIR
 70
     0
  9
$PDMODE
 70
     0
  9
$PDSIZE
 40
0.0
  9
$PLINEWID
 40
0.0
  9
$COORDS
 70
     2
  9
$SPLFRAME
 70
     0
  9
$SPLINETYPE
 70
     6
  9
$SPLINESEGS
 70
     8
  9
$ATTDIA
 70
     0
  9
$ATTREQ
 70
     1
  9
$HANDLING
 70
-16383
  9
$HANDSEED
  5
29699
  9
$SURFTAB1
 70
     6
  9
$SURFTAB2
 70
     6
  9
$SURFTYPE
 70
     6
  9
$SURFU
 70
     6
  9
$SURFV
 70
     6
  9
$UCSNAME
  2

  9
$UCSORG
 10
0.0
 20
0.0
 30
0.0
  9
$UCSXDIR
 10
1.0
 20
0.0
 30
0.0
  9
$UCSYDIR
 10
0.0
 20
1.0
 30
0.0
  9
$PUCSNAME
  2

  9
$PUCSORG
 10
0.0
 20
0.0
 30
0.0
  9
$PUCSXDIR
 10
1.0
 20
0.0
 30
0.0
  9
$PUCSYDIR
 10
0.0
 20
1.0
 30
0.0
  9
$USERI1
 70
     0
  9
$USERI2
 70
     0
  9
$USERI3
 70
     0
  9
$USERI4
 70
     0
  9
$USERI5
 70
     0
  9
$USERR1
 40
1.0
  9
$USERR2
 40
0.0
  9
$USERR3
 40
3.5
  9
$USERR4
 40
0.0
  9
$USERR5
 40
0.0
  9
$WORLDVIEW
 70
     1
  9
$SHADEDGE
 70
     3
  9
$SHADEDIF
 70
    70
  9
$TILEMODE
 70
     1
  9
$MAXACTVP
 70
    16
  9
$PLIMCHECK
 70
     0
  9
$PEXTMIN
 10
1.0000000000000000E+020
 20
1.0000000000000000E+020
 30
1.0000000000000000E+020
  9
$PEXTMAX
 10
-1.0000000000000000E+020
 20
-1.0000000000000000E+020
 30
-1.0000000000000000E+020
  9
$PLIMMIN
 10
0.0
 20
0.0
  9
$PLIMMAX
 10
420.0
 20
297.0
  9
$UNITMODE
 70
     0
  9
$VISRETAIN
 70
     0
  9
$PLINEGEN
 70
     0
  9
$PSLTSCALE
 70
     0
  0
ENDSEC
  0
SECTION
  2
TABLES
  0
TABLE
  2
VPORT
 70
     2
  0
VPORT
  2
*ACTIVE
 70
     0
 10
0.0
 20
0.0
 11
1.0
 21
1.0
 12
593.47486806427526
 22
64.97780261750431
 13
0.0
 23
0.0
 14
1.0
 24
1.0
 15
10.0
 25
10.0
 16
0.0
 26
0.0
 36
1.0
 17
0.0
 27
0.0
 37
0.0
 40
251.10155369659651
 41
1.5552208835341359
 42
50.0
 43
0.0
 44
0.0
 50
0.0
 51
0.0
 71
     0
 72
  1000
 73
     1
 74
     0
 75
     0
 76
     0
 77
     0
 78
     0
  0
ENDTAB
  0
TABLE
  2
LTYPE
 70
     3
  0
LTYPE
  2
CONTINUOUS
 70
     0
  3
Solid line
 72
    65
 73
     0
 40
0.0
  0
LTYPE
  2
CENTER2
 70
     0
  3
Center (.5x) ___ _ ___ _ ___ _ ___ _ ___ _ ___
 72
    65
 73
     4
 40
1.125
 49
0.75
 49
-0.125
 49
0.125
 49
-0.125
  0
LTYPE
  2
HIDDEN2
 70
     0
  3
Hidden (.5x) _ _ _ _ _ _ _ _ _ _ _ _ _ _ _ _ _
 72
    65
 73
     2
 40
0.1875
 49
0.125
 49
-0.0625
  0
ENDTAB
  0
TABLE
  2
LAYER
 70
     7
  0
LAYER
  2
0
 70
     0
 62
     7
  6
CONTINUOUS
  0
LAYER
  2
DEFPOINTS
 70
     0
 62
     7
  6
CONTINUOUS
  0
LAYER
  2
L20
 70
     0
 62
     3
  6
CONTINUOUS
  0
LAYER
  2
51
 70
     0
 62
     7
  6
CONTINUOUS
  0
LAYER
  2
L1
 70
     0
 62
     2
  6
CONTINUOUS
  0
LAYER
  2
L6
 70
     0
 62
     1
  6
CENTER2
  0
LAYER
  2
L3
 70
     0
 62
     1
  6
HIDDEN2
  0
ENDTAB
  0
TABLE
  2
STYLE
 70
     3
  0
STYLE
  2
STANDARD
 70
     0
 40
0.0
 41
1.0
 50
0.0
 71
     0
 42
3.5
  3
CAEISO
  4

  0
STYLE
  2
SIMPLEX
 70
     0
 40
0.0
 41
1.0
 50
0.0
 71
     0
 42
0.2
  3
KIRJAIN
  4

  0
STYLE
  2
TKKISO
 70
     0
 40
0.0
 41
1.0
 50
0.0
 71
     0
 42
2.5
  3
caeiso
  4

  0
ENDTAB
  0
TABLE
  2
VIEW
 70
     0
  0
ENDTAB
  0
TABLE
  2
UCS
 70
     0
  0
ENDTAB
  0
TABLE
  2
APPID
 70
    18
  0
APPID
  2
ACAD
 70
     0
  0
APPID
  2
AD_DRAW
 70
     0
  0
APPID
  2
DESIGNERASSEMBLIES
 70
     0
  0
APPID
  2
MCAD_NO_VIS
 70
     0
  0
APPID
  2
ASURF_PCURVE_APPNAME
 70
     0
  0
APPID
  2
ACAD_TEMP_GRAPHIC
 70
     0
  0
APPID
  2
GENIUS_GENDIM_13
 70
     0
  0
APPID
  2
GENIUS_GENDTOL_13
 70
     0
  0
APPID
  2
GENIUS_GE3DTOL_13
 70
     0
  0
APPID
  2
ACATTRIBSERVICES
 70
     0
  0
APPID
  2
ACADM_DIM_EDIT
 70
     0
  0
APPID
  2
AD_SKETCHDIM
 70
     0
  0
APPID
  2
AVE_RENDER
 70
     0
  0
APPID
  2
AVE_ENTITY_MATERIAL
 70
     0
  0
APPID
  2
AVE_FINISH
 70
     0
  0
APPID
  2
AVE_MATERIAL
 70
     0
  0
APPID
  2
AVE_GLOBAL
 70
     0
  0
APPID
  2
DCO15
 70
     0
  0
ENDTAB
  0
TABLE
  2
DIMSTYLE
 70
     2
  0
DIMSTYLE
  2
FIBOX
 70
     0
  3

  4

  5

  6

  7

 40
1.0
 41
3.5
 42
0.1
 43
0.38
 44
0.18
 45
0.0
 46
0.0
 47
0.0
 48
0.0
140
3.5
141
1.0
142
0.0
143
25.399999999999999
144
1.0
145
0.0
146
1.0
147
1.0
 71
     0
 72
     0
 73
     0
 74
     0
 75
     0
 76
     0
 77
     1
 78
     8
170
     0
171
     2
172
     1
173
     0
174
     0
175
     0
176
     1
177
     1
178
     2
  0
DIMSTYLE
  2
STANDARD
 70
     0
  3

  4

  5

  6

  7

 40
1.0
 41
0.18
 42
0.0625
 43
0.38
 44
0.18
 45
0.0
 46
0.0
 47
0.0
 48
0.0
140
0.18
141
0.09
142
0.0
143
25.399999999999999
144
1.0
145
0.0
146
1.0
147
0.09
 71
     0
 72
     0
 73
     1
 74
     1
 75
     0
 76
     0
 77
     0
 78
     0
170
     0
171
     2
172
     0
173
     0
174
     0
175
     0
176
     0
177
     0
178
     0
  0
ENDTAB
  0
ENDSEC
  0
SECTION
  2
BLOCKS
  0
BLOCK
  8
0
  2
$MODEL_SPACE
 70
     0
 10
0.0
 20
0.0
 30
0.0
  3
$MODEL_SPACE
  1

  0
ENDBLK
  5
7F47
  8
0
  0
BLOCK
 67
     1
  8
0
  2
$PAPER_SPACE
 70
     0
 10
0.0
 20
0.0
 30
0.0
  3
$PAPER_SPACE
  1

  0
ENDBLK
  5
7F45
 67
     1
  8
0
  0
ENDSEC
  0
SECTION
  2
ENTITIES
  0
LINE
  5
25F68
  8
L6
 10
601.82434985948225
 20
64.968883681594292
 30
0.0
 11
724.82042287556988
 21
64.968883681594292
 31
0.0
  0
LINE
  5
25F69
  8
L3
 10
552.92496237311605
 20
36.814156775732719
 30
0.0
 11
552.92496237311605
 21
64.96888368159432
 31
0.0
  0
LINE
  5
25F6A
  8
51
 10
550.1249623731162
 20
33.705224747339109
 30
0.0
 11
550.12496237311609
 21
64.96888368159432
 31
0.0
  0
LINE
  5
25F6B
  8
51
 10
563.1249623731162
 20
64.96888368159432
 30
0.0
 11
563.1249623731162
 21
35.807220445854561
 31
0.0
  0
LINE
  5
25F6C
  8
51
 10
562.1249623731162
 20
31.96888368159432
 30
0.0
 11
562.12496237311598
 21
64.96888368159432
 31
0.0
  0
LINE
  5
25F6D
  8
51
 10
503.67189742477927
 20
54.953128429386112
 30
0.0
 11
503.67189742477927
 21
84.384638933803075
 31
0.0
  0
LINE
  5
25F6E
  8
51
 10
504.6182319268334
 20
85.106226164511355
 30
0.0
 11
504.6182319268334
 21
54.237195059451523
 31
0.0
  0
LINE
  5
25F6F
  8
51
 10
507.35529233180819
 20
54.06963832972761
 30
0.0
 11
507.35529233180819
 21
85.266505353819937
 31
0.0
  0
LINE
  5
25F70
  8
51
 10
508.35658392157802
 20
91.868883681594326
 30
0.0
 11
508.35658392157802
 21
38.068883681594308
 31
0.0
  0
LINE
  5
25F71
  8
L6
 10
459.35658392157802
 20
23.41206320205637
 30
0.0
 11
459.35658392157802
 21
110.8116574270382
 31
0.0
  0
LINE
  5
25F72
  8
51
 10
415.04127041837671
 20
74.984638933802472
 30
0.0
 11
415.04127041837671
 21
45.553128429385502
 31
0.0
  0
LINE
  5
25F73
  8
51
 10
414.09493591632258
 20
44.831541198677222
 30
0.0
 11
414.09493591632258
 21
75.700572303737061
 31
0.0
  0
LINE
  5
25F74
  8
51
 10
411.3578755113478
 20
75.868129033460974
 30
0.0
 11
411.3578755113478
 21
44.671262009368633
 31
0.0
  0
LINE
  5
25F75
  8
51
 10
410.35658392157802
 20
38.068883681594308
 30
0.0
 11
410.35658392157802
 21
91.868883681594326
 31
0.0
  0
LINE
  5
25F76
  8
51
 10
711.20238198302673
 20
91.868883681594284
 30
0.0
 11
711.20238198302673
 21
38.068883681594279
 31
0.0
  0
LINE
  5
25F77
  8
51
 10
709.49510413174426
 20
38.068883681594279
 30
0.0
 11
709.49510413174426
 21
91.868883681594284
 31
0.0
  0
LINE
  5
25F78
  8
L6
 10
662.20238198302673
 20
23.41206320205637
 30
0.0
 11
662.20238198302673
 21
110.8116574270382
 31
0.0
  0
LINE
  5
25F79
  8
51
 10
613.20238198302673
 20
91.868883681594284
 30
0.0
 11
613.20238198302673
 21
38.068883681594279
 31
0.0
  0
LINE
  5
25F7A
  8
51
 10
614.90965983430897
 20
38.068883681594279
 30
0.0
 11
614.90965983430897
 21
91.868883681594284
 31
0.0
  0
LINE
  5
25F7B
  8
51
 10
423.45733856971123
 20
32.970175271364177
 30
0.0
 11
495.25419778656283
 21
32.970175271364177
 31
0.0
  0
LINE
  5
25F7C
  8
51
 10
502.25658392157789
 20
31.968883681594289
 30
0.0
 11
416.45658392157799
 21
31.968883681594289
 31
0.0
  0
LINE
  5
25F7D
  8
51
 10
424.34082866936961
 20
36.653570178393089
 30
0.0
 11
494.37233917378637
 21
36.653570178393089
 31
0.0
  0
LINE
  5
25F7E
  8
51
 10
495.09555211626667
 20
35.707235676338911
 30
0.0
 11
423.61761572688948
 21
35.707235676338911
 31
0.0
  0
LINE
  5
25F7F
  8
51
 10
416.8090038271323
 20
35.593848285853959
 30
0.0
 11
412.86482378656717
 21
38.903408303188911
 31
0.0
  0
ARC
  5
25F80
  8
51
 10
414.25714597162028
 20
44.669020022945432
 30
0.0
 40
2.8992713371354411
 50
179.9554385738719
 51
270.01232043957839
  0
ARC
  5
25F81
  8
51
 10
414.85701044010102
 20
45.268883681594019
 30
0.0
 40
4.5017150451767174
 50
222.38934641745249
 51
269.99830380933878
  0
ARC
  5
25F82
  8
51
 10
413.67657306013638
 20
40.140508312232072
 30
0.0
 40
0.569455962732339
 50
49.999999999995971
 51
143.30704384104209
  0
ARC
  5
25F83
  8
51
 10
416.4565839215781
 20
38.068883681594031
 30
0.0
 40
5.098284956795907
 50
180.0
 51
270.0
  0
ARC
  5
25F84
  8
51
 10
416.45658392157799
 20
38.068883681594308
 30
0.0
 40
6.1000000000000218
 50
180.0
 51
270.0
  0
LINE
  5
25F85
  8
51
 10
411.35829896478219
 20
42.166578416267583
 30
0.0
 11
411.35829896478219
 21
38.068883681593967
 31
0.0
  0
ARC
  5
25F86
  8
51
 10
413.23086302367358
 20
39.339636879041016
 30
0.0
 40
0.5694559627323642
 50
158.49834023493551
 51
230.00000000000421
  0
ARC
  5
25F87
  8
51
 10
416.45658392157708
 20
38.068883681594883
 30
0.0
 40
4.0364559627323802
 50
143.30704384104729
 51
158.49834023494051
  0
ARC
  5
25F88
  8
51
 10
411.45817435089299
 20
42.166860501216398
 30
0.0
 40
0.0998757845255719
 50
42.227522402231997
 51
180.1618360952038
  0
ARC
  5
25F89
  8
51
 10
420.95456073620022
 20
33.070474112857561
 30
0.0
 40
0.0998757864432042
 50
269.83817887656721
 51
47.772474722335247
  0
ARC
  5
25F8A
  8
51
 10
424.05658392157812
 20
36.469310200116951
 30
0.0
 40
4.501715044684647
 50
180.0
 51
227.6106535894117
  0
ARC
  5
25F8B
  8
51
 10
423.4567194485968
 20
35.869446528613963
 30
0.0
 40
2.8992713242813331
 50
179.9556513406493
 51
270.0123205285762
  0
LINE
  5
25F8C
  8
51
 10
416.4565839215781
 20
32.970598724798123
 30
0.0
 11
420.95427865625271
 21
32.970598724798123
 31
0.0
  0
ARC
  5
25F8D
  8
51
 10
416.85658392157819
 20
38.068883681594031
 30
0.0
 40
7.3842599782758489
 50
0.0
 51
90.0
  0
ARC
  5
25F8E
  8
51
 10
416.85658392157819
 20
38.068883681594031
 30
0.0
 40
6.4379254762216638
 50
0.0
 51
90.0
  0
ARC
  5
25F8F
  8
51
 10
416.85658392157819
 20
38.068883681594031
 30
0.0
 40
3.7008650712469091
 50
0.0
 51
90.0
  0
ARC
  5
25F90
  8
51
 10
416.85658392157819
 20
38.068883681594031
 30
0.0
 40
2.6982849567959302
 50
0.0
 51
90.0
  0
LINE
  5
25F91
  8
51
 10
418.49771303870199
 20
38.09307487725701
 30
0.0
 11
416.12596924704911
 21
40.083204218079942
 31
0.0
  0
ARC
  5
25F92
  8
51
 10
418.26817207817231
 20
35.112832709285179
 30
0.0
 40
0.5694559627323349
 50
230.00000000000031
 51
301.50165976506048
  0
LINE
  5
25F93
  8
51
 10
416.85658392157819
 20
40.767168638389961
 30
0.0
 11
414.85687717082561
 21
40.767168638389961
 31
0.0
  0
ARC
  5
25F94
  8
51
 10
416.45658392157782
 20
38.068883681594599
 30
0.0
 40
2.0412724675359391
 50
99.320969698336924
 51
125.28109533710131
  0
LINE
  5
25F95
  8
51
 10
414.0426122972429
 20
40.576736888084127
 30
0.0
 11
415.03349362405629
 21
39.745288732214732
 31
0.0
  0
ARC
  5
25F96
  8
51
 10
415.16205114599359
 20
39.898497620838519
 30
0.0
 40
0.2
 50
230.00000000000861
 51
305.28109533709687
  0
LINE
  5
25F97
  8
51
 10
417.90213284106579
 20
34.676604133433131
 30
0.0
 11
416.8090038271323
 21
35.593848285853959
 31
0.0
  0
LINE
  5
25F98
  8
51
 10
416.85658392157808
 20
44.506809157815631
 30
0.0
 11
414.41804224541221
 21
44.506809157815631
 31
0.0
  0
LINE
  5
25F99
  8
51
 10
415.1412551878924
 20
45.453143659869824
 30
0.0
 11
416.85658392157808
 21
45.45314365986988
 31
0.0
  0
LINE
  5
25F9A
  8
51
 10
414.2577650882339
 20
41.769748752840897
 30
0.0
 11
416.85658392157819
 21
41.769748752840897
 31
0.0
  0
ARC
  5
25F9B
  8
51
 10
414.41856847673478
 20
44.830443137843112
 30
0.0
 40
0.3236344078552578
 50
179.8064045710405
 51
269.90683670713781
  0
ARC
  5
25F9C
  8
51
 10
415.14120585182872
 20
45.553079093317727
 30
0.0
 40
0.0999354456301321
 50
179.97171425455909
 51
270.02828574306818
  0
ARC
  5
25F9D
  8
51
 10
418.9794797391441
 20
35.69084127370931
 30
0.0
 40
0.569455962732339
 50
316.6929561589597
 51
50.000000000004498
  0
ARC
  5
25F9E
  8
51
 10
416.45658392157782
 20
38.068883681594599
 30
0.0
 40
2.041272467535924
 50
334.72011566227729
 51
0.6790303016981257
  0
ARC
  5
25F9F
  8
51
 10
418.48319517137458
 20
37.111726894054613
 30
0.0
 40
0.2
 50
154.71890466290481
 51
229.99999999999179
  0
LINE
  5
25FA0
  8
51
 10
419.34551897625062
 20
36.127069849561359
 30
0.0
 11
418.35463764943739
 21
36.958518005430868
 31
0.0
  0
LINE
  5
25FA1
  8
51
 10
419.55486887886809
 20
36.469176880049901
 30
0.0
 11
419.55486887837412
 21
38.068883681594031
 31
0.0
  0
ARC
  5
25FA2
  8
51
 10
416.4565839215781
 20
38.068883681593967
 30
0.0
 40
4.0364559627323802
 50
301.50165976506048
 51
316.69295615895498
  0
LINE
  5
25FA3
  8
51
 10
420.55744899282507
 20
38.068883681594031
 30
0.0
 11
420.55744899282507
 21
35.871677865786381
 31
0.0
  0
LINE
  5
25FA4
  8
51
 10
423.2945093977998
 20
36.03034200542853
 30
0.0
 11
423.2945093977998
 21
38.068883681594087
 31
0.0
  0
ARC
  5
25FA5
  8
51
 10
423.61774470641041
 20
36.030470984955258
 30
0.0
 40
0.3232353343494828
 50
180.0228651078825
 51
269.977137454971
  0
LINE
  5
25FA6
  8
51
 10
424.24084389985399
 20
38.068883681594087
 30
0.0
 11
424.24084389985399
 21
36.753554947908718
 31
0.0
  0
ARC
  5
25FA7
  8
51
 10
424.3407793334419
 20
36.753505611964982
 30
0.0
 40
0.0999354457660119
 50
179.97171432571071
 51
270.02828566507549
  0
ARC
  5
25FA8
  8
51
 10
502.25658392157823
 20
38.068883681594542
 30
0.0
 40
5.0982849567959363
 50
270.0
 51
0.0
  0
ARC
  5
25FA9
  8
51
 10
502.25658392157789
 20
38.068883681594308
 30
0.0
 40
6.1000000000000218
 50
270.0
 51
0.0
  0
LINE
  5
25FAA
  8
51
 10
501.90416401602369
 20
35.593848285853959
 30
0.0
 11
505.84834405658881
 21
38.903408303188911
 31
0.0
  0
LINE
  5
25FAB
  8
51
 10
504.29512559774378
 20
53.906809157816241
 30
0.0
 11
501.85658392157808
 21
53.906809157816241
 31
0.0
  0
LINE
  5
25FAC
  8
51
 10
501.85658392157808
 20
51.169748752841507
 30
0.0
 11
504.4562678261691
 21
51.169748752841507
 31
0.0
  0
LINE
  5
25FAD
  8
51
 10
503.8562907231223
 20
50.167168638884647
 30
0.0
 11
501.85658392157808
 21
50.1671686383905
 31
0.0
  0
LINE
  5
25FAE
  8
51
 10
500.215454804454
 20
38.09307487725701
 30
0.0
 11
502.58719859610682
 21
40.083204218079942
 31
0.0
  0
LINE
  5
25FAF
  8
51
 10
501.85658392157808
 20
54.853143659870433
 30
0.0
 11
503.57191265526359
 21
54.853143659870433
 31
0.0
  0
ARC
  5
25FB0
  8
51
 10
497.75860710180871
 20
33.070474110887432
 30
0.0
 40
0.0998757844444711
 50
132.2275223305551
 51
270.16182407957518
  0
ARC
  5
25FB1
  8
51
 10
495.25644756929569
 20
35.869445735472112
 30
0.0
 40
2.8992713480674812
 50
269.95525861968298
 51
0.0123206532466003
  0
ARC
  5
25FB2
  8
51
 10
494.65658392157832
 20
36.469310200117398
 30
0.0
 40
4.5017150451767449
 50
312.38934640485991
 51
0.0
  0
LINE
  5
25FB3
  8
51
 10
497.75888918690458
 20
32.970598724798627
 30
0.0
 11
502.25658392157823
 21
32.970598724798691
 31
0.0
  0
ARC
  5
25FB4
  8
51
 10
501.85658392157808
 20
47.468883681594519
 30
0.0
 40
7.3842599782758489
 50
90.0
 51
180.0
  0
ARC
  5
25FB5
  8
51
 10
501.85658392157808
 20
47.468883681594519
 30
0.0
 40
6.4379254762216638
 50
90.0
 51
180.0
  0
ARC
  5
25FB6
  8
51
 10
501.85658392157808
 20
47.468883681594519
 30
0.0
 40
3.7008650712469371
 50
90.0
 51
180.0
  0
ARC
  5
25FB7
  8
51
 10
501.85658392157808
 20
47.468883681594519
 30
0.0
 40
2.6982849567959302
 50
90.0
 51
180.0
  0
LINE
  5
25FB8
  8
51
 10
494.4723239433024
 20
36.753554947908718
 30
0.0
 11
494.47232394330229
 21
47.468883681594519
 31
0.0
  0
LINE
  5
25FB9
  8
51
 10
495.41865844535653
 20
47.468883681594569
 30
0.0
 11
495.41865844535653
 21
36.03034200542853
 31
0.0
  0
ARC
  5
25FBA
  8
51
 10
494.37238850995971
 20
36.753505611725103
 30
0.0
 40
0.099935445520851
 50
269.9717141942171
 51
0.0282858118642796
  0
ARC
  5
25FBB
  8
51
 10
495.0954231366976
 20
36.030470984960878
 30
0.0
 40
0.32323533439212
 50
270.02286255361741
 51
359.97713745292327
  0
LINE
  5
25FBC
  8
51
 10
498.15571885033131
 20
35.87006484825028
 30
0.0
 11
498.1557188503312
 21
47.468883681594569
 31
0.0
  0
LINE
  5
25FBD
  8
51
 10
499.1582989647822
 20
47.468883681594569
 30
0.0
 11
499.15829896478232
 21
36.46917693084211
 31
0.0
  0
LINE
  5
25FBE
  8
51
 10
499.36764886690543
 20
36.127069849561359
 30
0.0
 11
500.35853019371859
 21
36.958518005430868
 31
0.0
  0
ARC
  5
25FBF
  8
51
 10
502.25658392157783
 20
38.06888368159391
 30
0.0
 40
4.0364559627323802
 50
223.30704384104499
 51
238.49834023493941
  0
ARC
  5
25FC0
  8
51
 10
499.73368810401178
 20
35.690841273709253
 30
0.0
 40
0.569455962732339
 50
129.99999999999551
 51
223.30704384104021
  0
ARC
  5
25FC1
  8
51
 10
502.25658392157828
 20
38.068883681594542
 30
0.0
 40
2.041272467535924
 50
179.32096969830181
 51
205.27988433772251
  0
ARC
  5
25FC2
  8
51
 10
500.2299726717813
 20
37.111726894054549
 30
0.0
 40
0.2
 50
310.00000000000807
 51
25.281095337095149
  0
ARC
  5
25FC3
  8
51
 10
500.44499576498367
 20
35.112832709285129
 30
0.0
 40
0.5694559627323349
 50
238.49834023493941
 51
309.99999999999972
  0
LINE
  5
25FC4
  8
51
 10
500.81103500209019
 20
34.676604133433131
 30
0.0
 11
501.90416401602369
 21
35.593848285853959
 31
0.0
  0
LINE
  5
25FC5
  8
51
 10
507.35486887837408
 20
38.068883681594599
 30
0.0
 11
507.35486887837408
 21
51.566578416269273
 31
0.0
  0
LINE
  5
25FC6
  8
51
 10
504.67055554591309
 20
40.576736888084127
 30
0.0
 11
503.6796742190997
 21
39.745288732214732
 31
0.0
  0
ARC
  5
25FC7
  8
51
 10
503.55111669716251
 20
39.898497620838469
 30
0.0
 40
0.2
 50
234.71890466290299
 51
309.9999999999913
  0
ARC
  5
25FC8
  8
51
 10
502.25658392157828
 20
38.068883681594542
 30
0.0
 40
2.0412724675359391
 50
54.71890466289863
 51
80.679030301663076
  0
ARC
  5
25FC9
  8
51
 10
505.48230481948229
 20
39.33963687904096
 30
0.0
 40
0.5694559627323642
 50
309.99999999999568
 51
21.50165976506424
  0
ARC
  5
25FCA
  8
51
 10
502.25658392157891
 20
38.068883681594819
 30
0.0
 40
4.0364559627323802
 50
21.501659765059451
 51
36.69295615895264
  0
ARC
  5
25FCB
  8
51
 10
505.0365947830195
 20
40.140508312232008
 30
0.0
 40
0.569455962732339
 50
36.692956158957848
 51
130.00000000000401
  0
ARC
  5
25FCC
  8
51
 10
503.85615740305519
 20
54.668883681594558
 30
0.0
 40
4.5017150446846861
 50
270.00169683711431
 51
317.61065358940817
  0
ARC
  5
25FCD
  8
51
 10
504.45602239574941
 20
54.069018745640129
 30
0.0
 40
2.8992700031889802
 50
270.00485023030637
 51
0.0123296835094159
  0
ARC
  5
25FCE
  8
51
 10
504.29495218629648
 20
54.230170553977779
 30
0.0
 40
0.3233614426599285
 50
270.0307264355406
 51
1.2880099932338449
  0
ARC
  5
25FCF
  8
51
 10
503.57196199157192
 20
54.953079093070549
 30
0.0
 40
0.0999354453855719
 50
269.97171411657939
 51
0.0282858875380806
  0
ARC
  5
25FD0
  8
51
 10
507.25499349035601
 20
51.566860496472849
 30
0.0
 40
0.099875786359915
 50
359.83817872941307
 51
137.77247481025211
  0
LINE
  5
25FD1
  8
L3
 10
552.92496237311605
 20
36.814156775732719
 30
0.0
 11
562.1249623731162
 21
36.653570178393117
 31
0.0
  0
LINE
  5
25FD2
  8
L3
 10
552.92496237311605
 20
45.613730257207628
 30
0.0
 11
562.12496237311575
 21
45.453143659867969
 31
0.0
  0
LINE
  5
25FD3
  8
51
 10
551.62473391585081
 20
32.152165851077029
 30
0.0
 11
562.1249623731162
 21
31.96888368159432
 31
0.0
  0
LINE
  5
25FD4
  8
51
 10
551.62473391585081
 20
32.152165851077029
 30
0.0
 11
550.1249623731162
 21
33.705224747339109
 31
0.0
  0
LINE
  5
25FD5
  8
51
 10
563.02670761375998
 20
35.707235676338939
 30
0.0
 11
562.1249623731162
 21
35.691495654614748
 31
0.0
  0
ARC
  5
25FD6
  8
51
 10
563.02496237311618
 20
35.807220445854561
 30
0.0
 40
0.0999999999999943
 50
270.99999999999199
 51
0.0
  0
LINE
  5
25FD7
  8
51
 10
563.02670761375998
 20
44.506809157815667
 30
0.0
 11
562.1249623731162
 21
44.491069136091539
 31
0.0
  0
ARC
  5
25FD8
  8
51
 10
563.02496237311607
 20
44.606793927331289
 30
0.0
 40
0.1000000000000184
 50
270.99999999999852
 51
0.0
  0
LINE
  5
25FD9
  8
51
 10
662.20238198302673
 20
-5.8862059353129998
 30
0.0
 11
617.04071874725184
 21
-5.8862059334794594
 31
0.0
  0
LINE
  5
25FDA
  8
51
 10
614.97912567135495
 20
-18.886205933587512
 30
0.0
 11
662.20238198302661
 21
-18.886205933587568
 31
0.0
  0
LINE
  5
25FDB
  8
51
 10
613.20238198302673
 20
-6.8862059335875179
 30
0.0
 11
662.20238198302673
 21
-6.8862059335875747
 31
0.0
  0
LINE
  5
25FDC
  8
L3
 10
618.04765507716502
 20
-16.086205933587561
 30
0.0
 11
678.20238198302673
 21
-16.086205933587731
 31
0.0
  0
LINE
  5
25FDD
  8
51
 10
705.1023819830267
 20
31.968883681594289
 30
0.0
 11
619.30238198302675
 21
31.968883681594289
 31
0.0
  0
LINE
  5
25FDE
  8
51
 10
619.30238198302675
 20
33.676161532876698
 30
0.0
 11
705.1023819830267
 21
33.676161532876698
 31
0.0
  0
LINE
  5
25FDF
  8
L3
 10
626.84722855863993
 20
-16.086205933587561
 30
0.0
 11
626.68664196130044
 21
-6.8862059335879726
 31
0.0
  0
LINE
  5
25FE0
  8
51
 10
613.38494125016507
 20
-17.345019343288811
 30
0.0
 11
613.20238198302673
 21
-6.8862059335875179
 31
0.0
  0
LINE
  5
25FE1
  8
51
 10
613.41546018263489
 20
-17.41520808267898
 30
0.0
 11
614.90965983430897
 21
-18.858139913621411
 31
0.0
  0
LINE
  5
25FE2
  8
51
 10
616.94073383929594
 20
-5.9844686261839684
 30
0.0
 11
616.92499395604705
 21
-6.8862059335875179
 31
0.0
  0
ARC
  5
25FE3
  8
51
 10
617.04071874749854
 20
-5.9862059336928723
 30
0.0
 40
0.1000000002134084
 50
90.000000141316377
 51
178.9999999422871
  0
LINE
  5
25FE4
  8
L3
 10
618.04765507716502
 20
-16.086205933587561
 30
0.0
 11
617.88706847982553
 21
-6.8862059335875179
 31
0.0
  0
LINE
  5
25FE5
  8
51
 10
626.14030745924811
 20
-5.9844606929438546
 30
0.0
 11
626.12456743752387
 21
-6.8862059335875179
 31
0.0
  0
ARC
  5
25FE6
  8
51
 10
626.24029222876379
 20
-5.9862059335875983
 30
0.0
 40
0.1000000000000796
 50
90.0
 51
178.99999999612351
  0
ARC
  5
25FE7
  8
51
 10
619.30238198302675
 20
38.068883681594279
 30
0.0
 40
6.1000000000000218
 50
179.99999999999909
 51
270.0
  0
ARC
  5
25FE8
  8
51
 10
619.30238198302675
 20
38.068883681594279
 30
0.0
 40
4.3927221487176089
 50
179.99999999999909
 51
270.0
  0
CIRCLE
  5
25FE9
  8
51
 10
619.30238198302675
 20
38.068883681594002
 30
0.0
 40
4.0995655687828503
  0
LINE
  5
25FEA
  8
51
 10
711.20238198302673
 20
-6.8862059335875747
 30
0.0
 11
662.20238198302673
 21
-6.8862059335875747
 31
0.0
  0
LINE
  5
25FEB
  8
51
 10
709.42563829469839
 20
-18.886205933587568
 30
0.0
 11
662.20238198302661
 21
-18.886205933587568
 31
0.0
  0
LINE
  5
25FEC
  8
51
 10
662.20238198302673
 20
-5.8862059353129998
 30
0.0
 11
707.36404521880149
 21
-5.8862059334795163
 31
0.0
  0
LINE
  5
25FED
  8
L3
 10
706.35710888888832
 20
-16.086205933587621
 30
0.0
 11
678.20238198302673
 21
-16.086205933587731
 31
0.0
  0
LINE
  5
25FEE
  8
L6
 10
662.20238198302673
 20
8.1463176640518213
 30
0.0
 11
662.20238198302673
 21
-27.176980714403609
 31
0.0
  0
LINE
  5
25FEF
  8
L3
 10
697.55753540741341
 20
-16.086205933587621
 30
0.0
 11
697.71812200475301
 21
-6.8862059335880303
 31
0.0
  0
LINE
  5
25FF0
  8
L3
 10
706.35710888888832
 20
-16.086205933587621
 30
0.0
 11
706.51769548622792
 21
-6.8862059335875747
 31
0.0
  0
LINE
  5
25FF1
  8
51
 10
698.26445650680523
 20
-5.9844606929439124
 30
0.0
 11
698.28019652852925
 21
-6.8862059335875747
 31
0.0
  0
ARC
  5
25FF2
  8
51
 10
698.16447173728955
 20
-5.9862059335876259
 30
0.0
 40
0.1000000000000796
 50
1.000000003876433
 51
90.0
  0
LINE
  5
25FF3
  8
51
 10
711.01982271588815
 20
-17.345019343288861
 30
0.0
 11
711.20238198302673
 21
-6.8862059335875747
 31
0.0
  0
LINE
  5
25FF4
  8
51
 10
710.98930378341856
 20
-17.41520808267904
 30
0.0
 11
709.49510413174426
 21
-18.858139913621471
 31
0.0
  0
LINE
  5
25FF5
  8
51
 10
707.46403012675728
 20
-5.9844686261840252
 30
0.0
 11
707.47977001000629
 21
-6.8862059335875747
 31
0.0
  0
ARC
  5
25FF6
  8
51
 10
707.36404521855468
 20
-5.9862059336929292
 30
0.0
 40
0.1000000002134084
 50
1.000000057712821
 51
89.999999858683609
  0
ARC
  5
25FF7
  8
51
 10
705.1023819830267
 20
38.068883681594279
 30
0.0
 40
4.3927221487176089
 50
270.0
 51
0.0000000000008142
  0
ARC
  5
25FF8
  8
51
 10
705.1023819830267
 20
38.068883681594279
 30
0.0
 40
6.1000000000000218
 50
270.0
 51
0.0000000000008142
  0
CIRCLE
  5
25FF9
  8
51
 10
705.10238198302648
 20
38.068883681594002
 30
0.0
 40
4.0995655687828503
  0
LINE
  5
25FFA
  8
L6
 10
398.97855179803349
 20
64.968883681594292
 30
0.0
 11
521.97462481412117
 21
64.968883681594292
 31
0.0
  0
LINE
  5
25FFB
  8
51
 10
495.25669434469188
 20
96.967592091824443
 30
0.0
 11
423.45897126718552
 21
96.967592091824443
 31
0.0
  0
LINE
  5
25FFC
  8
51
 10
416.45658392157799
 20
97.968883681594292
 30
0.0
 11
502.25658392157789
 21
97.968883681594292
 31
0.0
  0
LINE
  5
25FFD
  8
51
 10
423.61761572688903
 20
94.23053168684973
 30
0.0
 11
495.09555211626667
 21
94.23053168684973
 31
0.0
  0
LINE
  5
25FFE
  8
51
 10
494.37233917378637
 20
93.284197184795488
 30
0.0
 11
424.34082866936927
 21
93.284197184795488
 31
0.0
  0
LINE
  5
25FFF
  8
51
 10
416.8090038271323
 20
94.343919077334604
 30
0.0
 11
412.86482378656717
 21
91.034359059999673
 31
0.0
  0
ARC
  5
26000
  8
51
 10
416.45658392157782
 20
91.868883681593985
 30
0.0
 40
5.0982849567959363
 50
90.0
 51
180.0
  0
ARC
  5
26001
  8
51
 10
414.85701044010079
 20
75.268883681593962
 30
0.0
 40
4.5017150446846861
 50
90.001696837114281
 51
137.6106535894082
  0
ARC
  5
26002
  8
51
 10
414.25714544740669
 20
75.868748617548391
 30
0.0
 40
2.8992700031889802
 50
90.004850230306445
 51
180.01232968350939
  0
ARC
  5
26003
  8
51
 10
413.67657306013638
 20
89.797259050956512
 30
0.0
 40
0.569455962732339
 50
216.6929561589578
 51
310.00000000000398
  0
ARC
  5
26004
  8
51
 10
416.45658392157799
 20
91.868883681594326
 30
0.0
 40
6.1000000000000218
 50
90.0
 51
180.0
  0
LINE
  5
26005
  8
51
 10
411.3582989647818
 20
91.868883681593985
 30
0.0
 11
411.35829896478191
 21
78.371188946919318
 31
0.0
  0
ARC
  5
26006
  8
51
 10
411.45817435279997
 20
78.370906866715671
 30
0.0
 40
0.099875786359915
 50
179.8381787294131
 51
317.77247481025222
  0
ARC
  5
26007
  8
51
 10
413.23086302367358
 20
90.598130484147561
 30
0.0
 40
0.5694559627323642
 50
129.99999999999571
 51
201.5016597650642
  0
ARC
  5
26008
  8
51
 10
416.45658392157708
 20
91.868883681593715
 30
0.0
 40
4.0364559627323802
 50
201.5016597650594
 51
216.6929561589524
  0
ARC
  5
26009
  8
51
 10
424.05658392157773
 20
93.468457163071136
 30
0.0
 40
4.5017150451767449
 50
132.38934640485991
 51
180.0
  0
ARC
  5
2600A
  8
51
 10
423.4567202738603
 20
94.068321627716415
 30
0.0
 40
2.8992713480674812
 50
89.955258619683079
 51
180.0123206532466
  0
ARC
  5
2600B
  8
51
 10
416.85658392157779
 20
82.468883681594008
 30
0.0
 40
6.4379254762216638
 50
270.0
 51
0.0
  0
ARC
  5
2600C
  8
51
 10
416.85658392157779
 20
82.468883681594008
 30
0.0
 40
7.3842599782758489
 50
270.0
 51
0.0
  0
ARC
  5
2600D
  8
51
 10
416.85658392157779
 20
82.468883681594008
 30
0.0
 40
2.6982849567959302
 50
270.0
 51
0.0
  0
ARC
  5
2600E
  8
51
 10
416.85658392157779
 20
82.468883681594008
 30
0.0
 40
3.7008650712469371
 50
270.0
 51
0.0
  0
LINE
  5
2600F
  8
51
 10
414.85687712003369
 20
79.770598724303937
 30
0.0
 11
416.85658392157779
 21
79.770598724798077
 31
0.0
  0
LINE
  5
26010
  8
51
 10
416.85658392157779
 20
78.76801861034707
 30
0.0
 11
414.25690001698689
 21
78.76801861034707
 31
0.0
  0
LINE
  5
26011
  8
51
 10
414.41804224541221
 20
76.030958205372343
 30
0.0
 11
416.85658392157779
 21
76.030958205372343
 31
0.0
  0
LINE
  5
26012
  8
51
 10
416.85658392157779
 20
75.084623703318158
 30
0.0
 11
415.1412551878924
 21
75.084623703318158
 31
0.0
  0
ARC
  5
26013
  8
51
 10
414.4182156568595
 20
75.707596809210742
 30
0.0
 40
0.3233614426599285
 50
90.030726435540657
 51
181.2880099932338
  0
ARC
  5
26014
  8
51
 10
415.14120585158412
 20
74.984688270117971
 30
0.0
 40
0.0999354453855719
 50
89.971714116579435
 51
180.028285887538
  0
LINE
  5
26015
  8
51
 10
418.49771303870199
 20
91.844692485931574
 30
0.0
 11
416.12596924704911
 21
89.854563145108642
 31
0.0
  0
ARC
  5
26016
  8
51
 10
418.26817207817231
 20
94.824934653903384
 30
0.0
 40
0.5694559627323349
 50
58.498340234939477
 51
129.9999999999996
  0
ARC
  5
26017
  8
51
 10
416.45658392157782
 20
91.868883681593985
 30
0.0
 40
2.0412724675359391
 50
234.71890466289861
 51
260.67903030166309
  0
LINE
  5
26018
  8
51
 10
414.0426122972429
 20
89.361030475104457
 30
0.0
 11
415.03349362405629
 21
90.192478630973852
 31
0.0
  0
ARC
  5
26019
  8
51
 10
415.16205114599359
 20
90.039269742350044
 30
0.0
 40
0.2
 50
54.718904662903057
 51
129.99999999999119
  0
LINE
  5
2601A
  8
51
 10
417.90213284106579
 20
95.261163229755454
 30
0.0
 11
416.8090038271323
 21
94.343919077334604
 31
0.0
  0
LINE
  5
2601B
  8
51
 10
419.55486887837378
 20
82.468883681594008
 30
0.0
 11
419.55486887837361
 21
93.468590432346474
 31
0.0
  0
LINE
  5
2601C
  8
51
 10
420.55744899282462
 20
94.067702514938304
 30
0.0
 11
420.55744899282467
 21
82.468883681594008
 31
0.0
  0
ARC
  5
2601D
  8
51
 10
418.9794797391441
 20
94.246926089479274
 30
0.0
 40
0.569455962732339
 50
309.9999999999954
 51
43.30704384104024
  0
ARC
  5
2601E
  8
51
 10
416.4565839215781
 20
91.86888368159461
 30
0.0
 40
4.0364559627323802
 50
43.307043841044987
 51
58.498340234939477
  0
LINE
  5
2601F
  8
51
 10
419.34551897625062
 20
93.810697513627204
 30
0.0
 11
418.35463764943739
 21
92.979249357757709
 31
0.0
  0
ARC
  5
26020
  8
51
 10
418.48319517137458
 20
92.826040469133957
 30
0.0
 40
0.2
 50
130.00000000000821
 51
205.28109533709511
  0
ARC
  5
26021
  8
51
 10
416.45658392157782
 20
91.868883681593985
 30
0.0
 40
2.041272467535924
 50
359.32096969830178
 51
25.279884337722581
  0
LINE
  5
26022
  8
51
 10
423.29450939779952
 20
82.468883681594008
 30
0.0
 11
423.29450939779952
 21
93.907425357760033
 31
0.0
  0
LINE
  5
26023
  8
51
 10
424.24084389985359
 20
93.184212415279845
 30
0.0
 11
424.2408438998537
 21
82.468883681594065
 31
0.0
  0
ARC
  5
26024
  8
51
 10
423.61774470645838
 20
93.907296378227628
 30
0.0
 40
0.32323533439212
 50
90.022862553617387
 51
179.97713745292319
  0
ARC
  5
26025
  8
51
 10
424.34077933319628
 20
93.184261751463424
 30
0.0
 40
0.099935445520851
 50
89.971714194217142
 51
180.02828581186421
  0
LINE
  5
26026
  8
51
 10
420.95427865625129
 20
96.96716863838995
 30
0.0
 11
416.45658392157782
 21
96.967168638389893
 31
0.0
  0
ARC
  5
26027
  8
51
 10
420.95456074134722
 20
96.867293252301096
 30
0.0
 40
0.0998757844444711
 50
312.22752233055508
 51
90.161824079575183
  0
LINE
  5
26028
  8
L6
 10
589.11011788799874
 20
64.968883681594292
 30
0.0
 11
536.48197565953774
 21
64.96888368159432
 31
0.0
  0
ARC
  5
26029
  8
51
 10
502.25658392157789
 20
91.868883681594326
 30
0.0
 40
6.0999999999999943
 50
0.0
 51
90.0
  0
LINE
  5
2602A
  8
51
 10
501.90416401602369
 20
94.343919077334604
 30
0.0
 11
505.84834405658881
 21
91.034359059999673
 31
0.0
  0
LINE
  5
2602B
  8
51
 10
504.45540275492209
 20
88.168018610347659
 30
0.0
 11
501.85658392157791
 21
88.168018610347659
 31
0.0
  0
LINE
  5
2602C
  8
51
 10
501.85658392157791
 20
89.170598724798623
 30
0.0
 11
503.85629067233037
 21
89.170598724798623
 31
0.0
  0
LINE
  5
2602D
  8
51
 10
501.85658392157791
 20
85.430958205372946
 30
0.0
 11
504.29512559774372
 21
85.430958205372946
 31
0.0
  0
ARC
  5
2602E
  8
51
 10
502.25658392157789
 20
91.868883681594497
 30
0.0
 40
5.098284956795907
 50
0.0
 51
90.0
  0
LINE
  5
2602F
  8
51
 10
500.215454804454
 20
91.844692485931574
 30
0.0
 11
502.58719859610682
 21
89.854563145108642
 31
0.0
  0
LINE
  5
26030
  8
51
 10
503.57191265526359
 20
84.484623703318761
 30
0.0
 11
501.85658392157791
 21
84.484623703318704
 31
0.0
  0
ARC
  5
26031
  8
51
 10
494.65658392157792
 20
93.468457163071577
 30
0.0
 40
4.501715044684647
 50
0.0
 51
47.610653589411712
  0
ARC
  5
26032
  8
51
 10
495.25644839455907
 20
94.068320834574564
 30
0.0
 40
2.8992713242813331
 50
359.9556513406493
 51
90.012320528576183
  0
ARC
  5
26033
  8
51
 10
501.85658392157791
 20
91.868883681594497
 30
0.0
 40
7.3842599782758489
 50
180.0
 51
270.0
  0
ARC
  5
26034
  8
51
 10
501.85658392157791
 20
91.868883681594497
 30
0.0
 40
6.4379254762216638
 50
180.0
 51
270.0
  0
ARC
  5
26035
  8
51
 10
501.85658392157791
 20
91.868883681594497
 30
0.0
 40
3.7008650712469091
 50
180.0
 51
270.0
  0
ARC
  5
26036
  8
51
 10
494.37238850971403
 20
93.184261751223545
 30
0.0
 40
0.0999354457660119
 50
359.97171432571071
 51
90.028285665075515
  0
LINE
  5
26037
  8
51
 10
494.472323943302
 20
91.868883681594497
 30
0.0
 11
494.472323943302
 21
93.184212415279845
 31
0.0
  0
ARC
  5
26038
  8
51
 10
495.09542313674569
 20
93.907296378233255
 30
0.0
 40
0.3232353343494828
 50
0.0228651078824929
 51
89.977137454971029
  0
LINE
  5
26039
  8
51
 10
495.41865844535607
 20
93.907425357760033
 30
0.0
 11
495.41865844535607
 21
91.868883681594497
 31
0.0
  0
ARC
  5
2603A
  8
51
 10
502.25658392157783
 20
91.868883681594667
 30
0.0
 40
4.0364559627323802
 50
121.5016597650605
 51
136.6929561589549
  0
LINE
  5
2603B
  8
51
 10
499.36764886690543
 20
93.810697513627204
 30
0.0
 11
500.35853019371859
 21
92.979249357757709
 31
0.0
  0
ARC
  5
2603C
  8
51
 10
501.85658392157791
 20
91.868883681594497
 30
0.0
 40
2.6982849567959302
 50
180.0
 51
270.0
  0
ARC
  5
2603D
  8
51
 10
499.73368810401178
 20
94.246926089479345
 30
0.0
 40
0.569455962732339
 50
136.6929561589597
 51
230.00000000000449
  0
LINE
  5
2603E
  8
51
 10
498.15571885033091
 20
91.868883681594554
 30
0.0
 11
498.15571885033091
 21
94.066089497402203
 31
0.0
  0
LINE
  5
2603F
  8
51
 10
499.15829896428778
 20
93.468590483138684
 30
0.0
 11
499.15829896478192
 21
91.868883681594554
 31
0.0
  0
LINE
  5
26040
  8
51
 10
500.81103500209019
 20
95.261163229755454
 30
0.0
 11
501.90416401602369
 21
94.343919077334604
 31
0.0
  0
ARC
  5
26041
  8
51
 10
500.2299726717813
 20
92.826040469134028
 30
0.0
 40
0.2
 50
334.71890466290478
 51
49.999999999991779
  0
ARC
  5
26042
  8
51
 10
502.25658392157828
 20
91.868883681594042
 30
0.0
 40
2.041272467535924
 50
154.72011566227741
 51
180.67903030169811
  0
ARC
  5
26043
  8
51
 10
500.44499576498367
 20
94.824934653903455
 30
0.0
 40
0.5694559627323349
 50
50.000000000000298
 51
121.5016597650605
  0
LINE
  5
26044
  8
51
 10
502.25658392157783
 20
96.967168638390461
 30
0.0
 11
497.75888918690322
 21
96.967168638390461
 31
0.0
  0
ARC
  5
26045
  8
51
 10
497.75860710695571
 20
96.867293250330974
 30
0.0
 40
0.0998757864432042
 50
89.838178876567255
 51
227.7724747223352
  0
ARC
  5
26046
  8
51
 10
504.45602187153582
 20
85.268747340243095
 30
0.0
 40
2.8992713371354411
 50
359.95543857387202
 51
90.012320439578446
  0
ARC
  5
26047
  8
51
 10
503.85615740305502
 20
84.668883681594494
 30
0.0
 40
4.5017150451767174
 50
42.389346417452522
 51
89.998303809338907
  0
ARC
  5
26048
  8
51
 10
504.2945993664211
 20
85.107324225345437
 30
0.0
 40
0.3236344078552578
 50
359.8064045710405
 51
89.906836707137856
  0
ARC
  5
26049
  8
51
 10
503.57196199132721
 20
84.384688269870793
 30
0.0
 40
0.0999354456301321
 50
359.97171425455912
 51
90.02828574306821
  0
LINE
  5
2604A
  8
51
 10
504.67055554591309
 20
89.361030475104457
 30
0.0
 11
503.6796742190997
 21
90.192478630973852
 31
0.0
  0
ARC
  5
2604B
  8
51
 10
502.25658392157828
 20
91.868883681594042
 30
0.0
 40
2.0412724675359391
 50
279.32096969833691
 51
305.28109533710119
  0
ARC
  5
2604C
  8
51
 10
503.55111669716251
 20
90.039269742350115
 30
0.0
 40
0.2
 50
50.000000000008683
 51
125.2810953370969
  0
ARC
  5
2604D
  8
51
 10
505.48230481948229
 20
90.598130484147617
 30
0.0
 40
0.5694559627323642
 50
338.4983402349356
 51
50.000000000004228
  0
ARC
  5
2604E
  8
51
 10
505.0365947830195
 20
89.797259050956569
 30
0.0
 40
0.569455962732339
 50
229.99999999999591
 51
323.30704384104212
  0
ARC
  5
2604F
  8
51
 10
502.25658392157891
 20
91.868883681593758
 30
0.0
 40
4.0364559627323802
 50
323.3070438410474
 51
338.49834023494049
  0
LINE
  5
26050
  8
51
 10
507.35486887837379
 20
87.771188946920986
 30
0.0
 11
507.35486887837379
 21
91.86888368159461
 31
0.0
  0
ARC
  5
26051
  8
51
 10
507.254993492263
 20
87.770906861972122
 30
0.0
 40
0.0998757845255719
 50
222.22752240223201
 51
0.1618360952038259
  0
LINE
  5
26052
  8
51
 10
551.62473391585081
 20
97.785601512111612
 30
0.0
 11
562.1249623731162
 21
97.96888368159432
 31
0.0
  0
LINE
  5
26053
  8
L3
 10
552.92496237311605
 20
74.924037105978513
 30
0.0
 11
562.12496237311575
 21
75.084623703318186
 31
0.0
  0
LINE
  5
26054
  8
L3
 10
552.92496237311605
 20
93.123610587455914
 30
0.0
 11
562.1249623731162
 21
93.284197184795516
 31
0.0
  0
LINE
  5
26055
  8
51
 10
551.62473391585081
 20
97.785601512111612
 30
0.0
 11
550.1249623731162
 21
96.232542615849525
 31
0.0
  0
LINE
  5
26056
  8
51
 10
550.1249623731162
 20
96.232542615849525
 30
0.0
 11
550.12496237311609
 21
64.96888368159432
 31
0.0
  0
LINE
  5
26057
  8
L3
 10
552.92496237311605
 20
93.123610587455914
 30
0.0
 11
552.92496237311605
 21
64.96888368159432
 31
0.0
  0
LINE
  5
26058
  8
51
 10
562.1249623731162
 20
97.96888368159432
 30
0.0
 11
562.12496237311598
 21
64.96888368159432
 31
0.0
  0
LINE
  5
26059
  8
51
 10
563.1249623731162
 20
64.96888368159432
 30
0.0
 11
563.1249623731162
 21
94.130546917334073
 31
0.0
  0
LINE
  5
2605A
  8
51
 10
563.02670761375953
 20
76.030958205372372
 30
0.0
 11
562.12496237311575
 21
76.046698227096556
 31
0.0
  0
ARC
  5
2605B
  8
51
 10
563.02496237311584
 20
75.930973435856743
 30
0.0
 40
0.0999999999999943
 50
359.9999999999992
 51
89.000000000007987
  0
LINE
  5
2605C
  8
51
 10
563.02670761375998
 20
94.230531686849716
 30
0.0
 11
562.1249623731162
 21
94.246271708573886
 31
0.0
  0
ARC
  5
2605D
  8
51
 10
563.02496237311618
 20
94.130546917334073
 30
0.0
 40
0.0999999999999943
 50
359.9999999999992
 51
89.000000000007987
  0
LINE
  5
2605E
  8
L3
 10
618.04765507716513
 20
146.02397329677609
 30
0.0
 11
646.20238198302673
 21
146.02397329677621
 31
0.0
  0
LINE
  5
2605F
  8
51
 10
662.20238198302673
 20
135.8239732985015
 30
0.0
 11
617.04071874725196
 21
135.82397329666799
 31
0.0
  0
LINE
  5
26060
  8
51
 10
614.97912567135495
 20
148.8239732967761
 30
0.0
 11
662.20238198302673
 21
148.8239732967761
 31
0.0
  0
LINE
  5
26061
  8
51
 10
613.20238198302673
 20
136.8239732967761
 30
0.0
 11
662.20238198302673
 21
136.8239732967761
 31
0.0
  0
LINE
  5
26062
  8
51
 10
705.1023819830267
 20
97.968883681594292
 30
0.0
 11
619.30238198302675
 21
97.968883681594292
 31
0.0
  0
LINE
  5
26063
  8
51
 10
619.30238198302675
 20
96.261605830311879
 30
0.0
 11
705.1023819830267
 21
96.261605830311879
 31
0.0
  0
ARC
  5
26064
  8
51
 10
619.30238198302675
 20
91.868883681594284
 30
0.0
 40
6.1000000000000218
 50
90.0
 51
180.0
  0
ARC
  5
26065
  8
51
 10
619.30238198302675
 20
91.868883681594284
 30
0.0
 40
4.3927221487176089
 50
90.0
 51
180.0
  0
CIRCLE
  5
26066
  8
51
 10
619.30238198302675
 20
91.868883681594582
 30
0.0
 40
4.0995655687828503
  0
LINE
  5
26067
  8
L3
 10
626.84722855864004
 20
146.02397329677609
 30
0.0
 11
626.68664196130044
 21
136.8239732967765
 31
0.0
  0
LINE
  5
26068
  8
51
 10
613.38494125016518
 20
147.2827867064774
 30
0.0
 11
613.20238198302673
 21
136.8239732967761
 31
0.0
  0
LINE
  5
26069
  8
51
 10
616.94073383929594
 20
135.9222359893725
 30
0.0
 11
616.92499395604705
 21
136.8239732967761
 31
0.0
  0
ARC
  5
2606A
  8
51
 10
617.04071874749854
 20
135.9239732968814
 30
0.0
 40
0.1000000002134084
 50
181.00000005771281
 51
269.99999985868362
  0
LINE
  5
2606B
  8
51
 10
613.41546018263489
 20
147.35297544586749
 30
0.0
 11
614.90965983430897
 21
148.79590727681
 31
0.0
  0
LINE
  5
2606C
  8
L3
 10
618.04765507716513
 20
146.02397329677609
 30
0.0
 11
617.88706847982553
 21
136.8239732967761
 31
0.0
  0
LINE
  5
2606D
  8
51
 10
626.14030745924822
 20
135.92222805613241
 30
0.0
 11
626.12456743752387
 21
136.8239732967761
 31
0.0
  0
ARC
  5
2606E
  8
51
 10
626.24029222876379
 20
135.9239732967761
 30
0.0
 40
0.1000000000000796
 50
181.00000000387641
 51
270.0
  0
LINE
  5
2606F
  8
L3
 10
706.35710888888832
 20
146.02397329677609
 30
0.0
 11
646.20238198302673
 21
146.02397329677621
 31
0.0
  0
LINE
  5
26070
  8
51
 10
711.20238198302673
 20
136.8239732967761
 30
0.0
 11
662.20238198302673
 21
136.8239732967761
 31
0.0
  0
LINE
  5
26071
  8
51
 10
709.42563829469839
 20
148.8239732967761
 30
0.0
 11
662.20238198302673
 21
148.8239732967761
 31
0.0
  0
LINE
  5
26072
  8
51
 10
662.20238198302673
 20
135.8239732985015
 30
0.0
 11
707.36404521880149
 21
135.82397329666799
 31
0.0
  0
LINE
  5
26073
  8
L6
 10
662.20238198302673
 20
121.79144969913671
 30
0.0
 11
662.20238198302673
 21
157.11474807759211
 31
0.0
  0
ARC
  5
26074
  8
51
 10
705.1023819830267
 20
91.868883681594284
 30
0.0
 40
6.1000000000000218
 50
359.9999999999992
 51
90.0
  0
ARC
  5
26075
  8
51
 10
705.1023819830267
 20
91.868883681594284
 30
0.0
 40
4.3927221487176089
 50
359.9999999999992
 51
90.0
  0
CIRCLE
  5
26076
  8
51
 10
705.10238198302648
 20
91.868883681594582
 30
0.0
 40
4.0995655687828503
  0
LINE
  5
26077
  8
L3
 10
697.55753540741341
 20
146.02397329677609
 30
0.0
 11
697.71812200475301
 21
136.8239732967765
 31
0.0
  0
LINE
  5
26078
  8
L3
 10
706.35710888888832
 20
146.02397329677609
 30
0.0
 11
706.51769548622792
 21
136.8239732967761
 31
0.0
  0
LINE
  5
26079
  8
51
 10
698.26445650680523
 20
135.92222805613241
 30
0.0
 11
698.28019652852936
 21
136.8239732967761
 31
0.0
  0
ARC
  5
2607A
  8
51
 10
698.16447173728955
 20
135.9239732967761
 30
0.0
 40
0.1000000000000796
 50
270.0
 51
358.99999999612351
  0
LINE
  5
2607B
  8
51
 10
711.01982271588815
 20
147.2827867064774
 30
0.0
 11
711.20238198302673
 21
136.8239732967761
 31
0.0
  0
LINE
  5
2607C
  8
51
 10
707.46403012675739
 20
135.9222359893725
 30
0.0
 11
707.47977001000629
 21
136.8239732967761
 31
0.0
  0
ARC
  5
2607D
  8
51
 10
707.36404521855491
 20
135.9239732968814
 30
0.0
 40
0.1000000002134084
 50
270.00000014131632
 51
358.99999994228722
  0
LINE
  5
2607E
  8
51
 10
710.98930378341856
 20
147.35297544586749
 30
0.0
 11
709.49510413174426
 21
148.79590727681
 31
0.0
  0
LINE
  5
2607F
  8
L3
 10
771.47980159293729
 20
36.814156775732691
 30
0.0
 11
771.47980159293729
 21
64.968883681594292
 31
0.0
  0
LINE
  5
26080
  8
51
 10
761.27980159293725
 20
64.968883681594292
 30
0.0
 11
761.27980159293725
 21
35.80722044585454
 31
0.0
  0
LINE
  5
26081
  8
51
 10
774.27980159293725
 20
33.705224747339081
 30
0.0
 11
774.27980159293725
 21
64.968883681594292
 31
0.0
  0
LINE
  5
26082
  8
51
 10
762.27980159293725
 20
31.968883681594289
 30
0.0
 11
762.27980159293725
 21
64.968883681594292
 31
0.0
  0
LINE
  5
26083
  8
L3
 10
771.47980159293729
 20
36.814156775732691
 30
0.0
 11
762.27980159293725
 21
36.653570178393089
 31
0.0
  0
LINE
  5
26084
  8
L3
 10
771.47980159293729
 20
55.013730257210078
 30
0.0
 11
762.2798015929377
 21
54.853143659870433
 31
0.0
  0
LINE
  5
26085
  8
51
 10
772.78003005020264
 20
32.152165851077001
 30
0.0
 11
762.27980159293725
 21
31.968883681594289
 31
0.0
  0
LINE
  5
26086
  8
51
 10
761.37805635229347
 20
35.707235676338911
 30
0.0
 11
762.27980159293725
 21
35.69149565461472
 31
0.0
  0
ARC
  5
26087
  8
51
 10
761.37980159293716
 20
35.80722044585454
 30
0.0
 40
0.0999999999999943
 50
179.99999999999909
 51
269.00000000000801
  0
LINE
  5
26088
  8
51
 10
761.37805635229392
 20
53.906809157816241
 30
0.0
 11
762.2798015929377
 21
53.891069136092057
 31
0.0
  0
ARC
  5
26089
  8
51
 10
761.37980159293761
 20
54.00679392733187
 30
0.0
 40
0.0999999999999943
 50
179.99999999999909
 51
269.00000000000801
  0
LINE
  5
2608A
  8
51
 10
772.78003005020264
 20
32.152165851077001
 30
0.0
 11
774.27980159293725
 21
33.705224747339081
 31
0.0
  0
LINE
  5
2608B
  8
L6
 10
735.29464607805471
 20
64.968883681594292
 30
0.0
 11
787.92278830651571
 21
64.968883681594292
 31
0.0
  0
LINE
  5
2608C
  8
51
 10
772.78003005020264
 20
97.785601512111583
 30
0.0
 11
762.27980159293725
 21
97.968883681594292
 31
0.0
  0
LINE
  5
2608D
  8
L3
 10
771.47980159293729
 20
84.324037105980977
 30
0.0
 11
762.2798015929377
 21
84.484623703320636
 31
0.0
  0
LINE
  5
2608E
  8
L3
 10
771.47980159293729
 20
93.123610587455886
 30
0.0
 11
762.27980159293725
 21
93.284197184795488
 31
0.0
  0
LINE
  5
2608F
  8
51
 10
762.27980159293725
 20
97.968883681594292
 30
0.0
 11
762.27980159293725
 21
64.968883681594292
 31
0.0
  0
LINE
  5
26090
  8
51
 10
761.27980159293725
 20
64.968883681594292
 30
0.0
 11
761.27980159293725
 21
94.130546917334044
 31
0.0
  0
LINE
  5
26091
  8
51
 10
761.37805635229347
 20
85.430958205372946
 30
0.0
 11
762.27980159293725
 21
85.446698227097073
 31
0.0
  0
ARC
  5
26092
  8
51
 10
761.37980159293716
 20
85.330973435857317
 30
0.0
 40
0.1000000000000184
 50
90.999999999998494
 51
180.0
  0
LINE
  5
26093
  8
51
 10
761.37805635229347
 20
94.230531686849673
 30
0.0
 11
762.27980159293725
 21
94.246271708573857
 31
0.0
  0
ARC
  5
26094
  8
51
 10
761.37980159293716
 20
94.130546917334044
 30
0.0
 40
0.0999999999999943
 50
90.999999999991999
 51
180.0
  0
LINE
  5
26095
  8
51
 10
772.78003005020264
 20
97.785601512111583
 30
0.0
 11
774.27980159293725
 21
96.232542615849496
 31
0.0
  0
LINE
  5
26096
  8
51
 10
774.27980159293725
 20
96.232542615849496
 30
0.0
 11
774.27980159293725
 21
64.968883681594292
 31
0.0
  0
LINE
  5
26097
  8
L3
 10
771.47980159293729
 20
93.123610587455886
 30
0.0
 11
771.47980159293729
 21
64.968883681594292
 31
0.0
  0
TEXT
  5
26098
  8
L20
 10
443.5479830638244
 20
128.9605043993509
 30
0.0
 40
6.0
  1
66x98x12 Cover
  7
TKKISO
  0
TEXT
  5
26099
  8
L20
 10
443.5479830638244
 20
140.7391697902984
 30
0.0
 40
6.0
  1
FIBOX EURONORD II 
  7
TKKISO
  0
LINE
  5
2609A
  8
51
 10
613.45440708721105
 20
147.3108527264435
 30
0.0
 11
711.01982271588815
 21
147.2827867064774
 31
0.0
  0
LINE
  5
2609B
  8
51
 10
551.62473391585081
 20
97.785601512111612
 30
0.0
 11
551.62473391585081
 21
32.152165851077029
 31
0.0
  0
LINE
  5
2609C
  8
51
 10
772.78003005020264
 20
97.785601512111583
 30
0.0
 11
772.78003005020264
 21
32.152165851077001
 31
0.0
  0
LINE
  5
2609D
  8
51
 10
711.01982271588815
 20
-17.345019343288861
 30
0.0
 11
613.41546018263489
 21
-17.41520808267898
 31
0.0
  0
VIEWPORT
  5
1
 67
     1
  8
0
 10
210.0
 20
152.0942408376963
 30
0.0
 40
420.0
 41
304.18848167539261
 68
     1
 69
     1
1001
ACAD
1000
MVIEW
1002
{
1070
    16
1010
0.0
1020
0.0
1030
0.0
1010
0.0
1020
0.0
1030
1.0
1040
0.0
1040
304.18848167539261
1040
210.0
1040
152.0942408376963
1040
50.0
1040
0.0
1040
0.0
1070
     0
1070
   100
1070
     1
1070
     1
1070
     1
1070
     0
1070
     0
1070
     0
1040
0.0
1040
0.0
1040
0.0
1040
1.0
1040
1.0
1040
0.0
1040
0.0
1070
     0
1002
{
1002
}
1002
}
  0
ENDSEC
  0
EOF
